ISO-10303-21;
HEADER;
FILE_DESCRIPTION (( 'STEP AP214' ),
    '1' );
FILE_NAME ('84776.STEP',
    '2023-07-05T16:24:41',
    ( '' ),
    ( '' ),
    'SwSTEP 2.0',
    'SolidWorks 2023',
    '' );
FILE_SCHEMA (( 'AUTOMOTIVE_DESIGN' ));
ENDSEC;

DATA;
#1 = STYLED_ITEM ( 'NONE', ( #210 ), #189 ) ;
#2 = CARTESIAN_POINT ( 'NONE',  ( 6.123233995736772199E-17, 2.500000000000000000, 0.000000000000000000 ) ) ;
#3 =( LENGTH_UNIT ( ) NAMED_UNIT ( * ) SI_UNIT ( $, .METRE. ) );
#4 = SURFACE_STYLE_USAGE ( .BOTH. , #187 ) ;
#5 = PRODUCT_DEFINITION_SHAPE ( 'NONE', 'NONE',  #167 ) ;
#6 = AXIS2_PLACEMENT_3D ( 'NONE', #217, #21, #235 ) ;
#7 = EDGE_CURVE ( 'NONE', #173, #176, #177, .T. ) ;
#8 = CARTESIAN_POINT ( 'NONE',  ( 0.000000000000000000, 0.000000000000000000, 0.000000000000000000 ) ) ;
#9 = EDGE_CURVE ( 'NONE', #38, #176, #115, .T. ) ;
#10 =( GEOMETRIC_REPRESENTATION_CONTEXT ( 3 ) GLOBAL_UNCERTAINTY_ASSIGNED_CONTEXT ( ( #182 ) ) GLOBAL_UNIT_ASSIGNED_CONTEXT ( ( #30, #159, #77 ) ) REPRESENTATION_CONTEXT ( 'NONE', 'WORKASPACE' ) );
#11 = SURFACE_STYLE_USAGE ( .BOTH. , #58 ) ;
#12 = CARTESIAN_POINT ( 'NONE',  ( 2.870265935501609472E-16, 0.1562499999999994726, 0.000000000000000000 ) ) ;
#13 = ORIENTED_EDGE ( 'NONE', *, *, #197, .F. ) ;
#14 = COLOUR_RGB ( '',1.000000000000000000, 0.000000000000000000, 0.000000000000000000 ) ;
#15 = CARTESIAN_POINT ( 'NONE',  ( 0.000000000000000000, 0.1562499999999995004, 0.1562500000000000000 ) ) ;
#16 = CARTESIAN_POINT ( 'NONE',  ( 0.1562499999999998612, 2.500000000000000000, 1.913510623667736998E-17 ) ) ;
#17 = ORIENTED_EDGE ( 'NONE', *, *, #7, .T. ) ;
#18 = CARTESIAN_POINT ( 'NONE',  ( 0.1562500000000000000, 2.500000000000000000, 1.913510623667737923E-17 ) ) ;
#19 =( GEOMETRIC_REPRESENTATION_CONTEXT ( 3 ) GLOBAL_UNCERTAINTY_ASSIGNED_CONTEXT ( ( #25 ) ) GLOBAL_UNIT_ASSIGNED_CONTEXT ( ( #75, #140, #181 ) ) REPRESENTATION_CONTEXT ( 'NONE', 'WORKASPACE' ) );
#20 =( LENGTH_UNIT ( ) NAMED_UNIT ( * ) SI_UNIT ( $, .METRE. ) );
#21 = DIRECTION ( 'NONE',  ( -0.000000000000000000, -1.000000000000000000, -0.000000000000000000 ) ) ;
#22 = VERTEX_POINT ( 'NONE', #150 ) ;
#23 = DIRECTION ( 'NONE',  ( 0.000000000000000000, 0.000000000000000000, 1.000000000000000000 ) ) ;
#24 = EDGE_CURVE ( 'NONE', #173, #38, #54, .T. ) ;
#25 = UNCERTAINTY_MEASURE_WITH_UNIT (LENGTH_MEASURE( 1.000000000000000082E-05 ), #75, 'distance_accuracy_value', 'NONE');
#26 = CARTESIAN_POINT ( 'NONE',  ( 0.000000000000000000, 0.000000000000000000, 0.000000000000000000 ) ) ;
#27 = PRESENTATION_LAYER_ASSIGNMENT (  '', '', ( #66 ) ) ;
#28 = DIRECTION ( 'NONE',  ( -9.633888153292509464E-17, 1.000000000000000000, -0.000000000000000000 ) ) ;
#29 = DIRECTION ( 'NONE',  ( 8.659560562354947649E-17, 0.7071067811865464625, -0.7071067811865486830 ) ) ;
#30 =( CONVERSION_BASED_UNIT ( 'INCH', #129 ) LENGTH_UNIT ( ) NAMED_UNIT ( #121 ) );
#31 =( NAMED_UNIT ( * ) PLANE_ANGLE_UNIT ( ) SI_UNIT ( $, .RADIAN. ) );
#32 = VECTOR ( 'NONE', #202, 39.37007874015748143 ) ;
#33 = DIRECTION ( 'NONE',  ( -9.633888153292509464E-17, 1.000000000000000000, 0.000000000000000000 ) ) ;
#34 = PRODUCT ( '84776', '84776', '', ( #68 ) ) ;
#35 = DIRECTION ( 'NONE',  ( -9.633888153292509464E-17, 1.000000000000000000, -0.000000000000000000 ) ) ;
#36 = STYLED_ITEM ( 'NONE', ( #168 ), #184 ) ;
#37 = EDGE_LOOP ( 'NONE', ( #67, #135, #195, #199 ) ) ;
#38 = VERTEX_POINT ( 'NONE', #15 ) ;
#39 = FACE_OUTER_BOUND ( 'NONE', #127, .T. ) ;
#40 = DIRECTION ( 'NONE',  ( -9.633888153292509464E-17, 1.000000000000000000, -0.000000000000000000 ) ) ;
#41 = SHAPE_DEFINITION_REPRESENTATION ( #5, #174 ) ;
#42 = EDGE_LOOP ( 'NONE', ( #88, #152, #69 ) ) ;
#43 = PRESENTATION_LAYER_ASSIGNMENT (  '', '', ( #36 ) ) ;
#44 = VERTEX_POINT ( 'NONE', #18 ) ;
#45 = DIRECTION ( 'NONE',  ( 1.000000000000000000, 0.000000000000000000, 0.000000000000000000 ) ) ;
#46 = AXIS2_PLACEMENT_3D ( 'NONE', #2, #206, #204 ) ;
#47 = SURFACE_STYLE_FILL_AREA ( #79 ) ;
#48 = ADVANCED_FACE ( 'NONE', ( #113 ), #172, .T. ) ;
#49 = PLANE ( 'NONE',  #97 ) ;
#50 = AXIS2_PLACEMENT_3D ( 'NONE', #112, #101, #103 ) ;
#51 = FILL_AREA_STYLE ('',( #253 ) ) ;
#52 =( NAMED_UNIT ( * ) PLANE_ANGLE_UNIT ( ) SI_UNIT ( $, .RADIAN. ) );
#53 = DIMENSIONAL_EXPONENTS ( 1.000000000000000000, 0.000000000000000000, 0.000000000000000000, 0.000000000000000000, 0.000000000000000000, 0.000000000000000000, 0.000000000000000000 ) ;
#54 = LINE ( 'NONE', #8, #136 ) ;
#55 = FILL_AREA_STYLE_COLOUR ( '', #59 ) ;
#56 = DIRECTION ( 'NONE',  ( 0.000000000000000000, 0.7071067811865464625, 0.7071067811865486830 ) ) ;
#57 = PRESENTATION_LAYER_ASSIGNMENT (  '', '', ( #240 ) ) ;
#58 = SURFACE_SIDE_STYLE ('',( #193 ) ) ;
#59 = COLOUR_RGB ( '',0.7921568627450980005, 0.8196078431372548767, 0.9333333333333333481 ) ;
#60 = SURFACE_STYLE_FILL_AREA ( #219 ) ;
#61 = PRODUCT_RELATED_PRODUCT_CATEGORY ( 'part', '', ( #34 ) ) ;
#62 = CARTESIAN_POINT ( 'NONE',  ( 6.123233995736772199E-17, 2.500000000000000000, 0.000000000000000000 ) ) ;
#63 = PLANE ( 'NONE',  #133 ) ;
#64 = EDGE_LOOP ( 'NONE', ( #138, #13 ) ) ;
#65 = CARTESIAN_POINT ( 'NONE',  ( -0.1562499999999997224, 2.500000000000000000, 0.000000000000000000 ) ) ;
#66 = STYLED_ITEM ( 'NONE', ( #263 ), #147 ) ;
#67 = ORIENTED_EDGE ( 'NONE', *, *, #82, .F. ) ;
#68 = PRODUCT_CONTEXT ( 'NONE', #76, 'mechanical' ) ;
#69 = ORIENTED_EDGE ( 'NONE', *, *, #9, .T. ) ;
#70 = UNCERTAINTY_MEASURE_WITH_UNIT (LENGTH_MEASURE( 1.000000000000000082E-05 ), #81, 'distance_accuracy_value', 'NONE');
#71 = FILL_AREA_STYLE_COLOUR ( '', #73 ) ;
#72 =( NAMED_UNIT ( * ) SI_UNIT ( $, .STERADIAN. ) SOLID_ANGLE_UNIT ( ) );
#73 = COLOUR_RGB ( '',1.000000000000000000, 0.000000000000000000, 0.000000000000000000 ) ;
#74 = DIRECTION ( 'NONE',  ( -1.000000000000000000, 0.000000000000000000, 0.000000000000000000 ) ) ;
#75 =( CONVERSION_BASED_UNIT ( 'INCH', #183 ) LENGTH_UNIT ( ) NAMED_UNIT ( #250 ) );
#76 = APPLICATION_CONTEXT ( 'automotive_design' ) ;
#77 =( NAMED_UNIT ( * ) SI_UNIT ( $, .STERADIAN. ) SOLID_ANGLE_UNIT ( ) );
#78 =( NAMED_UNIT ( * ) SI_UNIT ( $, .STERADIAN. ) SOLID_ANGLE_UNIT ( ) );
#79 = FILL_AREA_STYLE ('',( #162 ) ) ;
#80 = MECHANICAL_DESIGN_GEOMETRIC_PRESENTATION_REPRESENTATION (  '', ( #240 ), #213 ) ;
#81 =( CONVERSION_BASED_UNIT ( 'INCH', #161 ) LENGTH_UNIT ( ) NAMED_UNIT ( #248 ) );
#82 = EDGE_CURVE ( 'NONE', #90, #44, #151, .T. ) ;
#83 =( LENGTH_UNIT ( ) NAMED_UNIT ( * ) SI_UNIT ( $, .METRE. ) );
#84 = CLOSED_SHELL ( 'NONE', ( #48, #255, #252, #87 ) ) ;
#85 = CIRCLE ( 'NONE', #119, 0.1562499999999999445 ) ;
#86 = LENGTH_MEASURE_WITH_UNIT ( LENGTH_MEASURE( 0.02539999999999999897 ), #120 );
#87 = ADVANCED_FACE ( 'NONE', ( #39 ), #63, .F. ) ;
#88 = ORIENTED_EDGE ( 'NONE', *, *, #7, .F. ) ;
#89 = DIRECTION ( 'NONE',  ( -1.000000000000000000, 0.000000000000000000, 0.000000000000000000 ) ) ;
#90 = VERTEX_POINT ( 'NONE', #110 ) ;
#91 = PRODUCT_DEFINITION_CONTEXT ( 'detailed design', #96, 'design' ) ;
#92 = CONICAL_SURFACE ( 'NONE', #50, 39.37007874015760223, 0.7853981633974498333 ) ;
#93 = DIRECTION ( 'NONE',  ( 0.000000000000000000, 1.000000000000000000, 0.000000000000000000 ) ) ;
#94 = ORIENTED_EDGE ( 'NONE', *, *, #24, .F. ) ;
#95 = DIRECTION ( 'NONE',  ( 1.000000000000000000, 9.633888153292509464E-17, 0.000000000000000000 ) ) ;
#96 = APPLICATION_CONTEXT ( 'automotive_design' ) ;
#97 = AXIS2_PLACEMENT_3D ( 'NONE', #208, #33, #117 ) ;
#98 = DIRECTION ( 'NONE',  ( -1.000000000000000000, 0.000000000000000000, 0.000000000000000000 ) ) ;
#99 = EDGE_CURVE ( 'NONE', #176, #38, #157, .T. ) ;
#100 = CARTESIAN_POINT ( 'NONE',  ( 0.000000000000000000, 0.1562499999999995004, 0.000000000000000000 ) ) ;
#101 = DIRECTION ( 'NONE',  ( 0.000000000000000000, 1.000000000000000000, 0.000000000000000000 ) ) ;
#102 =( CONVERSION_BASED_UNIT ( 'INCH', #123 ) LENGTH_UNIT ( ) NAMED_UNIT ( #53 ) );
#103 = DIRECTION ( 'NONE',  ( 0.000000000000000000, 0.000000000000000000, 1.000000000000000000 ) ) ;
#104 =( NAMED_UNIT ( * ) SI_UNIT ( $, .STERADIAN. ) SOLID_ANGLE_UNIT ( ) );
#105 =( CONVERSION_BASED_UNIT ( 'INCH', #134 ) LENGTH_UNIT ( ) NAMED_UNIT ( #118 ) );
#106 = EDGE_CURVE ( 'NONE', #125, #22, #178, .T. ) ;
#107 = MECHANICAL_DESIGN_GEOMETRIC_PRESENTATION_REPRESENTATION (  '', ( #1 ), #244 ) ;
#108 = ORIENTED_EDGE ( 'NONE', *, *, #262, .T. ) ;
#109 = SURFACE_SIDE_STYLE ('',( #114 ) ) ;
#110 = CARTESIAN_POINT ( 'NONE',  ( 0.1562499999999999445, 0.1562499999999994726, 1.913510623667737614E-17 ) ) ;
#111 = ORIENTED_EDGE ( 'NONE', *, *, #207, .T. ) ;
#112 = CARTESIAN_POINT ( 'NONE',  ( 0.000000000000000000, 39.37007874015748143, 0.000000000000000000 ) ) ;
#113 = FACE_OUTER_BOUND ( 'NONE', #239, .T. ) ;
#114 = SURFACE_STYLE_FILL_AREA ( #214 ) ;
#115 = CIRCLE ( 'NONE', #249, 0.1562499999999999722 ) ;
#116 = CIRCLE ( 'NONE', #46, 0.1562499999999999445 ) ;
#117 = DIRECTION ( 'NONE',  ( -1.000000000000000000, -9.633888153292509464E-17, 0.000000000000000000 ) ) ;
#118 = DIMENSIONAL_EXPONENTS ( 1.000000000000000000, 0.000000000000000000, 0.000000000000000000, 0.000000000000000000, 0.000000000000000000, 0.000000000000000000, 0.000000000000000000 ) ;
#119 = AXIS2_PLACEMENT_3D ( 'NONE', #264, #40, #74 ) ;
#120 =( LENGTH_UNIT ( ) NAMED_UNIT ( * ) SI_UNIT ( $, .METRE. ) );
#121 = DIMENSIONAL_EXPONENTS ( 1.000000000000000000, 0.000000000000000000, 0.000000000000000000, 0.000000000000000000, 0.000000000000000000, 0.000000000000000000, 0.000000000000000000 ) ;
#122 = COLOUR_RGB ( '',1.000000000000000000, 0.000000000000000000, 0.000000000000000000 ) ;
#123 = LENGTH_MEASURE_WITH_UNIT ( LENGTH_MEASURE( 0.02539999999999999897 ), #170 );
#124 = MECHANICAL_DESIGN_GEOMETRIC_PRESENTATION_REPRESENTATION (  '', ( #66 ), #19 ) ;
#125 = VERTEX_POINT ( 'NONE', #155 ) ;
#126 = DIRECTION ( 'NONE',  ( -9.633888153292509464E-17, 1.000000000000000000, -0.000000000000000000 ) ) ;
#127 = EDGE_LOOP ( 'NONE', ( #111, #108 ) ) ;
#128 = APPLICATION_PROTOCOL_DEFINITION ( 'draft international standard', 'automotive_design', 1998, #96 ) ;
#129 = LENGTH_MEASURE_WITH_UNIT ( LENGTH_MEASURE( 0.02539999999999999897 ), #3 );
#130 = DIRECTION ( 'NONE',  ( 0.000000000000000000, 0.000000000000000000, -1.000000000000000000 ) ) ;
#131 = PRESENTATION_STYLE_ASSIGNMENT (( #4 ) ) ;
#132 = SURFACE_SIDE_STYLE ('',( #209 ) ) ;
#133 = AXIS2_PLACEMENT_3D ( 'NONE', #211, #154, #95 ) ;
#134 = LENGTH_MEASURE_WITH_UNIT ( LENGTH_MEASURE( 0.02539999999999999897 ), #83 );
#135 = ORIENTED_EDGE ( 'NONE', *, *, #197, .T. ) ;
#136 = VECTOR ( 'NONE', #56, 39.37007874015748143 ) ;
#137 = PRESENTATION_LAYER_ASSIGNMENT (  '', '', ( #1 ) ) ;
#138 = ORIENTED_EDGE ( 'NONE', *, *, #265, .F. ) ;
#139 = DIRECTION ( 'NONE',  ( -9.633888153292509464E-17, 1.000000000000000000, -0.000000000000000000 ) ) ;
#140 =( NAMED_UNIT ( * ) PLANE_ANGLE_UNIT ( ) SI_UNIT ( $, .RADIAN. ) );
#141 = FACE_OUTER_BOUND ( 'NONE', #258, .T. ) ;
#142 = CARTESIAN_POINT ( 'NONE',  ( 0.000000000000000000, 0.1562499999999995004, 0.000000000000000000 ) ) ;
#143 = DIRECTION ( 'NONE',  ( -1.000000000000000000, 0.000000000000000000, 0.000000000000000000 ) ) ;
#144 = AXIS2_PLACEMENT_3D ( 'NONE', #222, #28, #225 ) ;
#145 = CARTESIAN_POINT ( 'NONE',  ( 6.123233995736772199E-17, 2.500000000000000000, 0.000000000000000000 ) ) ;
#146 = CLOSED_SHELL ( 'NONE', ( #231, #147, #189 ) ) ;
#147 = ADVANCED_FACE ( 'NONE', ( #175 ), #233, .T. ) ;
#148 = VECTOR ( 'NONE', #35, 39.37007874015748143 ) ;
#149 =( GEOMETRIC_REPRESENTATION_CONTEXT ( 3 ) GLOBAL_UNCERTAINTY_ASSIGNED_CONTEXT ( ( #221 ) ) GLOBAL_UNIT_ASSIGNED_CONTEXT ( ( #102, #194, #254 ) ) REPRESENTATION_CONTEXT ( 'NONE', 'WORKASPACE' ) );
#150 = CARTESIAN_POINT ( 'NONE',  ( -0.1562499999999998612, 2.500000000000000000, 0.000000000000000000 ) ) ;
#151 = LINE ( 'NONE', #16, #32 ) ;
#152 = ORIENTED_EDGE ( 'NONE', *, *, #24, .T. ) ;
#153 = AXIS2_PLACEMENT_3D ( 'NONE', #158, #241, #45 ) ;
#154 = DIRECTION ( 'NONE',  ( 9.633888153292509464E-17, -1.000000000000000000, 0.000000000000000000 ) ) ;
#155 = CARTESIAN_POINT ( 'NONE',  ( -0.1562499999999993894, 0.1562499999999994726, 0.000000000000000000 ) ) ;
#156 = ORIENTED_EDGE ( 'NONE', *, *, #99, .F. ) ;
#157 = CIRCLE ( 'NONE', #6, 0.1562499999999999722 ) ;
#158 = CARTESIAN_POINT ( 'NONE',  ( 0.000000000000000000, 0.000000000000000000, 0.000000000000000000 ) ) ;
#159 =( NAMED_UNIT ( * ) PLANE_ANGLE_UNIT ( ) SI_UNIT ( $, .RADIAN. ) );
#160 = UNCERTAINTY_MEASURE_WITH_UNIT (LENGTH_MEASURE( 1.000000000000000082E-05 ), #105, 'distance_accuracy_value', 'NONE');
#161 = LENGTH_MEASURE_WITH_UNIT ( LENGTH_MEASURE( 0.02539999999999999897 ), #20 );
#162 = FILL_AREA_STYLE_COLOUR ( '', #232 ) ;
#163 = FACE_OUTER_BOUND ( 'NONE', #37, .T. ) ;
#164 =( LENGTH_UNIT ( ) NAMED_UNIT ( * ) SI_UNIT ( $, .METRE. ) );
#165 = PRODUCT_DEFINITION_FORMATION_WITH_SPECIFIED_SOURCE ( 'ANY', '', #34, .NOT_KNOWN. ) ;
#166 = CIRCLE ( 'NONE', #201, 0.1562499999999996669 ) ;
#167 = PRODUCT_DEFINITION ( 'UNKNOWN', '', #165, #91 ) ;
#168 = PRESENTATION_STYLE_ASSIGNMENT (( #11 ) ) ;
#169 = AXIS2_PLACEMENT_3D ( 'NONE', #186, #93, #23 ) ;
#170 =( LENGTH_UNIT ( ) NAMED_UNIT ( * ) SI_UNIT ( $, .METRE. ) );
#171 = STYLED_ITEM ( 'NONE', ( #131 ), #180 ) ;
#172 = CYLINDRICAL_SURFACE ( 'NONE', #251, 0.1562499999999998057 ) ;
#173 = VERTEX_POINT ( 'NONE', #220 ) ;
#174 = ADVANCED_BREP_SHAPE_REPRESENTATION ( '84776', ( #184, #180, #153 ), #10 ) ;
#175 = FACE_OUTER_BOUND ( 'NONE', #215, .T. ) ;
#176 = VERTEX_POINT ( 'NONE', #224 ) ;
#177 = LINE ( 'NONE', #26, #212 ) ;
#178 = LINE ( 'NONE', #65, #148 ) ;
#179 = SURFACE_STYLE_USAGE ( .BOTH. , #109 ) ;
#180 = MANIFOLD_SOLID_BREP ( 'Revolve - Tool Body (Pointed)', #84 ) ;
#181 =( NAMED_UNIT ( * ) SI_UNIT ( $, .STERADIAN. ) SOLID_ANGLE_UNIT ( ) );
#182 = UNCERTAINTY_MEASURE_WITH_UNIT (LENGTH_MEASURE( 1.000000000000000082E-05 ), #30, 'distance_accuracy_value', 'NONE');
#183 = LENGTH_MEASURE_WITH_UNIT ( LENGTH_MEASURE( 0.02539999999999999897 ), #164 );
#184 = MANIFOLD_SOLID_BREP ( 'Revolve - Cutting Edge', #146 ) ;
#185 = FACE_OUTER_BOUND ( 'NONE', #64, .T. ) ;
#186 = CARTESIAN_POINT ( 'NONE',  ( 0.000000000000000000, 39.37007874015748143, 0.000000000000000000 ) ) ;
#187 = SURFACE_SIDE_STYLE ('',( #47 ) ) ;
#188 =( GEOMETRIC_REPRESENTATION_CONTEXT ( 3 ) GLOBAL_UNCERTAINTY_ASSIGNED_CONTEXT ( ( #160 ) ) GLOBAL_UNIT_ASSIGNED_CONTEXT ( ( #105, #246, #104 ) ) REPRESENTATION_CONTEXT ( 'NONE', 'WORKASPACE' ) );
#189 = ADVANCED_FACE ( 'NONE', ( #228 ), #218, .T. ) ;
#190 =( CONVERSION_BASED_UNIT ( 'INCH', #86 ) LENGTH_UNIT ( ) NAMED_UNIT ( #191 ) );
#191 = DIMENSIONAL_EXPONENTS ( 1.000000000000000000, 0.000000000000000000, 0.000000000000000000, 0.000000000000000000, 0.000000000000000000, 0.000000000000000000, 0.000000000000000000 ) ;
#192 = AXIS2_PLACEMENT_3D ( 'NONE', #142, #205, #203 ) ;
#193 = SURFACE_STYLE_FILL_AREA ( #230 ) ;
#194 =( NAMED_UNIT ( * ) PLANE_ANGLE_UNIT ( ) SI_UNIT ( $, .RADIAN. ) );
#195 = ORIENTED_EDGE ( 'NONE', *, *, #106, .T. ) ;
#196 = PRESENTATION_LAYER_ASSIGNMENT (  '', '', ( #171 ) ) ;
#197 = EDGE_CURVE ( 'NONE', #90, #125, #166, .T. ) ;
#198 = ORIENTED_EDGE ( 'NONE', *, *, #265, .T. ) ;
#199 = ORIENTED_EDGE ( 'NONE', *, *, #262, .F. ) ;
#200 = ORIENTED_EDGE ( 'NONE', *, *, #9, .F. ) ;
#201 = AXIS2_PLACEMENT_3D ( 'NONE', #12, #126, #98 ) ;
#202 = DIRECTION ( 'NONE',  ( -9.633888153292509464E-17, 1.000000000000000000, -0.000000000000000000 ) ) ;
#203 = DIRECTION ( 'NONE',  ( 0.000000000000000000, -0.000000000000000000, 1.000000000000000000 ) ) ;
#204 = DIRECTION ( 'NONE',  ( -1.000000000000000000, 0.000000000000000000, 0.000000000000000000 ) ) ;
#205 = DIRECTION ( 'NONE',  ( 0.000000000000000000, 1.000000000000000000, 0.000000000000000000 ) ) ;
#206 = DIRECTION ( 'NONE',  ( -9.633888153292509464E-17, 1.000000000000000000, -0.000000000000000000 ) ) ;
#207 = EDGE_CURVE ( 'NONE', #22, #44, #85, .T. ) ;
#208 = CARTESIAN_POINT ( 'NONE',  ( 2.870265935501609472E-16, 0.1562499999999995004, 0.000000000000000000 ) ) ;
#209 = SURFACE_STYLE_FILL_AREA ( #51 ) ;
#210 = PRESENTATION_STYLE_ASSIGNMENT (( #226 ) ) ;
#211 = CARTESIAN_POINT ( 'NONE',  ( 0.1562500000000000000, 2.500000000000000000, 0.000000000000000000 ) ) ;
#212 = VECTOR ( 'NONE', #29, 39.37007874015748143 ) ;
#213 =( GEOMETRIC_REPRESENTATION_CONTEXT ( 3 ) GLOBAL_UNCERTAINTY_ASSIGNED_CONTEXT ( ( #70 ) ) GLOBAL_UNIT_ASSIGNED_CONTEXT ( ( #81, #31, #78 ) ) REPRESENTATION_CONTEXT ( 'NONE', 'WORKASPACE' ) );
#214 = FILL_AREA_STYLE ('',( #71 ) ) ;
#215 = EDGE_LOOP ( 'NONE', ( #200, #156 ) ) ;
#216 = SURFACE_SIDE_STYLE ('',( #60 ) ) ;
#217 = CARTESIAN_POINT ( 'NONE',  ( 0.000000000000000000, 0.1562499999999995004, 0.000000000000000000 ) ) ;
#218 = CONICAL_SURFACE ( 'NONE', #169, 39.37007874015760223, 0.7853981633974498333 ) ;
#219 = FILL_AREA_STYLE ('',( #256 ) ) ;
#220 = CARTESIAN_POINT ( 'NONE',  ( 0.000000000000000000, 0.000000000000000000, 0.000000000000000000 ) ) ;
#221 = UNCERTAINTY_MEASURE_WITH_UNIT (LENGTH_MEASURE( 1.000000000000000082E-05 ), #102, 'distance_accuracy_value', 'NONE');
#222 = CARTESIAN_POINT ( 'NONE',  ( 2.870265935501609472E-16, 0.1562499999999994726, 0.000000000000000000 ) ) ;
#223 = CIRCLE ( 'NONE', #144, 0.1562499999999996669 ) ;
#224 = CARTESIAN_POINT ( 'NONE',  ( 1.913510623667739463E-17, 0.1562499999999995004, -0.1562500000000000000 ) ) ;
#225 = DIRECTION ( 'NONE',  ( -1.000000000000000000, 0.000000000000000000, 0.000000000000000000 ) ) ;
#226 = SURFACE_STYLE_USAGE ( .BOTH. , #132 ) ;
#227 = DIRECTION ( 'NONE',  ( -9.633888153292509464E-17, 1.000000000000000000, -0.000000000000000000 ) ) ;
#228 = FACE_OUTER_BOUND ( 'NONE', #42, .T. ) ;
#229 = AXIS2_PLACEMENT_3D ( 'NONE', #145, #227, #143 ) ;
#230 = FILL_AREA_STYLE ('',( #55 ) ) ;
#231 = ADVANCED_FACE ( 'NONE', ( #141 ), #92, .T. ) ;
#232 = COLOUR_RGB ( '',0.7921568627450980005, 0.8196078431372548767, 0.9333333333333333481 ) ;
#233 = PLANE ( 'NONE',  #192 ) ;
#234 = ORIENTED_EDGE ( 'NONE', *, *, #207, .F. ) ;
#235 = DIRECTION ( 'NONE',  ( 0.000000000000000000, 0.000000000000000000, -1.000000000000000000 ) ) ;
#236 = ORIENTED_EDGE ( 'NONE', *, *, #106, .F. ) ;
#237 = MECHANICAL_DESIGN_GEOMETRIC_PRESENTATION_REPRESENTATION (  '', ( #171 ), #149 ) ;
#238 = SURFACE_STYLE_USAGE ( .BOTH. , #216 ) ;
#239 = EDGE_LOOP ( 'NONE', ( #198, #259, #234, #236 ) ) ;
#240 = STYLED_ITEM ( 'NONE', ( #260 ), #231 ) ;
#241 = DIRECTION ( 'NONE',  ( 0.000000000000000000, 0.000000000000000000, 1.000000000000000000 ) ) ;
#242 = UNCERTAINTY_MEASURE_WITH_UNIT (LENGTH_MEASURE( 1.000000000000000082E-05 ), #190, 'distance_accuracy_value', 'NONE');
#243 = APPLICATION_PROTOCOL_DEFINITION ( 'draft international standard', 'automotive_design', 1998, #76 ) ;
#244 =( GEOMETRIC_REPRESENTATION_CONTEXT ( 3 ) GLOBAL_UNCERTAINTY_ASSIGNED_CONTEXT ( ( #242 ) ) GLOBAL_UNIT_ASSIGNED_CONTEXT ( ( #190, #52, #72 ) ) REPRESENTATION_CONTEXT ( 'NONE', 'WORKASPACE' ) );
#245 = DIRECTION ( 'NONE',  ( -0.000000000000000000, -1.000000000000000000, -0.000000000000000000 ) ) ;
#246 =( NAMED_UNIT ( * ) PLANE_ANGLE_UNIT ( ) SI_UNIT ( $, .RADIAN. ) );
#247 = CYLINDRICAL_SURFACE ( 'NONE', #229, 0.1562499999999998057 ) ;
#248 = DIMENSIONAL_EXPONENTS ( 1.000000000000000000, 0.000000000000000000, 0.000000000000000000, 0.000000000000000000, 0.000000000000000000, 0.000000000000000000, 0.000000000000000000 ) ;
#249 = AXIS2_PLACEMENT_3D ( 'NONE', #100, #245, #130 ) ;
#250 = DIMENSIONAL_EXPONENTS ( 1.000000000000000000, 0.000000000000000000, 0.000000000000000000, 0.000000000000000000, 0.000000000000000000, 0.000000000000000000, 0.000000000000000000 ) ;
#251 = AXIS2_PLACEMENT_3D ( 'NONE', #62, #139, #89 ) ;
#252 = ADVANCED_FACE ( 'NONE', ( #163 ), #247, .T. ) ;
#253 = FILL_AREA_STYLE_COLOUR ( '', #122 ) ;
#254 =( NAMED_UNIT ( * ) SI_UNIT ( $, .STERADIAN. ) SOLID_ANGLE_UNIT ( ) );
#255 = ADVANCED_FACE ( 'NONE', ( #185 ), #49, .F. ) ;
#256 = FILL_AREA_STYLE_COLOUR ( '', #14 ) ;
#257 = MECHANICAL_DESIGN_GEOMETRIC_PRESENTATION_REPRESENTATION (  '', ( #36 ), #188 ) ;
#258 = EDGE_LOOP ( 'NONE', ( #94, #17, #261 ) ) ;
#259 = ORIENTED_EDGE ( 'NONE', *, *, #82, .T. ) ;
#260 = PRESENTATION_STYLE_ASSIGNMENT (( #238 ) ) ;
#261 = ORIENTED_EDGE ( 'NONE', *, *, #99, .T. ) ;
#262 = EDGE_CURVE ( 'NONE', #44, #22, #116, .T. ) ;
#263 = PRESENTATION_STYLE_ASSIGNMENT (( #179 ) ) ;
#264 = CARTESIAN_POINT ( 'NONE',  ( 6.123233995736772199E-17, 2.500000000000000000, 0.000000000000000000 ) ) ;
#265 = EDGE_CURVE ( 'NONE', #125, #90, #223, .T. ) ;
ENDSEC;
END-ISO-10303-21;
