ISO-10303-21;
HEADER;
FILE_DESCRIPTION (( 'STEP AP214' ),
    '1' );
FILE_NAME ('Micro_SPD-375-090.STEP',
    '2021-09-03T21:20:58',
    ( '' ),
    ( '' ),
    'SwSTEP 2.0',
    'SolidWorks 2020',
    '' );
FILE_SCHEMA (( 'AUTOMOTIVE_DESIGN' ));
ENDSEC;

DATA;
#1 = ORIENTED_EDGE ( 'NONE', *, *, #11, .F. ) ;
#2 = ORIENTED_EDGE ( 'NONE', *, *, #175, .T. ) ;
#3 = DIRECTION ( 'NONE',  ( -0.0000000000000000000, -0.0000000000000000000, -1.000000000000000000 ) ) ;
#4 = DIRECTION ( 'NONE',  ( 0.0000000000000000000, 0.0000000000000000000, -1.000000000000000000 ) ) ;
#5 = ADVANCED_FACE ( 'NONE', ( #130 ), #269, .T. ) ;
#6 = DIRECTION ( 'NONE',  ( 1.000000000000000000, 0.0000000000000000000, -0.0000000000000000000 ) ) ;
#7 = CLOSED_SHELL ( 'NONE', ( #5, #290, #53, #112, #235, #65, #319, #182, #275, #17, #153, #49 ) ) ;
#8 =( GEOMETRIC_REPRESENTATION_CONTEXT ( 3 ) GLOBAL_UNCERTAINTY_ASSIGNED_CONTEXT ( ( #99 ) ) GLOBAL_UNIT_ASSIGNED_CONTEXT ( ( #80, #75, #106 ) ) REPRESENTATION_CONTEXT ( 'NONE', 'WORKASPACE' ) );
#9 = LENGTH_MEASURE_WITH_UNIT ( LENGTH_MEASURE( 0.02539999999999999897 ), #10 );
#10 =( LENGTH_UNIT ( ) NAMED_UNIT ( * ) SI_UNIT ( $, .METRE. ) );
#11 = EDGE_CURVE ( 'NONE', #325, #236, #13, .T. ) ;
#12 = DIRECTION ( 'NONE',  ( 1.000000000000000000, 0.0000000000000000000, 0.0000000000000000000 ) ) ;
#13 = CIRCLE ( 'NONE', #68, 0.1874500000000001165 ) ;
#14 = DIRECTION ( 'NONE',  ( 0.0000000000000000000, 0.0000000000000000000, 1.000000000000000000 ) ) ;
#15 = ORIENTED_EDGE ( 'NONE', *, *, #252, .T. ) ;
#16 = LINE ( 'NONE', #306, #132 ) ;
#17 = ADVANCED_FACE ( 'NONE', ( #133 ), #241, .T. ) ;
#18 = DIRECTION ( 'NONE',  ( 0.0000000000000000000, 0.0000000000000000000, -1.000000000000000000 ) ) ;
#19 = ORIENTED_EDGE ( 'NONE', *, *, #333, .F. ) ;
#20 = VECTOR ( 'NONE', #135, 39.37007874015748854 ) ;
#21 = PRODUCT ( 'Micro_SPD-375-090', 'Micro_SPD-375-090', '', ( #245 ) ) ;
#22 = CARTESIAN_POINT ( 'NONE',  ( 0.0000000000000000000, 0.0000000000000000000, 2.500000000000000000 ) ) ;
#23 = CIRCLE ( 'NONE', #346, 0.1875000000000000278 ) ;
#24 = EDGE_LOOP ( 'NONE', ( #288, #344, #103, #264 ) ) ;
#25 = CARTESIAN_POINT ( 'NONE',  ( -0.1874500000000000610, 0.0000000000000000000, 0.0000000000000000000 ) ) ;
#26 = ORIENTED_EDGE ( 'NONE', *, *, #93, .F. ) ;
#27 = EDGE_CURVE ( 'NONE', #207, #210, #31, .T. ) ;
#28 = DIRECTION ( 'NONE',  ( 1.000000000000000000, 0.0000000000000000000, 0.0000000000000000000 ) ) ;
#29 = MANIFOLD_SOLID_BREP ( 'Cut-Revolve2', #7 ) ;
#30 = DIRECTION ( 'NONE',  ( -0.0000000000000000000, -0.0000000000000000000, -1.000000000000000000 ) ) ;
#31 = LINE ( 'NONE', #271, #20 ) ;
#32 = PRODUCT_DEFINITION ( 'UNKNOWN', '', #59, #204 ) ;
#33 = LINE ( 'NONE', #25, #85 ) ;
#34 = ORIENTED_EDGE ( 'NONE', *, *, #11, .T. ) ;
#35 = DIRECTION ( 'NONE',  ( -0.0000000000000000000, -0.0000000000000000000, -1.000000000000000000 ) ) ;
#36 = VECTOR ( 'NONE', #248, 39.37007874015748143 ) ;
#37 = LINE ( 'NONE', #140, #36 ) ;
#38 = CARTESIAN_POINT ( 'NONE',  ( 0.0000000000000000000, 0.0000000000000000000, 1.000049999999999883 ) ) ;
#39 = DIRECTION ( 'NONE',  ( 1.000000000000000000, 0.0000000000000000000, 0.0000000000000000000 ) ) ;
#40 = AXIS2_PLACEMENT_3D ( 'NONE', #54, #322, #113 ) ;
#41 = CARTESIAN_POINT ( 'NONE',  ( 0.1874500000000000055, 2.295600425001713927E-17, 0.1594499999999993423 ) ) ;
#42 = DIRECTION ( 'NONE',  ( -0.0000000000000000000, -0.0000000000000000000, -1.000000000000000000 ) ) ;
#43 = VERTEX_POINT ( 'NONE', #41 ) ;
#44 = CYLINDRICAL_SURFACE ( 'NONE', #221, 0.1875000000000000278 ) ;
#45 = AXIS2_PLACEMENT_3D ( 'NONE', #279, #35, #139 ) ;
#46 = CONICAL_SURFACE ( 'NONE', #312, 0.1874500000000001165, 0.7853981633974491672 ) ;
#47 = FACE_OUTER_BOUND ( 'NONE', #137, .T. ) ;
#48 = VERTEX_POINT ( 'NONE', #247 ) ;
#49 = ADVANCED_FACE ( 'NONE', ( #64 ), #244, .F. ) ;
#50 = CARTESIAN_POINT ( 'NONE',  ( -0.1874500000000000055, 0.0000000000000000000, 0.1594499999999993423 ) ) ;
#51 = ORIENTED_EDGE ( 'NONE', *, *, #55, .T. ) ;
#52 = FACE_OUTER_BOUND ( 'NONE', #262, .T. ) ;
#53 = ADVANCED_FACE ( 'NONE', ( #222 ), #104, .T. ) ;
#54 = CARTESIAN_POINT ( 'NONE',  ( 0.0000000000000000000, 0.0000000000000000000, 0.0000000000000000000 ) ) ;
#55 = EDGE_CURVE ( 'NONE', #43, #159, #297, .T. ) ;
#56 = EDGE_LOOP ( 'NONE', ( #185, #1, #58, #294 ) ) ;
#57 = DIRECTION ( 'NONE',  ( 0.7071067811865481278, 0.0000000000000000000, 0.7071067811865469066 ) ) ;
#58 = ORIENTED_EDGE ( 'NONE', *, *, #333, .T. ) ;
#59 = PRODUCT_DEFINITION_FORMATION_WITH_SPECIFIED_SOURCE ( 'ANY', '', #21, .NOT_KNOWN. ) ;
#60 = DIRECTION ( 'NONE',  ( -1.000000000000000000, 0.0000000000000000000, 0.0000000000000000000 ) ) ;
#61 = PLANE ( 'NONE',  #160 ) ;
#62 = FACE_OUTER_BOUND ( 'NONE', #190, .T. ) ;
#63 = AXIS2_PLACEMENT_3D ( 'NONE', #171, #280, #39 ) ;
#64 = FACE_OUTER_BOUND ( 'NONE', #158, .T. ) ;
#65 = ADVANCED_FACE ( 'NONE', ( #62 ), #67, .T. ) ;
#66 = DIRECTION ( 'NONE',  ( -0.0000000000000000000, -0.0000000000000000000, -1.000000000000000000 ) ) ;
#67 = CYLINDRICAL_SURFACE ( 'NONE', #138, 0.1875000000000000278 ) ;
#68 = AXIS2_PLACEMENT_3D ( 'NONE', #77, #238, #347 ) ;
#69 = CARTESIAN_POINT ( 'NONE',  ( 0.0000000000000000000, 0.0000000000000000000, 1.000000000000000000 ) ) ;
#70 = CARTESIAN_POINT ( 'NONE',  ( -0.1724999999999995981, 0.0000000000000000000, 2.500000000000000000 ) ) ;
#71 = DIRECTION ( 'NONE',  ( 1.000000000000000000, 0.0000000000000000000, 0.0000000000000000000 ) ) ;
#72 = DIRECTION ( 'NONE',  ( 0.7071067811865490160, 0.0000000000000000000, 0.7071067811865460184 ) ) ;
#73 = DIRECTION ( 'NONE',  ( 0.7071067811865385799, 8.659560562354823157E-17, -0.7071067811865563435 ) ) ;
#74 = EDGE_CURVE ( 'NONE', #293, #107, #95, .T. ) ;
#75 =( NAMED_UNIT ( * ) PLANE_ANGLE_UNIT ( ) SI_UNIT ( $, .RADIAN. ) );
#76 = AXIS2_PLACEMENT_3D ( 'NONE', #177, #254, #12 ) ;
#77 = CARTESIAN_POINT ( 'NONE',  ( 0.0000000000000000000, 0.0000000000000000000, 1.000000000000000000 ) ) ;
#78 = SURFACE_STYLE_FILL_AREA ( #314 ) ;
#79 = EDGE_LOOP ( 'NONE', ( #152, #34, #274, #109 ) ) ;
#80 =( CONVERSION_BASED_UNIT ( 'INCH', #161 ) LENGTH_UNIT ( ) NAMED_UNIT ( #170 ) );
#81 = CARTESIAN_POINT ( 'NONE',  ( 0.0000000000000000000, 0.0000000000000000000, 0.0000000000000000000 ) ) ;
#82 = EDGE_CURVE ( 'NONE', #349, #48, #338, .T. ) ;
#83 = CARTESIAN_POINT ( 'NONE',  ( 0.1874500000000001165, 0.0000000000000000000, 1.000000000000000000 ) ) ;
#84 = COLOUR_RGB ( '',0.7921568627450980005, 0.8196078431372548767, 0.9333333333333333481 ) ;
#85 = VECTOR ( 'NONE', #30, 39.37007874015748143 ) ;
#86 = ORIENTED_EDGE ( 'NONE', *, *, #249, .T. ) ;
#87 = CARTESIAN_POINT ( 'NONE',  ( 0.0000000000000000000, 0.0000000000000000000, 2.500000000000000000 ) ) ;
#88 = EDGE_CURVE ( 'NONE', #48, #349, #147, .T. ) ;
#89 = DIRECTION ( 'NONE',  ( -0.0000000000000000000, -0.0000000000000000000, -1.000000000000000000 ) ) ;
#90 = AXIS2_PLACEMENT_3D ( 'NONE', #38, #3, #117 ) ;
#91 = STYLED_ITEM ( 'NONE', ( #128 ), #330 ) ;
#92 =( NAMED_UNIT ( * ) PLANE_ANGLE_UNIT ( ) SI_UNIT ( $, .RADIAN. ) );
#93 = EDGE_CURVE ( 'NONE', #214, #210, #310, .T. ) ;
#94 = FACE_OUTER_BOUND ( 'NONE', #209, .T. ) ;
#95 = CIRCLE ( 'NONE', #45, 0.02800000000000000405 ) ;
#96 = DIRECTION ( 'NONE',  ( -0.7071067811865481278, 8.659560562354940254E-17, 0.7071067811865469066 ) ) ;
#97 = CARTESIAN_POINT ( 'NONE',  ( 0.1724999999999995981, 2.204364238465233357E-17, 2.500000000000000000 ) ) ;
#98 = ORIENTED_EDGE ( 'NONE', *, *, #348, .F. ) ;
#99 = UNCERTAINTY_MEASURE_WITH_UNIT (LENGTH_MEASURE( 1.000000000000000082E-05 ), #80, 'distance_accuracy_value', 'NONE');
#100 = CARTESIAN_POINT ( 'NONE',  ( 0.1875000000000000278, 2.296212748401287726E-17, 2.484999999999999432 ) ) ;
#101 = VECTOR ( 'NONE', #73, 39.37007874015748854 ) ;
#102 = DIRECTION ( 'NONE',  ( -1.000000000000000000, 0.0000000000000000000, 0.0000000000000000000 ) ) ;
#103 = ORIENTED_EDGE ( 'NONE', *, *, #295, .T. ) ;
#104 = CONICAL_SURFACE ( 'NONE', #316, 0.1874500000000001165, 0.7853981633974491672 ) ;
#105 = VECTOR ( 'NONE', #124, 39.37007874015748143 ) ;
#106 =( NAMED_UNIT ( * ) SI_UNIT ( $, .STERADIAN. ) SOLID_ANGLE_UNIT ( ) );
#107 = VERTEX_POINT ( 'NONE', #328 ) ;
#108 = EDGE_LOOP ( 'NONE', ( #187, #111, #327, #19 ) ) ;
#109 = ORIENTED_EDGE ( 'NONE', *, *, #55, .F. ) ;
#110 = APPLICATION_CONTEXT ( 'automotive_design' ) ;
#111 = ORIENTED_EDGE ( 'NONE', *, *, #229, .T. ) ;
#112 = ADVANCED_FACE ( 'NONE', ( #192 ), #126, .T. ) ;
#113 = DIRECTION ( 'NONE',  ( 1.000000000000000000, 0.0000000000000000000, 0.0000000000000000000 ) ) ;
#114 = DIMENSIONAL_EXPONENTS ( 1.000000000000000000, 0.0000000000000000000, 0.0000000000000000000, 0.0000000000000000000, 0.0000000000000000000, 0.0000000000000000000, 0.0000000000000000000 ) ;
#115 = PRESENTATION_LAYER_ASSIGNMENT (  '', '', ( #281 ) ) ;
#116 = CIRCLE ( 'NONE', #193, 0.1874500000000001165 ) ;
#117 = DIRECTION ( 'NONE',  ( 1.000000000000000000, 0.0000000000000000000, 0.0000000000000000000 ) ) ;
#118 = DIRECTION ( 'NONE',  ( -1.000000000000000000, 0.0000000000000000000, 0.0000000000000000000 ) ) ;
#119 = MECHANICAL_DESIGN_GEOMETRIC_PRESENTATION_REPRESENTATION (  '', ( #281 ), #217 ) ;
#120 = VECTOR ( 'NONE', #72, 39.37007874015748143 ) ;
#121 = CYLINDRICAL_SURFACE ( 'NONE', #298, 0.1874500000000000610 ) ;
#122 = EDGE_CURVE ( 'NONE', #214, #48, #37, .T. ) ;
#123 = LINE ( 'NONE', #286, #120 ) ;
#124 = DIRECTION ( 'NONE',  ( -0.7071067811865490160, 8.659560562354951347E-17, 0.7071067811865460184 ) ) ;
#125 = ORIENTED_EDGE ( 'NONE', *, *, #341, .F. ) ;
#126 = CONICAL_SURFACE ( 'NONE', #224, 0.1724999999999995981, 0.7853981633974357335 ) ;
#127 = CARTESIAN_POINT ( 'NONE',  ( 0.0000000000000000000, 0.0000000000000000000, 0.0000000000000000000 ) ) ;
#128 = PRESENTATION_STYLE_ASSIGNMENT (( #188 ) ) ;
#129 = ORIENTED_EDGE ( 'NONE', *, *, #300, .F. ) ;
#130 = FACE_OUTER_BOUND ( 'NONE', #24, .T. ) ;
#131 = CIRCLE ( 'NONE', #203, 0.1724999999999995981 ) ;
#132 = VECTOR ( 'NONE', #96, 39.37007874015748143 ) ;
#133 = FACE_OUTER_BOUND ( 'NONE', #79, .T. ) ;
#134 = FILL_AREA_STYLE_COLOUR ( '', #212 ) ;
#135 = DIRECTION ( 'NONE',  ( -0.7071067811865385799, 0.0000000000000000000, -0.7071067811865563435 ) ) ;
#136 = EDGE_CURVE ( 'NONE', #207, #299, #131, .T. ) ;
#137 = EDGE_LOOP ( 'NONE', ( #163, #323, #315, #51 ) ) ;
#138 = AXIS2_PLACEMENT_3D ( 'NONE', #165, #89, #169 ) ;
#139 = DIRECTION ( 'NONE',  ( -1.000000000000000000, 0.0000000000000000000, 0.0000000000000000000 ) ) ;
#140 = CARTESIAN_POINT ( 'NONE',  ( 0.1875000000000000278, 2.296212748401287726E-17, 2.500000000000000000 ) ) ;
#141 = SURFACE_STYLE_FILL_AREA ( #223 ) ;
#142 = PRESENTATION_STYLE_ASSIGNMENT (( #196 ) ) ;
#143 = MECHANICAL_DESIGN_GEOMETRIC_PRESENTATION_REPRESENTATION (  '', ( #91 ), #331 ) ;
#144 = CARTESIAN_POINT ( 'NONE',  ( 0.0000000000000000000, 0.0000000000000000000, 2.484999999999999432 ) ) ;
#145 = DIRECTION ( 'NONE',  ( -1.000000000000000000, 0.0000000000000000000, 0.0000000000000000000 ) ) ;
#146 = DIRECTION ( 'NONE',  ( -1.000000000000000000, 0.0000000000000000000, 0.0000000000000000000 ) ) ;
#147 = CIRCLE ( 'NONE', #90, 0.1875000000000000278 ) ;
#148 = AXIS2_PLACEMENT_3D ( 'NONE', #151, #18, #230 ) ;
#149 = CARTESIAN_POINT ( 'NONE',  ( 0.0000000000000000000, 0.0000000000000000000, 0.0000000000000000000 ) ) ;
#150 = ORIENTED_EDGE ( 'NONE', *, *, #122, .T. ) ;
#151 = CARTESIAN_POINT ( 'NONE',  ( 0.0000000000000000000, 0.0000000000000000000, 2.500000000000000000 ) ) ;
#152 = ORIENTED_EDGE ( 'NONE', *, *, #164, .F. ) ;
#153 = ADVANCED_FACE ( 'NONE', ( #47 ), #277, .T. ) ;
#154 = DIRECTION ( 'NONE',  ( -0.0000000000000000000, -0.0000000000000000000, -1.000000000000000000 ) ) ;
#155 = AXIS2_PLACEMENT_3D ( 'NONE', #301, #66, #118 ) ;
#156 = ORIENTED_EDGE ( 'NONE', *, *, #295, .F. ) ;
#157 = DIRECTION ( 'NONE',  ( 0.0000000000000000000, 0.0000000000000000000, -1.000000000000000000 ) ) ;
#158 = EDGE_LOOP ( 'NONE', ( #162, #321 ) ) ;
#159 = VERTEX_POINT ( 'NONE', #50 ) ;
#160 = AXIS2_PLACEMENT_3D ( 'NONE', #263, #273, #243 ) ;
#161 = LENGTH_MEASURE_WITH_UNIT ( LENGTH_MEASURE( 0.02539999999999999897 ), #320 );
#162 = ORIENTED_EDGE ( 'NONE', *, *, #74, .T. ) ;
#163 = ORIENTED_EDGE ( 'NONE', *, *, #242, .F. ) ;
#164 = EDGE_CURVE ( 'NONE', #325, #43, #311, .T. ) ;
#165 = CARTESIAN_POINT ( 'NONE',  ( 0.0000000000000000000, 0.0000000000000000000, 2.500000000000000000 ) ) ;
#166 = AXIS2_PLACEMENT_3D ( 'NONE', #81, #189, #28 ) ;
#167 = CARTESIAN_POINT ( 'NONE',  ( 0.0000000000000000000, 0.0000000000000000000, 1.000000000000000000 ) ) ;
#168 = SHAPE_DEFINITION_REPRESENTATION ( #255, #330 ) ;
#169 = DIRECTION ( 'NONE',  ( -1.000000000000000000, 0.0000000000000000000, 0.0000000000000000000 ) ) ;
#170 = DIMENSIONAL_EXPONENTS ( 1.000000000000000000, 0.0000000000000000000, 0.0000000000000000000, 0.0000000000000000000, 0.0000000000000000000, 0.0000000000000000000, 0.0000000000000000000 ) ;
#171 = CARTESIAN_POINT ( 'NONE',  ( 0.0000000000000000000, 0.0000000000000000000, 1.000049999999999883 ) ) ;
#172 = CIRCLE ( 'NONE', #76, 0.1724999999999995981 ) ;
#173 = EDGE_CURVE ( 'NONE', #293, #43, #123, .T. ) ;
#174 = CARTESIAN_POINT ( 'NONE',  ( -0.02800000000000000405, 3.429011037612589091E-18, 0.0000000000000000000 ) ) ;
#175 = EDGE_CURVE ( 'NONE', #210, #349, #307, .T. ) ;
#176 = CARTESIAN_POINT ( 'NONE',  ( 0.1874500000000000610, 2.295600425001714235E-17, 0.0000000000000000000 ) ) ;
#177 = CARTESIAN_POINT ( 'NONE',  ( 0.0000000000000000000, 0.0000000000000000000, 2.500000000000000000 ) ) ;
#178 = UNCERTAINTY_MEASURE_WITH_UNIT (LENGTH_MEASURE( 1.000000000000000082E-05 ), #343, 'distance_accuracy_value', 'NONE');
#179 = AXIS2_PLACEMENT_3D ( 'NONE', #127, #225, #71 ) ;
#180 = CARTESIAN_POINT ( 'NONE',  ( -0.1874500000000001165, 2.295906586701500980E-17, 1.000000000000000000 ) ) ;
#181 = ORIENTED_EDGE ( 'NONE', *, *, #88, .F. ) ;
#182 = ADVANCED_FACE ( 'NONE', ( #94 ), #257, .T. ) ;
#183 = FACE_OUTER_BOUND ( 'NONE', #56, .T. ) ;
#184 = ORIENTED_EDGE ( 'NONE', *, *, #348, .T. ) ;
#185 = ORIENTED_EDGE ( 'NONE', *, *, #229, .F. ) ;
#186 = DIRECTION ( 'NONE',  ( 1.000000000000000000, 0.0000000000000000000, 0.0000000000000000000 ) ) ;
#187 = ORIENTED_EDGE ( 'NONE', *, *, #249, .F. ) ;
#188 = SURFACE_STYLE_USAGE ( .BOTH. , #234 ) ;
#189 = DIRECTION ( 'NONE',  ( 0.0000000000000000000, 0.0000000000000000000, 1.000000000000000000 ) ) ;
#190 = EDGE_LOOP ( 'NONE', ( #259, #216, #2, #181 ) ) ;
#191 = PRODUCT_RELATED_PRODUCT_CATEGORY ( 'part', '', ( #21 ) ) ;
#192 = FACE_OUTER_BOUND ( 'NONE', #268, .T. ) ;
#193 = AXIS2_PLACEMENT_3D ( 'NONE', #232, #339, #206 ) ;
#194 = DIRECTION ( 'NONE',  ( 0.0000000000000000000, 0.0000000000000000000, 1.000000000000000000 ) ) ;
#195 = CARTESIAN_POINT ( 'NONE',  ( 0.0000000000000000000, 0.0000000000000000000, 0.0000000000000000000 ) ) ;
#196 = SURFACE_STYLE_USAGE ( .BOTH. , #253 ) ;
#197 = AXIS2_PLACEMENT_3D ( 'NONE', #144, #4, #218 ) ;
#198 = FACE_OUTER_BOUND ( 'NONE', #199, .T. ) ;
#199 = EDGE_LOOP ( 'NONE', ( #292, #233 ) ) ;
#200 = CARTESIAN_POINT ( 'NONE',  ( 0.1724999999999995981, 2.112515728529179297E-17, 2.500000000000000000 ) ) ;
#201 = DIRECTION ( 'NONE',  ( -0.0000000000000000000, -0.0000000000000000000, -1.000000000000000000 ) ) ;
#202 = EDGE_CURVE ( 'NONE', #107, #293, #317, .T. ) ;
#203 = AXIS2_PLACEMENT_3D ( 'NONE', #219, #194, #303 ) ;
#204 = PRODUCT_DEFINITION_CONTEXT ( 'detailed design', #110, 'design' ) ;
#205 = PRESENTATION_LAYER_ASSIGNMENT (  '', '', ( #91 ) ) ;
#206 = DIRECTION ( 'NONE',  ( -1.000000000000000000, 0.0000000000000000000, 0.0000000000000000000 ) ) ;
#207 = VERTEX_POINT ( 'NONE', #70 ) ;
#208 =( NAMED_UNIT ( * ) PLANE_ANGLE_UNIT ( ) SI_UNIT ( $, .RADIAN. ) );
#209 = EDGE_LOOP ( 'NONE', ( #318, #246, #266, #26 ) ) ;
#210 = VERTEX_POINT ( 'NONE', #337 ) ;
#211 = AXIS2_PLACEMENT_3D ( 'NONE', #213, #296, #60 ) ;
#212 = COLOUR_RGB ( '',0.7921568627450980005, 0.8196078431372548767, 0.9333333333333333481 ) ;
#213 = CARTESIAN_POINT ( 'NONE',  ( 0.0000000000000000000, 0.0000000000000000000, 0.0000000000000000000 ) ) ;
#214 = VERTEX_POINT ( 'NONE', #100 ) ;
#215 =( LENGTH_UNIT ( ) NAMED_UNIT ( * ) SI_UNIT ( $, .METRE. ) );
#216 = ORIENTED_EDGE ( 'NONE', *, *, #93, .T. ) ;
#217 =( GEOMETRIC_REPRESENTATION_CONTEXT ( 3 ) GLOBAL_UNCERTAINTY_ASSIGNED_CONTEXT ( ( #227 ) ) GLOBAL_UNIT_ASSIGNED_CONTEXT ( ( #329, #92, #282 ) ) REPRESENTATION_CONTEXT ( 'NONE', 'WORKASPACE' ) );
#218 = DIRECTION ( 'NONE',  ( 1.000000000000000000, 0.0000000000000000000, 0.0000000000000000000 ) ) ;
#219 = CARTESIAN_POINT ( 'NONE',  ( 0.0000000000000000000, 0.0000000000000000000, 2.500000000000000000 ) ) ;
#220 = VECTOR ( 'NONE', #334, 39.37007874015748143 ) ;
#221 = AXIS2_PLACEMENT_3D ( 'NONE', #22, #201, #146 ) ;
#222 = FACE_OUTER_BOUND ( 'NONE', #108, .T. ) ;
#223 = FILL_AREA_STYLE ('',( #250 ) ) ;
#224 = AXIS2_PLACEMENT_3D ( 'NONE', #87, #302, #278 ) ;
#225 = DIRECTION ( 'NONE',  ( 0.0000000000000000000, 0.0000000000000000000, 1.000000000000000000 ) ) ;
#226 = CARTESIAN_POINT ( 'NONE',  ( 0.0000000000000000000, 0.0000000000000000000, 0.0000000000000000000 ) ) ;
#227 = UNCERTAINTY_MEASURE_WITH_UNIT (LENGTH_MEASURE( 1.000000000000000082E-05 ), #329, 'distance_accuracy_value', 'NONE');
#228 = APPLICATION_CONTEXT ( 'automotive_design' ) ;
#229 = EDGE_CURVE ( 'NONE', #236, #349, #16, .T. ) ;
#230 = DIRECTION ( 'NONE',  ( -1.000000000000000000, 0.0000000000000000000, 0.0000000000000000000 ) ) ;
#231 = ORIENTED_EDGE ( 'NONE', *, *, #82, .F. ) ;
#232 = CARTESIAN_POINT ( 'NONE',  ( 0.0000000000000000000, 0.0000000000000000000, 1.000000000000000000 ) ) ;
#233 = ORIENTED_EDGE ( 'NONE', *, *, #300, .T. ) ;
#234 = SURFACE_SIDE_STYLE ('',( #78 ) ) ;
#235 = ADVANCED_FACE ( 'NONE', ( #309 ), #44, .T. ) ;
#236 = VERTEX_POINT ( 'NONE', #180 ) ;
#237 = CARTESIAN_POINT ( 'NONE',  ( 0.1874500000000001165, 0.0000000000000000000, 1.000000000000000000 ) ) ;
#238 = DIRECTION ( 'NONE',  ( -0.0000000000000000000, -0.0000000000000000000, -1.000000000000000000 ) ) ;
#239 = VECTOR ( 'NONE', #57, 39.37007874015748143 ) ;
#240 =( NAMED_UNIT ( * ) SI_UNIT ( $, .STERADIAN. ) SOLID_ANGLE_UNIT ( ) );
#241 = CYLINDRICAL_SURFACE ( 'NONE', #211, 0.1874500000000000610 ) ;
#242 = EDGE_CURVE ( 'NONE', #107, #159, #260, .T. ) ;
#243 = DIRECTION ( 'NONE',  ( 1.000000000000000000, 0.0000000000000000000, -0.0000000000000000000 ) ) ;
#244 = PLANE ( 'NONE',  #291 ) ;
#245 = PRODUCT_CONTEXT ( 'NONE', #228, 'mechanical' ) ;
#246 = ORIENTED_EDGE ( 'NONE', *, *, #136, .F. ) ;
#247 = CARTESIAN_POINT ( 'NONE',  ( 0.1875000000000000278, 2.296212748401287726E-17, 1.000049999999999883 ) ) ;
#248 = DIRECTION ( 'NONE',  ( -0.0000000000000000000, -0.0000000000000000000, -1.000000000000000000 ) ) ;
#249 = EDGE_CURVE ( 'NONE', #236, #325, #116, .T. ) ;
#250 = FILL_AREA_STYLE_COLOUR ( '', #84 ) ;
#251 = AXIS2_PLACEMENT_3D ( 'NONE', #149, #258, #102 ) ;
#252 = EDGE_CURVE ( 'NONE', #299, #214, #313, .T. ) ;
#253 = SURFACE_SIDE_STYLE ('',( #141 ) ) ;
#254 = DIRECTION ( 'NONE',  ( 0.0000000000000000000, 0.0000000000000000000, 1.000000000000000000 ) ) ;
#255 = PRODUCT_DEFINITION_SHAPE ( 'NONE', 'NONE',  #32 ) ;
#256 = CARTESIAN_POINT ( 'NONE',  ( -0.1875000000000000278, 0.0000000000000000000, 2.500000000000000000 ) ) ;
#257 = CONICAL_SURFACE ( 'NONE', #148, 0.1724999999999995981, 0.7853981633974357335 ) ;
#258 = DIRECTION ( 'NONE',  ( -0.0000000000000000000, -0.0000000000000000000, -1.000000000000000000 ) ) ;
#259 = ORIENTED_EDGE ( 'NONE', *, *, #122, .F. ) ;
#260 = LINE ( 'NONE', #174, #105 ) ;
#261 = CARTESIAN_POINT ( 'NONE',  ( 0.02800000000000000405, 0.0000000000000000000, 0.0000000000000000000 ) ) ;
#262 = EDGE_LOOP ( 'NONE', ( #86, #284, #156, #125 ) ) ;
#263 = CARTESIAN_POINT ( 'NONE',  ( 0.0000000000000000000, 0.0000000000000000000, 2.500000000000000000 ) ) ;
#264 = ORIENTED_EDGE ( 'NONE', *, *, #173, .F. ) ;
#265 = CARTESIAN_POINT ( 'NONE',  ( 0.0000000000000000000, 0.0000000000000000000, 2.484999999999999432 ) ) ;
#266 = ORIENTED_EDGE ( 'NONE', *, *, #27, .T. ) ;
#267 = LENGTH_MEASURE_WITH_UNIT ( LENGTH_MEASURE( 0.02539999999999999897 ), #215 );
#268 = EDGE_LOOP ( 'NONE', ( #129, #15, #98, #342 ) ) ;
#269 = CONICAL_SURFACE ( 'NONE', #166, 0.02800000000000000405, 0.7853981633974503884 ) ;
#270 = LINE ( 'NONE', #83, #239 ) ;
#271 = CARTESIAN_POINT ( 'NONE',  ( -0.1724999999999995981, 0.0000000000000000000, 2.500000000000000000 ) ) ;
#272 = DIMENSIONAL_EXPONENTS ( 1.000000000000000000, 0.0000000000000000000, 0.0000000000000000000, 0.0000000000000000000, 0.0000000000000000000, 0.0000000000000000000, 0.0000000000000000000 ) ;
#273 = DIRECTION ( 'NONE',  ( 0.0000000000000000000, 0.0000000000000000000, 1.000000000000000000 ) ) ;
#274 = ORIENTED_EDGE ( 'NONE', *, *, #341, .T. ) ;
#275 = ADVANCED_FACE ( 'NONE', ( #183 ), #46, .T. ) ;
#276 = DIRECTION ( 'NONE',  ( 0.0000000000000000000, 0.0000000000000000000, 1.000000000000000000 ) ) ;
#277 = CONICAL_SURFACE ( 'NONE', #179, 0.02800000000000000405, 0.7853981633974503884 ) ;
#278 = DIRECTION ( 'NONE',  ( -1.000000000000000000, 0.0000000000000000000, 0.0000000000000000000 ) ) ;
#279 = CARTESIAN_POINT ( 'NONE',  ( 0.0000000000000000000, 0.0000000000000000000, 0.0000000000000000000 ) ) ;
#280 = DIRECTION ( 'NONE',  ( -0.0000000000000000000, -0.0000000000000000000, -1.000000000000000000 ) ) ;
#281 = STYLED_ITEM ( 'NONE', ( #142 ), #29 ) ;
#282 =( NAMED_UNIT ( * ) SI_UNIT ( $, .STERADIAN. ) SOLID_ANGLE_UNIT ( ) );
#283 = CARTESIAN_POINT ( 'NONE',  ( 0.0000000000000000000, 0.0000000000000000000, 0.1594499999999993423 ) ) ;
#284 = ORIENTED_EDGE ( 'NONE', *, *, #164, .T. ) ;
#285 = DIRECTION ( 'NONE',  ( -0.0000000000000000000, -0.0000000000000000000, -1.000000000000000000 ) ) ;
#286 = CARTESIAN_POINT ( 'NONE',  ( 0.02800000000000000405, 0.0000000000000000000, 0.0000000000000000000 ) ) ;
#287 = VECTOR ( 'NONE', #285, 39.37007874015748143 ) ;
#288 = ORIENTED_EDGE ( 'NONE', *, *, #202, .F. ) ;
#289 = DIRECTION ( 'NONE',  ( 1.000000000000000000, 0.0000000000000000000, 0.0000000000000000000 ) ) ;
#290 = ADVANCED_FACE ( 'NONE', ( #52 ), #121, .T. ) ;
#291 = AXIS2_PLACEMENT_3D ( 'NONE', #195, #305, #6 ) ;
#292 = ORIENTED_EDGE ( 'NONE', *, *, #136, .T. ) ;
#293 = VERTEX_POINT ( 'NONE', #261 ) ;
#294 = ORIENTED_EDGE ( 'NONE', *, *, #88, .T. ) ;
#295 = EDGE_CURVE ( 'NONE', #159, #43, #340, .T. ) ;
#296 = DIRECTION ( 'NONE',  ( -0.0000000000000000000, -0.0000000000000000000, -1.000000000000000000 ) ) ;
#297 = CIRCLE ( 'NONE', #155, 0.1874500000000000055 ) ;
#298 = AXIS2_PLACEMENT_3D ( 'NONE', #226, #154, #335 ) ;
#299 = VERTEX_POINT ( 'NONE', #97 ) ;
#300 = EDGE_CURVE ( 'NONE', #299, #207, #172, .T. ) ;
#301 = CARTESIAN_POINT ( 'NONE',  ( 0.0000000000000000000, 0.0000000000000000000, 0.1594499999999993423 ) ) ;
#302 = DIRECTION ( 'NONE',  ( 0.0000000000000000000, 0.0000000000000000000, -1.000000000000000000 ) ) ;
#303 = DIRECTION ( 'NONE',  ( 1.000000000000000000, 0.0000000000000000000, 0.0000000000000000000 ) ) ;
#304 = DIRECTION ( 'NONE',  ( 1.000000000000000000, 0.0000000000000000000, 0.0000000000000000000 ) ) ;
#305 = DIRECTION ( 'NONE',  ( 0.0000000000000000000, 0.0000000000000000000, 1.000000000000000000 ) ) ;
#306 = CARTESIAN_POINT ( 'NONE',  ( -0.1874500000000001165, 2.295600425001714852E-17, 1.000000000000000000 ) ) ;
#307 = LINE ( 'NONE', #256, #287 ) ;
#308 = EDGE_LOOP ( 'NONE', ( #184, #150, #231, #336 ) ) ;
#309 = FACE_OUTER_BOUND ( 'NONE', #308, .T. ) ;
#310 = CIRCLE ( 'NONE', #197, 0.1875000000000000278 ) ;
#311 = LINE ( 'NONE', #176, #220 ) ;
#312 = AXIS2_PLACEMENT_3D ( 'NONE', #69, #14, #289 ) ;
#313 = LINE ( 'NONE', #200, #101 ) ;
#314 = FILL_AREA_STYLE ('',( #134 ) ) ;
#315 = ORIENTED_EDGE ( 'NONE', *, *, #173, .T. ) ;
#316 = AXIS2_PLACEMENT_3D ( 'NONE', #167, #276, #304 ) ;
#317 = CIRCLE ( 'NONE', #251, 0.02800000000000000405 ) ;
#318 = ORIENTED_EDGE ( 'NONE', *, *, #252, .F. ) ;
#319 = ADVANCED_FACE ( 'NONE', ( #198 ), #61, .T. ) ;
#320 =( LENGTH_UNIT ( ) NAMED_UNIT ( * ) SI_UNIT ( $, .METRE. ) );
#321 = ORIENTED_EDGE ( 'NONE', *, *, #202, .T. ) ;
#322 = DIRECTION ( 'NONE',  ( 0.0000000000000000000, 0.0000000000000000000, 1.000000000000000000 ) ) ;
#323 = ORIENTED_EDGE ( 'NONE', *, *, #74, .F. ) ;
#324 = APPLICATION_PROTOCOL_DEFINITION ( 'draft international standard', 'automotive_design', 1998, #228 ) ;
#325 = VERTEX_POINT ( 'NONE', #237 ) ;
#326 = AXIS2_PLACEMENT_3D ( 'NONE', #283, #42, #145 ) ;
#327 = ORIENTED_EDGE ( 'NONE', *, *, #82, .T. ) ;
#328 = CARTESIAN_POINT ( 'NONE',  ( -0.02800000000000000405, 1.319250764381486341E-17, 0.0000000000000000000 ) ) ;
#329 =( CONVERSION_BASED_UNIT ( 'INCH', #9 ) LENGTH_UNIT ( ) NAMED_UNIT ( #114 ) );
#330 = ADVANCED_BREP_SHAPE_REPRESENTATION ( 'Micro_SPD-375-090', ( #29, #40 ), #8 ) ;
#331 =( GEOMETRIC_REPRESENTATION_CONTEXT ( 3 ) GLOBAL_UNCERTAINTY_ASSIGNED_CONTEXT ( ( #178 ) ) GLOBAL_UNIT_ASSIGNED_CONTEXT ( ( #343, #208, #240 ) ) REPRESENTATION_CONTEXT ( 'NONE', 'WORKASPACE' ) );
#332 = APPLICATION_PROTOCOL_DEFINITION ( 'draft international standard', 'automotive_design', 1998, #110 ) ;
#333 = EDGE_CURVE ( 'NONE', #325, #48, #270, .T. ) ;
#334 = DIRECTION ( 'NONE',  ( -0.0000000000000000000, -0.0000000000000000000, -1.000000000000000000 ) ) ;
#335 = DIRECTION ( 'NONE',  ( -1.000000000000000000, 0.0000000000000000000, 0.0000000000000000000 ) ) ;
#336 = ORIENTED_EDGE ( 'NONE', *, *, #175, .F. ) ;
#337 = CARTESIAN_POINT ( 'NONE',  ( -0.1875000000000000278, 0.0000000000000000000, 2.484999999999999432 ) ) ;
#338 = CIRCLE ( 'NONE', #63, 0.1875000000000000278 ) ;
#339 = DIRECTION ( 'NONE',  ( -0.0000000000000000000, -0.0000000000000000000, -1.000000000000000000 ) ) ;
#340 = CIRCLE ( 'NONE', #326, 0.1874500000000000055 ) ;
#341 = EDGE_CURVE ( 'NONE', #236, #159, #33, .T. ) ;
#342 = ORIENTED_EDGE ( 'NONE', *, *, #27, .F. ) ;
#343 =( CONVERSION_BASED_UNIT ( 'INCH', #267 ) LENGTH_UNIT ( ) NAMED_UNIT ( #272 ) );
#344 = ORIENTED_EDGE ( 'NONE', *, *, #242, .T. ) ;
#345 = CARTESIAN_POINT ( 'NONE',  ( -0.1875000000000000278, 0.0000000000000000000, 1.000049999999999883 ) ) ;
#346 = AXIS2_PLACEMENT_3D ( 'NONE', #265, #157, #186 ) ;
#347 = DIRECTION ( 'NONE',  ( -1.000000000000000000, 0.0000000000000000000, 0.0000000000000000000 ) ) ;
#348 = EDGE_CURVE ( 'NONE', #210, #214, #23, .T. ) ;
#349 = VERTEX_POINT ( 'NONE', #345 ) ;
ENDSEC;
END-ISO-10303-21;
