ISO-10303-21;
HEADER;
FILE_DESCRIPTION (( 'STEP AP214' ),
    '1' );
FILE_NAME ('01377.STEP',
    '2023-06-22T14:29:09',
    ( '' ),
    ( '' ),
    'SwSTEP 2.0',
    'SolidWorks 2023',
    '' );
FILE_SCHEMA (( 'AUTOMOTIVE_DESIGN' ));
ENDSEC;

DATA;
#1 = ORIENTED_EDGE ( 'NONE', *, *, #193, .T. ) ;
#2 =( CONVERSION_BASED_UNIT ( 'INCH', #63 ) LENGTH_UNIT ( ) NAMED_UNIT ( #80 ) );
#3 = CIRCLE ( 'NONE', #114, 0.1875000000000000833 ) ;
#4 = EDGE_LOOP ( 'NONE', ( #30, #265, #97, #291 ) ) ;
#5 = CARTESIAN_POINT ( 'NONE',  ( 0.000000000000000000, 0.000000000000000000, 0.000000000000000000 ) ) ;
#6 = EDGE_CURVE ( 'NONE', #148, #7, #229, .T. ) ;
#7 = VERTEX_POINT ( 'NONE', #91 ) ;
#8 = FILL_AREA_STYLE ('',( #72 ) ) ;
#9 = STYLED_ITEM ( 'NONE', ( #61 ), #172 ) ;
#10 = DIRECTION ( 'NONE',  ( 0.000000000000000000, -1.000000000000000000, -0.000000000000000000 ) ) ;
#11 = PLANE ( 'NONE',  #71 ) ;
#12 = CARTESIAN_POINT ( 'NONE',  ( 2.296212748401287726E-17, 1.500000000000000222, 0.1875000000000000278 ) ) ;
#13 = DIRECTION ( 'NONE',  ( -0.000000000000000000, -1.000000000000000000, -0.000000000000000000 ) ) ;
#14 = SURFACE_SIDE_STYLE ('',( #59 ) ) ;
#15 = PRESENTATION_STYLE_ASSIGNMENT (( #249 ) ) ;
#16 = CARTESIAN_POINT ( 'NONE',  ( -6.123233995736766036E-17, 4.000000000000000000, 0.000000000000000000 ) ) ;
#17 = PRESENTATION_LAYER_ASSIGNMENT (  '', '', ( #58 ) ) ;
#18 = ADVANCED_FACE ( 'NONE', ( #258 ), #185, .T. ) ;
#19 = DIRECTION ( 'NONE',  ( 0.000000000000000000, -0.000000000000000000, 1.000000000000000000 ) ) ;
#20 = COLOUR_RGB ( '',1.000000000000000000, 0.000000000000000000, 0.000000000000000000 ) ;
#21 = CARTESIAN_POINT ( 'NONE',  ( -0.1875000000000001110, 4.000000000000000000, 0.000000000000000000 ) ) ;
#22 = FILL_AREA_STYLE ('',( #183 ) ) ;
#23 = EDGE_CURVE ( 'NONE', #204, #289, #143, .T. ) ;
#24 = SURFACE_STYLE_USAGE ( .BOTH. , #46 ) ;
#25 =( NAMED_UNIT ( * ) SI_UNIT ( $, .STERADIAN. ) SOLID_ANGLE_UNIT ( ) );
#26 = ORIENTED_EDGE ( 'NONE', *, *, #193, .F. ) ;
#27 =( LENGTH_UNIT ( ) NAMED_UNIT ( * ) SI_UNIT ( $, .METRE. ) );
#28 = ORIENTED_EDGE ( 'NONE', *, *, #267, .T. ) ;
#29 = CARTESIAN_POINT ( 'NONE',  ( 0.1874999999999999722, 4.000000000000000000, 2.296212748401288034E-17 ) ) ;
#30 = ORIENTED_EDGE ( 'NONE', *, *, #188, .F. ) ;
#31 = LENGTH_MEASURE_WITH_UNIT ( LENGTH_MEASURE( 0.02539999999999999897 ), #155 );
#32 =( NAMED_UNIT ( * ) SI_UNIT ( $, .STERADIAN. ) SOLID_ANGLE_UNIT ( ) );
#33 = CIRCLE ( 'NONE', #126, 0.1875000000000000278 ) ;
#34 = CARTESIAN_POINT ( 'NONE',  ( 0.000000000000000000, 0.000000000000000000, 0.000000000000000000 ) ) ;
#35 = PLANE ( 'NONE',  #257 ) ;
#36 = CARTESIAN_POINT ( 'NONE',  ( 0.000000000000000000, 1.500000000000000222, 0.000000000000000000 ) ) ;
#37 = AXIS2_PLACEMENT_3D ( 'NONE', #298, #157, #74 ) ;
#38 = AXIS2_PLACEMENT_3D ( 'NONE', #144, #226, #253 ) ;
#39 = ADVANCED_FACE ( 'NONE', ( #220 ), #35, .F. ) ;
#40 =( NAMED_UNIT ( * ) PLANE_ANGLE_UNIT ( ) SI_UNIT ( $, .RADIAN. ) );
#41 =( NAMED_UNIT ( * ) PLANE_ANGLE_UNIT ( ) SI_UNIT ( $, .RADIAN. ) );
#42 = COLOUR_RGB ( '',0.7921568627450980005, 0.8196078431372548767, 0.9333333333333333481 ) ;
#43 = FACE_OUTER_BOUND ( 'NONE', #122, .T. ) ;
#44 =( GEOMETRIC_REPRESENTATION_CONTEXT ( 3 ) GLOBAL_UNCERTAINTY_ASSIGNED_CONTEXT ( ( #282 ) ) GLOBAL_UNIT_ASSIGNED_CONTEXT ( ( #90, #284, #25 ) ) REPRESENTATION_CONTEXT ( 'NONE', 'WORKASPACE' ) );
#45 = LINE ( 'NONE', #205, #243 ) ;
#46 = SURFACE_SIDE_STYLE ('',( #166 ) ) ;
#47 = DIRECTION ( 'NONE',  ( -1.000000000000000000, 0.000000000000000000, 0.000000000000000000 ) ) ;
#48 = EDGE_LOOP ( 'NONE', ( #213, #231 ) ) ;
#49 =( NAMED_UNIT ( * ) SI_UNIT ( $, .STERADIAN. ) SOLID_ANGLE_UNIT ( ) );
#50 = VERTEX_POINT ( 'NONE', #159 ) ;
#51 = SURFACE_STYLE_USAGE ( .BOTH. , #102 ) ;
#52 = SURFACE_STYLE_FILL_AREA ( #8 ) ;
#53 = SURFACE_SIDE_STYLE ('',( #290 ) ) ;
#54 = DIMENSIONAL_EXPONENTS ( 1.000000000000000000, 0.000000000000000000, 0.000000000000000000, 0.000000000000000000, 0.000000000000000000, 0.000000000000000000, 0.000000000000000000 ) ;
#55 = MECHANICAL_DESIGN_GEOMETRIC_PRESENTATION_REPRESENTATION (  '', ( #66 ), #242 ) ;
#56 = CARTESIAN_POINT ( 'NONE',  ( 0.1875000000000000278, 1.499999999999999778, 2.296212748401288342E-17 ) ) ;
#57 = ORIENTED_EDGE ( 'NONE', *, *, #296, .F. ) ;
#58 = STYLED_ITEM ( 'NONE', ( #99 ), #250 ) ;
#59 = SURFACE_STYLE_FILL_AREA ( #161 ) ;
#60 = FILL_AREA_STYLE_COLOUR ( '', #304 ) ;
#61 = PRESENTATION_STYLE_ASSIGNMENT (( #118 ) ) ;
#62 = APPLICATION_PROTOCOL_DEFINITION ( 'draft international standard', 'automotive_design', 1998, #198 ) ;
#63 = LENGTH_MEASURE_WITH_UNIT ( LENGTH_MEASURE( 0.02539999999999999897 ), #121 );
#64 =( LENGTH_UNIT ( ) NAMED_UNIT ( * ) SI_UNIT ( $, .METRE. ) );
#65 = FILL_AREA_STYLE ('',( #285 ) ) ;
#66 = STYLED_ITEM ( 'NONE', ( #151 ), #246 ) ;
#67 = CARTESIAN_POINT ( 'NONE',  ( 7.582401355855259480E-33, 1.499999999999999778, 0.000000000000000000 ) ) ;
#68 = ORIENTED_EDGE ( 'NONE', *, *, #280, .T. ) ;
#69 = ADVANCED_FACE ( 'NONE', ( #283 ), #306, .T. ) ;
#70 = MANIFOLD_SOLID_BREP ( 'Revolve - Tool Body (Straight Shanked)', #113 ) ;
#71 = AXIS2_PLACEMENT_3D ( 'NONE', #192, #269, #240 ) ;
#72 = FILL_AREA_STYLE_COLOUR ( '', #295 ) ;
#73 = ADVANCED_BREP_SHAPE_REPRESENTATION ( '01377', ( #184, #70, #112 ), #247 ) ;
#74 = DIRECTION ( 'NONE',  ( -1.000000000000000000, 0.000000000000000000, 0.000000000000000000 ) ) ;
#75 = VERTEX_POINT ( 'NONE', #276 ) ;
#76 =( GEOMETRIC_REPRESENTATION_CONTEXT ( 3 ) GLOBAL_UNCERTAINTY_ASSIGNED_CONTEXT ( ( #86 ) ) GLOBAL_UNIT_ASSIGNED_CONTEXT ( ( #281, #41, #279 ) ) REPRESENTATION_CONTEXT ( 'NONE', 'WORKASPACE' ) );
#77 = CIRCLE ( 'NONE', #201, 0.1875000000000000278 ) ;
#78 = DIMENSIONAL_EXPONENTS ( 1.000000000000000000, 0.000000000000000000, 0.000000000000000000, 0.000000000000000000, 0.000000000000000000, 0.000000000000000000, 0.000000000000000000 ) ;
#79 = DIRECTION ( 'NONE',  ( -1.000000000000000000, 0.000000000000000000, 0.000000000000000000 ) ) ;
#80 = DIMENSIONAL_EXPONENTS ( 1.000000000000000000, 0.000000000000000000, 0.000000000000000000, 0.000000000000000000, 0.000000000000000000, 0.000000000000000000, 0.000000000000000000 ) ;
#81 = PRODUCT_DEFINITION_SHAPE ( 'NONE', 'NONE',  #299 ) ;
#82 = CARTESIAN_POINT ( 'NONE',  ( 0.000000000000000000, 1.500000000000000222, 0.000000000000000000 ) ) ;
#83 = UNCERTAINTY_MEASURE_WITH_UNIT (LENGTH_MEASURE( 1.000000000000000082E-05 ), #200, 'distance_accuracy_value', 'NONE');
#84 = DIRECTION ( 'NONE',  ( -0.000000000000000000, -1.000000000000000000, -0.000000000000000000 ) ) ;
#85 = VECTOR ( 'NONE', #127, 39.37007874015748143 ) ;
#86 = UNCERTAINTY_MEASURE_WITH_UNIT (LENGTH_MEASURE( 1.000000000000000082E-05 ), #281, 'distance_accuracy_value', 'NONE');
#87 = CARTESIAN_POINT ( 'NONE',  ( -6.123233995736766036E-17, 4.000000000000000000, 0.000000000000000000 ) ) ;
#88 = CARTESIAN_POINT ( 'NONE',  ( -6.123233995736766036E-17, 4.000000000000000000, 0.000000000000000000 ) ) ;
#89 = FACE_OUTER_BOUND ( 'NONE', #48, .T. ) ;
#90 =( CONVERSION_BASED_UNIT ( 'INCH', #255 ) LENGTH_UNIT ( ) NAMED_UNIT ( #248 ) );
#91 = CARTESIAN_POINT ( 'NONE',  ( -0.1875000000000001388, 4.000000000000000000, 0.000000000000000000 ) ) ;
#92 = SURFACE_STYLE_FILL_AREA ( #22 ) ;
#93 =( NAMED_UNIT ( * ) SI_UNIT ( $, .STERADIAN. ) SOLID_ANGLE_UNIT ( ) );
#94 = PRODUCT_RELATED_PRODUCT_CATEGORY ( 'part', '', ( #139 ) ) ;
#95 = AXIS2_PLACEMENT_3D ( 'NONE', #303, #84, #178 ) ;
#96 =( NAMED_UNIT ( * ) PLANE_ANGLE_UNIT ( ) SI_UNIT ( $, .RADIAN. ) );
#97 = ORIENTED_EDGE ( 'NONE', *, *, #125, .T. ) ;
#98 = DIRECTION ( 'NONE',  ( -0.000000000000000000, -1.000000000000000000, -0.000000000000000000 ) ) ;
#99 = PRESENTATION_STYLE_ASSIGNMENT (( #51 ) ) ;
#100 = ORIENTED_EDGE ( 'NONE', *, *, #267, .F. ) ;
#101 = MECHANICAL_DESIGN_GEOMETRIC_PRESENTATION_REPRESENTATION (  '', ( #190 ), #76 ) ;
#102 = SURFACE_SIDE_STYLE ('',( #52 ) ) ;
#103 =( GEOMETRIC_REPRESENTATION_CONTEXT ( 3 ) GLOBAL_UNCERTAINTY_ASSIGNED_CONTEXT ( ( #301 ) ) GLOBAL_UNIT_ASSIGNED_CONTEXT ( ( #104, #294, #32 ) ) REPRESENTATION_CONTEXT ( 'NONE', 'WORKASPACE' ) );
#104 =( CONVERSION_BASED_UNIT ( 'INCH', #105 ) LENGTH_UNIT ( ) NAMED_UNIT ( #135 ) );
#105 = LENGTH_MEASURE_WITH_UNIT ( LENGTH_MEASURE( 0.02539999999999999897 ), #27 );
#106 = AXIS2_PLACEMENT_3D ( 'NONE', #266, #212, #272 ) ;
#107 = CARTESIAN_POINT ( 'NONE',  ( 5.624099184981966457E-35, 1.500000000000000222, 0.000000000000000000 ) ) ;
#108 = DIRECTION ( 'NONE',  ( -0.000000000000000000, -1.000000000000000000, -0.000000000000000000 ) ) ;
#109 = DIMENSIONAL_EXPONENTS ( 1.000000000000000000, 0.000000000000000000, 0.000000000000000000, 0.000000000000000000, 0.000000000000000000, 0.000000000000000000, 0.000000000000000000 ) ;
#110 = STYLED_ITEM ( 'NONE', ( #15 ), #70 ) ;
#111 = LENGTH_MEASURE_WITH_UNIT ( LENGTH_MEASURE( 0.02539999999999999897 ), #245 );
#112 = AXIS2_PLACEMENT_3D ( 'NONE', #119, #309, #206 ) ;
#113 = CLOSED_SHELL ( 'NONE', ( #307, #39, #69, #241 ) ) ;
#114 = AXIS2_PLACEMENT_3D ( 'NONE', #16, #224, #79 ) ;
#115 = FILL_AREA_STYLE ('',( #208 ) ) ;
#116 = EDGE_CURVE ( 'NONE', #75, #7, #3, .T. ) ;
#117 = DIRECTION ( 'NONE',  ( -1.000000000000000000, 0.000000000000000000, 0.000000000000000000 ) ) ;
#118 = SURFACE_STYLE_USAGE ( .BOTH. , #165 ) ;
#119 = CARTESIAN_POINT ( 'NONE',  ( 0.000000000000000000, 0.000000000000000000, 0.000000000000000000 ) ) ;
#120 = DIRECTION ( 'NONE',  ( -2.449293598294706229E-17, 1.000000000000000000, -0.000000000000000000 ) ) ;
#121 =( LENGTH_UNIT ( ) NAMED_UNIT ( * ) SI_UNIT ( $, .METRE. ) );
#122 = EDGE_LOOP ( 'NONE', ( #150, #262 ) ) ;
#123 = PLANE ( 'NONE',  #197 ) ;
#124 = EDGE_LOOP ( 'NONE', ( #152, #147, #57, #239 ) ) ;
#125 = EDGE_CURVE ( 'NONE', #204, #50, #177, .T. ) ;
#126 = AXIS2_PLACEMENT_3D ( 'NONE', #67, #169, #47 ) ;
#127 = DIRECTION ( 'NONE',  ( -2.449293598294706229E-17, 1.000000000000000000, -0.000000000000000000 ) ) ;
#128 = UNCERTAINTY_MEASURE_WITH_UNIT (LENGTH_MEASURE( 1.000000000000000082E-05 ), #214, 'distance_accuracy_value', 'NONE');
#129 = ORIENTED_EDGE ( 'NONE', *, *, #218, .T. ) ;
#130 =( NAMED_UNIT ( * ) PLANE_ANGLE_UNIT ( ) SI_UNIT ( $, .RADIAN. ) );
#131 = EDGE_CURVE ( 'NONE', #289, #204, #77, .T. ) ;
#132 = CIRCLE ( 'NONE', #251, 0.1875000000000000278 ) ;
#133 = AXIS2_PLACEMENT_3D ( 'NONE', #88, #202, #117 ) ;
#134 = DIRECTION ( 'NONE',  ( 0.000000000000000000, 0.000000000000000000, -1.000000000000000000 ) ) ;
#135 = DIMENSIONAL_EXPONENTS ( 1.000000000000000000, 0.000000000000000000, 0.000000000000000000, 0.000000000000000000, 0.000000000000000000, 0.000000000000000000, 0.000000000000000000 ) ;
#136 = FACE_OUTER_BOUND ( 'NONE', #186, .T. ) ;
#137 = DIRECTION ( 'NONE',  ( 0.000000000000000000, 0.000000000000000000, -1.000000000000000000 ) ) ;
#138 = MECHANICAL_DESIGN_GEOMETRIC_PRESENTATION_REPRESENTATION (  '', ( #270 ), #173 ) ;
#139 = PRODUCT ( '01377', '01377', '', ( #260 ) ) ;
#140 = DIRECTION ( 'NONE',  ( -0.000000000000000000, -1.000000000000000000, -0.000000000000000000 ) ) ;
#141 = AXIS2_PLACEMENT_3D ( 'NONE', #36, #13, #137 ) ;
#142 = AXIS2_PLACEMENT_3D ( 'NONE', #5, #98, #170 ) ;
#143 = CIRCLE ( 'NONE', #141, 0.1875000000000000278 ) ;
#144 = CARTESIAN_POINT ( 'NONE',  ( 7.582401355855259480E-33, 1.499999999999999778, 0.000000000000000000 ) ) ;
#145 = SURFACE_STYLE_FILL_AREA ( #115 ) ;
#146 = CIRCLE ( 'NONE', #133, 0.1875000000000000833 ) ;
#147 = ORIENTED_EDGE ( 'NONE', *, *, #188, .T. ) ;
#148 = VERTEX_POINT ( 'NONE', #164 ) ;
#149 = FACE_OUTER_BOUND ( 'NONE', #4, .T. ) ;
#150 = ORIENTED_EDGE ( 'NONE', *, *, #168, .T. ) ;
#151 = PRESENTATION_STYLE_ASSIGNMENT (( #235 ) ) ;
#152 = ORIENTED_EDGE ( 'NONE', *, *, #23, .T. ) ;
#153 = FACE_OUTER_BOUND ( 'NONE', #209, .T. ) ;
#154 = COLOUR_RGB ( '',1.000000000000000000, 0.000000000000000000, 0.000000000000000000 ) ;
#155 =( LENGTH_UNIT ( ) NAMED_UNIT ( * ) SI_UNIT ( $, .METRE. ) );
#156 = COLOUR_RGB ( '',1.000000000000000000, 0.000000000000000000, 0.000000000000000000 ) ;
#157 = DIRECTION ( 'NONE',  ( -2.449293598294706538E-17, 1.000000000000000000, -0.000000000000000000 ) ) ;
#158 =( CONVERSION_BASED_UNIT ( 'INCH', #277 ) LENGTH_UNIT ( ) NAMED_UNIT ( #78 ) );
#159 = CARTESIAN_POINT ( 'NONE',  ( 0.000000000000000000, 0.000000000000000000, -0.1875000000000000278 ) ) ;
#160 = DIRECTION ( 'NONE',  ( -2.449293598294706229E-17, 1.000000000000000000, 0.000000000000000000 ) ) ;
#161 = FILL_AREA_STYLE ('',( #60 ) ) ;
#162 = CARTESIAN_POINT ( 'NONE',  ( 0.000000000000000000, 1.500000000000000222, -0.1875000000000000278 ) ) ;
#163 = CIRCLE ( 'NONE', #38, 0.1875000000000000278 ) ;
#164 = CARTESIAN_POINT ( 'NONE',  ( -0.1875000000000000278, 1.499999999999999778, 0.000000000000000000 ) ) ;
#165 = SURFACE_SIDE_STYLE ('',( #92 ) ) ;
#166 = SURFACE_STYLE_FILL_AREA ( #65 ) ;
#167 = MECHANICAL_DESIGN_GEOMETRIC_PRESENTATION_REPRESENTATION (  '', ( #9 ), #44 ) ;
#168 = EDGE_CURVE ( 'NONE', #7, #75, #146, .T. ) ;
#169 = DIRECTION ( 'NONE',  ( -2.449293598294706538E-17, 1.000000000000000000, -0.000000000000000000 ) ) ;
#170 = DIRECTION ( 'NONE',  ( 0.000000000000000000, 0.000000000000000000, -1.000000000000000000 ) ) ;
#171 = EDGE_LOOP ( 'NONE', ( #26, #189 ) ) ;
#172 = ADVANCED_FACE ( 'NONE', ( #89 ), #123, .T. ) ;
#173 =( GEOMETRIC_REPRESENTATION_CONTEXT ( 3 ) GLOBAL_UNCERTAINTY_ASSIGNED_CONTEXT ( ( #238 ) ) GLOBAL_UNIT_ASSIGNED_CONTEXT ( ( #2, #96, #256 ) ) REPRESENTATION_CONTEXT ( 'NONE', 'WORKASPACE' ) );
#174 = PRODUCT_DEFINITION_FORMATION_WITH_SPECIFIED_SOURCE ( 'ANY', '', #139, .NOT_KNOWN. ) ;
#175 = DIRECTION ( 'NONE',  ( -0.000000000000000000, -1.000000000000000000, -0.000000000000000000 ) ) ;
#176 = ORIENTED_EDGE ( 'NONE', *, *, #116, .F. ) ;
#177 = LINE ( 'NONE', #302, #288 ) ;
#178 = DIRECTION ( 'NONE',  ( 0.000000000000000000, 0.000000000000000000, -1.000000000000000000 ) ) ;
#179 = DIRECTION ( 'NONE',  ( -1.000000000000000000, 0.000000000000000000, 0.000000000000000000 ) ) ;
#180 = APPLICATION_CONTEXT ( 'automotive_design' ) ;
#181 =( NAMED_UNIT ( * ) SI_UNIT ( $, .STERADIAN. ) SOLID_ANGLE_UNIT ( ) );
#182 = LENGTH_MEASURE_WITH_UNIT ( LENGTH_MEASURE( 0.02539999999999999897 ), #64 );
#183 = FILL_AREA_STYLE_COLOUR ( '', #154 ) ;
#184 = MANIFOLD_SOLID_BREP ( 'Revolve - Cutting Edge', #287 ) ;
#185 = CYLINDRICAL_SURFACE ( 'NONE', #95, 0.1875000000000000278 ) ;
#186 = EDGE_LOOP ( 'NONE', ( #1, #28, #274, #236 ) ) ;
#187 = PRESENTATION_LAYER_ASSIGNMENT (  '', '', ( #66 ) ) ;
#188 = EDGE_CURVE ( 'NONE', #289, #261, #45, .T. ) ;
#189 = ORIENTED_EDGE ( 'NONE', *, *, #218, .F. ) ;
#190 = STYLED_ITEM ( 'NONE', ( #207 ), #18 ) ;
#191 = MECHANICAL_DESIGN_GEOMETRIC_PRESENTATION_REPRESENTATION (  '', ( #110 ), #271 ) ;
#192 = CARTESIAN_POINT ( 'NONE',  ( 0.1875000000000000278, 4.000000000000000000, 0.000000000000000000 ) ) ;
#193 = EDGE_CURVE ( 'NONE', #148, #300, #33, .T. ) ;
#194 = CYLINDRICAL_SURFACE ( 'NONE', #37, 0.1875000000000000555 ) ;
#195 = PRESENTATION_LAYER_ASSIGNMENT (  '', '', ( #110 ) ) ;
#196 = DIRECTION ( 'NONE',  ( -1.000000000000000000, -2.449293598294706229E-17, 0.000000000000000000 ) ) ;
#197 = AXIS2_PLACEMENT_3D ( 'NONE', #230, #232, #19 ) ;
#198 = APPLICATION_CONTEXT ( 'automotive_design' ) ;
#199 =( LENGTH_UNIT ( ) NAMED_UNIT ( * ) SI_UNIT ( $, .METRE. ) );
#200 =( CONVERSION_BASED_UNIT ( 'INCH', #182 ) LENGTH_UNIT ( ) NAMED_UNIT ( #273 ) );
#201 = AXIS2_PLACEMENT_3D ( 'NONE', #82, #140, #221 ) ;
#202 = DIRECTION ( 'NONE',  ( -2.449293598294706538E-17, 1.000000000000000000, -0.000000000000000000 ) ) ;
#203 =( NAMED_UNIT ( * ) PLANE_ANGLE_UNIT ( ) SI_UNIT ( $, .RADIAN. ) );
#204 = VERTEX_POINT ( 'NONE', #162 ) ;
#205 = CARTESIAN_POINT ( 'NONE',  ( 2.296212748401287726E-17, 0.000000000000000000, 0.1875000000000000278 ) ) ;
#206 = DIRECTION ( 'NONE',  ( 1.000000000000000000, 0.000000000000000000, 0.000000000000000000 ) ) ;
#207 = PRESENTATION_STYLE_ASSIGNMENT (( #24 ) ) ;
#208 = FILL_AREA_STYLE_COLOUR ( '', #42 ) ;
#209 = EDGE_LOOP ( 'NONE', ( #211, #68 ) ) ;
#210 = CYLINDRICAL_SURFACE ( 'NONE', #142, 0.1875000000000000278 ) ;
#211 = ORIENTED_EDGE ( 'NONE', *, *, #296, .T. ) ;
#212 = DIRECTION ( 'NONE',  ( -0.000000000000000000, -1.000000000000000000, -0.000000000000000000 ) ) ;
#213 = ORIENTED_EDGE ( 'NONE', *, *, #23, .F. ) ;
#214 =( CONVERSION_BASED_UNIT ( 'INCH', #31 ) LENGTH_UNIT ( ) NAMED_UNIT ( #54 ) );
#215 = CIRCLE ( 'NONE', #106, 0.1875000000000000278 ) ;
#216 = AXIS2_PLACEMENT_3D ( 'NONE', #217, #10, #134 ) ;
#217 = CARTESIAN_POINT ( 'NONE',  ( 0.000000000000000000, 0.000000000000000000, 0.000000000000000000 ) ) ;
#218 = EDGE_CURVE ( 'NONE', #300, #148, #163, .T. ) ;
#219 = VECTOR ( 'NONE', #120, 39.37007874015748143 ) ;
#220 = FACE_OUTER_BOUND ( 'NONE', #171, .T. ) ;
#221 = DIRECTION ( 'NONE',  ( 0.000000000000000000, 0.000000000000000000, -1.000000000000000000 ) ) ;
#222 =( LENGTH_UNIT ( ) NAMED_UNIT ( * ) SI_UNIT ( $, .METRE. ) );
#223 = PRESENTATION_LAYER_ASSIGNMENT (  '', '', ( #9 ) ) ;
#224 = DIRECTION ( 'NONE',  ( -2.449293598294706538E-17, 1.000000000000000000, -0.000000000000000000 ) ) ;
#225 = MECHANICAL_DESIGN_GEOMETRIC_PRESENTATION_REPRESENTATION (  '', ( #58 ), #103 ) ;
#226 = DIRECTION ( 'NONE',  ( -2.449293598294706538E-17, 1.000000000000000000, -0.000000000000000000 ) ) ;
#227 = PRESENTATION_STYLE_ASSIGNMENT (( #308 ) ) ;
#228 = PRESENTATION_LAYER_ASSIGNMENT (  '', '', ( #190 ) ) ;
#229 = LINE ( 'NONE', #21, #219 ) ;
#230 = CARTESIAN_POINT ( 'NONE',  ( 0.000000000000000000, 1.500000000000000222, 0.000000000000000000 ) ) ;
#231 = ORIENTED_EDGE ( 'NONE', *, *, #131, .F. ) ;
#232 = DIRECTION ( 'NONE',  ( 0.000000000000000000, 1.000000000000000000, 0.000000000000000000 ) ) ;
#233 = APPLICATION_PROTOCOL_DEFINITION ( 'draft international standard', 'automotive_design', 1998, #180 ) ;
#234 = ORIENTED_EDGE ( 'NONE', *, *, #6, .T. ) ;
#235 = SURFACE_STYLE_USAGE ( .BOTH. , #53 ) ;
#236 = ORIENTED_EDGE ( 'NONE', *, *, #6, .F. ) ;
#237 = LINE ( 'NONE', #29, #85 ) ;
#238 = UNCERTAINTY_MEASURE_WITH_UNIT (LENGTH_MEASURE( 1.000000000000000082E-05 ), #2, 'distance_accuracy_value', 'NONE');
#239 = ORIENTED_EDGE ( 'NONE', *, *, #125, .F. ) ;
#240 = DIRECTION ( 'NONE',  ( 1.000000000000000000, 2.449293598294706229E-17, 0.000000000000000000 ) ) ;
#241 = ADVANCED_FACE ( 'NONE', ( #43 ), #11, .F. ) ;
#242 =( GEOMETRIC_REPRESENTATION_CONTEXT ( 3 ) GLOBAL_UNCERTAINTY_ASSIGNED_CONTEXT ( ( #128 ) ) GLOBAL_UNIT_ASSIGNED_CONTEXT ( ( #214, #130, #49 ) ) REPRESENTATION_CONTEXT ( 'NONE', 'WORKASPACE' ) );
#243 = VECTOR ( 'NONE', #286, 39.37007874015748143 ) ;
#244 = DIRECTION ( 'NONE',  ( 0.000000000000000000, 0.000000000000000000, -1.000000000000000000 ) ) ;
#245 =( LENGTH_UNIT ( ) NAMED_UNIT ( * ) SI_UNIT ( $, .METRE. ) );
#246 = ADVANCED_FACE ( 'NONE', ( #153 ), #297, .T. ) ;
#247 =( GEOMETRIC_REPRESENTATION_CONTEXT ( 3 ) GLOBAL_UNCERTAINTY_ASSIGNED_CONTEXT ( ( #83 ) ) GLOBAL_UNIT_ASSIGNED_CONTEXT ( ( #200, #203, #93 ) ) REPRESENTATION_CONTEXT ( 'NONE', 'WORKASPACE' ) );
#248 = DIMENSIONAL_EXPONENTS ( 1.000000000000000000, 0.000000000000000000, 0.000000000000000000, 0.000000000000000000, 0.000000000000000000, 0.000000000000000000, 0.000000000000000000 ) ;
#249 = SURFACE_STYLE_USAGE ( .BOTH. , #14 ) ;
#250 = ADVANCED_FACE ( 'NONE', ( #149 ), #210, .T. ) ;
#251 = AXIS2_PLACEMENT_3D ( 'NONE', #34, #175, #244 ) ;
#252 = AXIS2_PLACEMENT_3D ( 'NONE', #87, #305, #179 ) ;
#253 = DIRECTION ( 'NONE',  ( -1.000000000000000000, 0.000000000000000000, 0.000000000000000000 ) ) ;
#254 = SHAPE_DEFINITION_REPRESENTATION ( #81, #73 ) ;
#255 = LENGTH_MEASURE_WITH_UNIT ( LENGTH_MEASURE( 0.02539999999999999897 ), #199 );
#256 =( NAMED_UNIT ( * ) SI_UNIT ( $, .STERADIAN. ) SOLID_ANGLE_UNIT ( ) );
#257 = AXIS2_PLACEMENT_3D ( 'NONE', #107, #160, #196 ) ;
#258 = FACE_OUTER_BOUND ( 'NONE', #124, .T. ) ;
#259 = SURFACE_SIDE_STYLE ('',( #145 ) ) ;
#260 = PRODUCT_CONTEXT ( 'NONE', #180, 'mechanical' ) ;
#261 = VERTEX_POINT ( 'NONE', #268 ) ;
#262 = ORIENTED_EDGE ( 'NONE', *, *, #116, .T. ) ;
#263 = FILL_AREA_STYLE_COLOUR ( '', #156 ) ;
#264 = PRESENTATION_LAYER_ASSIGNMENT (  '', '', ( #270 ) ) ;
#265 = ORIENTED_EDGE ( 'NONE', *, *, #131, .T. ) ;
#266 = CARTESIAN_POINT ( 'NONE',  ( 0.000000000000000000, 0.000000000000000000, 0.000000000000000000 ) ) ;
#267 = EDGE_CURVE ( 'NONE', #300, #75, #237, .T. ) ;
#268 = CARTESIAN_POINT ( 'NONE',  ( 2.296212748401287726E-17, 0.000000000000000000, 0.1875000000000000278 ) ) ;
#269 = DIRECTION ( 'NONE',  ( 2.449293598294706229E-17, -1.000000000000000000, 0.000000000000000000 ) ) ;
#270 = STYLED_ITEM ( 'NONE', ( #227 ), #184 ) ;
#271 =( GEOMETRIC_REPRESENTATION_CONTEXT ( 3 ) GLOBAL_UNCERTAINTY_ASSIGNED_CONTEXT ( ( #275 ) ) GLOBAL_UNIT_ASSIGNED_CONTEXT ( ( #158, #40, #181 ) ) REPRESENTATION_CONTEXT ( 'NONE', 'WORKASPACE' ) );
#272 = DIRECTION ( 'NONE',  ( 0.000000000000000000, 0.000000000000000000, -1.000000000000000000 ) ) ;
#273 = DIMENSIONAL_EXPONENTS ( 1.000000000000000000, 0.000000000000000000, 0.000000000000000000, 0.000000000000000000, 0.000000000000000000, 0.000000000000000000, 0.000000000000000000 ) ;
#274 = ORIENTED_EDGE ( 'NONE', *, *, #168, .F. ) ;
#275 = UNCERTAINTY_MEASURE_WITH_UNIT (LENGTH_MEASURE( 1.000000000000000082E-05 ), #158, 'distance_accuracy_value', 'NONE');
#276 = CARTESIAN_POINT ( 'NONE',  ( 0.1875000000000000278, 4.000000000000000000, 2.296212748401288342E-17 ) ) ;
#277 = LENGTH_MEASURE_WITH_UNIT ( LENGTH_MEASURE( 0.02539999999999999897 ), #222 );
#278 = PRODUCT_DEFINITION_CONTEXT ( 'detailed design', #198, 'design' ) ;
#279 =( NAMED_UNIT ( * ) SI_UNIT ( $, .STERADIAN. ) SOLID_ANGLE_UNIT ( ) );
#280 = EDGE_CURVE ( 'NONE', #261, #50, #215, .T. ) ;
#281 =( CONVERSION_BASED_UNIT ( 'INCH', #111 ) LENGTH_UNIT ( ) NAMED_UNIT ( #109 ) );
#282 = UNCERTAINTY_MEASURE_WITH_UNIT (LENGTH_MEASURE( 1.000000000000000082E-05 ), #90, 'distance_accuracy_value', 'NONE');
#283 = FACE_OUTER_BOUND ( 'NONE', #293, .T. ) ;
#284 =( NAMED_UNIT ( * ) PLANE_ANGLE_UNIT ( ) SI_UNIT ( $, .RADIAN. ) );
#285 = FILL_AREA_STYLE_COLOUR ( '', #20 ) ;
#286 = DIRECTION ( 'NONE',  ( -0.000000000000000000, -1.000000000000000000, -0.000000000000000000 ) ) ;
#287 = CLOSED_SHELL ( 'NONE', ( #18, #172, #250, #246 ) ) ;
#288 = VECTOR ( 'NONE', #108, 39.37007874015748143 ) ;
#289 = VERTEX_POINT ( 'NONE', #12 ) ;
#290 = SURFACE_STYLE_FILL_AREA ( #292 ) ;
#291 = ORIENTED_EDGE ( 'NONE', *, *, #280, .F. ) ;
#292 = FILL_AREA_STYLE ('',( #263 ) ) ;
#293 = EDGE_LOOP ( 'NONE', ( #100, #129, #234, #176 ) ) ;
#294 =( NAMED_UNIT ( * ) PLANE_ANGLE_UNIT ( ) SI_UNIT ( $, .RADIAN. ) );
#295 = COLOUR_RGB ( '',1.000000000000000000, 0.000000000000000000, 0.000000000000000000 ) ;
#296 = EDGE_CURVE ( 'NONE', #50, #261, #132, .T. ) ;
#297 = PLANE ( 'NONE',  #216 ) ;
#298 = CARTESIAN_POINT ( 'NONE',  ( -6.123233995736766036E-17, 4.000000000000000000, 0.000000000000000000 ) ) ;
#299 = PRODUCT_DEFINITION ( 'UNKNOWN', '', #174, #278 ) ;
#300 = VERTEX_POINT ( 'NONE', #56 ) ;
#301 = UNCERTAINTY_MEASURE_WITH_UNIT (LENGTH_MEASURE( 1.000000000000000082E-05 ), #104, 'distance_accuracy_value', 'NONE');
#302 = CARTESIAN_POINT ( 'NONE',  ( 0.000000000000000000, 0.000000000000000000, -0.1875000000000000278 ) ) ;
#303 = CARTESIAN_POINT ( 'NONE',  ( 0.000000000000000000, 0.000000000000000000, 0.000000000000000000 ) ) ;
#304 = COLOUR_RGB ( '',0.7921568627450980005, 0.8196078431372548767, 0.9333333333333333481 ) ;
#305 = DIRECTION ( 'NONE',  ( -2.449293598294706538E-17, 1.000000000000000000, -0.000000000000000000 ) ) ;
#306 = CYLINDRICAL_SURFACE ( 'NONE', #252, 0.1875000000000000555 ) ;
#307 = ADVANCED_FACE ( 'NONE', ( #136 ), #194, .T. ) ;
#308 = SURFACE_STYLE_USAGE ( .BOTH. , #259 ) ;
#309 = DIRECTION ( 'NONE',  ( 0.000000000000000000, 0.000000000000000000, 1.000000000000000000 ) ) ;
ENDSEC;
END-ISO-10303-21;
