ISO-10303-21;
HEADER;
FILE_DESCRIPTION (( 'STEP AP214' ),
    '1' );
FILE_NAME ('Micro_SFPM-080-10.STEP',
    '2021-09-02T07:30:36',
    ( '' ),
    ( '' ),
    'SwSTEP 2.0',
    'SolidWorks 2020',
    '' );
FILE_SCHEMA (( 'AUTOMOTIVE_DESIGN' ));
ENDSEC;

DATA;
#1 = ORIENTED_EDGE ( 'NONE', *, *, #79, .F. ) ;
#2 = PRESENTATION_LAYER_ASSIGNMENT (  '', '', ( #178 ) ) ;
#3 = SURFACE_STYLE_FILL_AREA ( #16 ) ;
#4 = ORIENTED_EDGE ( 'NONE', *, *, #276, .F. ) ;
#5 = ORIENTED_EDGE ( 'NONE', *, *, #117, .F. ) ;
#6 = EDGE_LOOP ( 'NONE', ( #255, #234, #208, #187 ) ) ;
#7 = EDGE_CURVE ( 'NONE', #20, #49, #183, .T. ) ;
#8 = VECTOR ( 'NONE', #148, 39.37007874015748143 ) ;
#9 = CARTESIAN_POINT ( 'NONE',  ( 8.689531773444529186E-17, 0.0000000000000000000, 0.7095541162965941506 ) ) ;
#10 = DIRECTION ( 'NONE',  ( -1.224646799147353207E-16, -0.0000000000000000000, -1.000000000000000000 ) ) ;
#11 = CARTESIAN_POINT ( 'NONE',  ( 0.1424805000000001765, 1.836731392595197049E-17, 1.968503999999999809 ) ) ;
#12 = AXIS2_PLACEMENT_3D ( 'NONE', #23, #28, #116 ) ;
#13 = EDGE_CURVE ( 'NONE', #49, #20, #128, .T. ) ;
#14 = CARTESIAN_POINT ( 'NONE',  ( 8.678594253305624695E-17, 0.0000000000000000000, 0.7086609999999999854 ) ) ;
#15 = SURFACE_STYLE_FILL_AREA ( #41 ) ;
#16 = FILL_AREA_STYLE ('',( #63 ) ) ;
#17 = CARTESIAN_POINT ( 'NONE',  ( 0.0000000000000000000, 0.0000000000000000000, 1.968503999999999809 ) ) ;
#18 = DIRECTION ( 'NONE',  ( 0.0000000000000000000, 0.0000000000000000000, -1.000000000000000000 ) ) ;
#19 = DIRECTION ( 'NONE',  ( 0.0000000000000000000, 0.0000000000000000000, -1.000000000000000000 ) ) ;
#20 = VERTEX_POINT ( 'NONE', #104 ) ;
#21 = CARTESIAN_POINT ( 'NONE',  ( -0.1424805000000001765, 0.0000000000000000000, 1.968503999999999809 ) ) ;
#22 = EDGE_LOOP ( 'NONE', ( #97, #144, #165, #111 ) ) ;
#23 = CARTESIAN_POINT ( 'NONE',  ( 0.0000000000000000000, 0.0000000000000000000, 1.968503999999999809 ) ) ;
#24 = AXIS2_PLACEMENT_3D ( 'NONE', #194, #10, #218 ) ;
#25 = VECTOR ( 'NONE', #58, 39.37007874015748143 ) ;
#26 = APPLICATION_CONTEXT ( 'automotive_design' ) ;
#27 = ORIENTED_EDGE ( 'NONE', *, *, #254, .F. ) ;
#28 = DIRECTION ( 'NONE',  ( -0.0000000000000000000, -0.0000000000000000000, -1.000000000000000000 ) ) ;
#29 = ORIENTED_EDGE ( 'NONE', *, *, #217, .F. ) ;
#30 = LINE ( 'NONE', #239, #25 ) ;
#31 = AXIS2_PLACEMENT_3D ( 'NONE', #14, #127, #199 ) ;
#32 = DIRECTION ( 'NONE',  ( 0.0000000000000000000, 0.0000000000000000000, 1.000000000000000000 ) ) ;
#33 = LENGTH_MEASURE_WITH_UNIT ( LENGTH_MEASURE( 0.02539999999999999897 ), #190 );
#34 = FACE_OUTER_BOUND ( 'NONE', #22, .T. ) ;
#35 = EDGE_CURVE ( 'NONE', #94, #143, #156, .T. ) ;
#36 = LINE ( 'NONE', #120, #8 ) ;
#37 = LINE ( 'NONE', #80, #198 ) ;
#38 = PRODUCT_DEFINITION_SHAPE ( 'NONE', 'NONE',  #93 ) ;
#39 = EDGE_CURVE ( 'NONE', #143, #94, #235, .T. ) ;
#40 = PRESENTATION_STYLE_ASSIGNMENT (( #248 ) ) ;
#41 = FILL_AREA_STYLE ('',( #69 ) ) ;
#42 = DIRECTION ( 'NONE',  ( 1.000000000000000000, 0.0000000000000000000, 0.0000000000000000000 ) ) ;
#43 = CIRCLE ( 'NONE', #294, 0.1573230194999999942 ) ;
#44 = APPLICATION_CONTEXT ( 'automotive_design' ) ;
#45 = ADVANCED_FACE ( 'NONE', ( #288 ), #262, .T. ) ;
#46 = DIRECTION ( 'NONE',  ( 0.0000000000000000000, 0.0000000000000000000, 1.000000000000000000 ) ) ;
#47 = DIRECTION ( 'NONE',  ( -0.7071067811865434649, 0.0000000000000000000, -0.7071067811865515695 ) ) ;
#48 = AXIS2_PLACEMENT_3D ( 'NONE', #293, #296, #91 ) ;
#49 = VERTEX_POINT ( 'NONE', #146 ) ;
#50 = DIRECTION ( 'NONE',  ( 0.0000000000000000000, 0.0000000000000000000, -1.000000000000000000 ) ) ;
#51 = ORIENTED_EDGE ( 'NONE', *, *, #7, .T. ) ;
#52 = EDGE_LOOP ( 'NONE', ( #1, #138, #259, #192 ) ) ;
#53 = AXIS2_PLACEMENT_3D ( 'NONE', #139, #271, #252 ) ;
#54 = ORIENTED_EDGE ( 'NONE', *, *, #238, .T. ) ;
#55 = ORIENTED_EDGE ( 'NONE', *, *, #270, .T. ) ;
#56 = CYLINDRICAL_SURFACE ( 'NONE', #66, 0.1574804999999999955 ) ;
#57 = CIRCLE ( 'NONE', #246, 0.1574804999999999955 ) ;
#58 = DIRECTION ( 'NONE',  ( -1.224646799147353207E-16, -0.0000000000000000000, -1.000000000000000000 ) ) ;
#59 = DIRECTION ( 'NONE',  ( 1.000000000000000000, 0.0000000000000000000, -0.0000000000000000000 ) ) ;
#60 = DIRECTION ( 'NONE',  ( -1.224646799147353207E-16, -0.0000000000000000000, -1.000000000000000000 ) ) ;
#61 = STYLED_ITEM ( 'NONE', ( #40 ), #281 ) ;
#62 =( CONVERSION_BASED_UNIT ( 'INCH', #158 ) LENGTH_UNIT ( ) NAMED_UNIT ( #90 ) );
#63 = FILL_AREA_STYLE_COLOUR ( '', #206 ) ;
#64 =( NAMED_UNIT ( * ) PLANE_ANGLE_UNIT ( ) SI_UNIT ( $, .RADIAN. ) );
#65 = CONICAL_SURFACE ( 'NONE', #110, 0.1424805000000001765, 0.7853981633974426169 ) ;
#66 = AXIS2_PLACEMENT_3D ( 'NONE', #123, #268, #147 ) ;
#67 = EDGE_CURVE ( 'NONE', #171, #143, #175, .T. ) ;
#68 = LINE ( 'NONE', #227, #95 ) ;
#69 = FILL_AREA_STYLE_COLOUR ( '', #157 ) ;
#70 = ORIENTED_EDGE ( 'NONE', *, *, #85, .T. ) ;
#71 = PRODUCT_RELATED_PRODUCT_CATEGORY ( 'part', '', ( #253 ) ) ;
#72 = AXIS2_PLACEMENT_3D ( 'NONE', #159, #19, #42 ) ;
#73 = ORIENTED_EDGE ( 'NONE', *, *, #217, .T. ) ;
#74 = VERTEX_POINT ( 'NONE', #11 ) ;
#75 = VERTEX_POINT ( 'NONE', #106 ) ;
#76 = EDGE_CURVE ( 'NONE', #141, #94, #30, .T. ) ;
#77 = DIRECTION ( 'NONE',  ( -1.224646799147353207E-16, -0.0000000000000000000, -1.000000000000000000 ) ) ;
#78 = FACE_OUTER_BOUND ( 'NONE', #191, .T. ) ;
#79 = EDGE_CURVE ( 'NONE', #74, #277, #37, .T. ) ;
#80 = CARTESIAN_POINT ( 'NONE',  ( 0.1424805000000001765, 1.744882882659146687E-17, 1.968503999999999809 ) ) ;
#81 = CLOSED_SHELL ( 'NONE', ( #45, #231, #189, #292, #145, #228, #269, #88, #121, #137 ) ) ;
#82 = AXIS2_PLACEMENT_3D ( 'NONE', #241, #32, #131 ) ;
#83 = DIRECTION ( 'NONE',  ( 0.0000000000000000000, 0.0000000000000000000, 1.000000000000000000 ) ) ;
#84 = DIRECTION ( 'NONE',  ( -1.224646799147353207E-16, -0.0000000000000000000, -1.000000000000000000 ) ) ;
#85 = EDGE_CURVE ( 'NONE', #277, #20, #36, .T. ) ;
#86 = CARTESIAN_POINT ( 'NONE',  ( 0.0000000000000000000, 0.0000000000000000000, 1.968503999999999809 ) ) ;
#87 =( NAMED_UNIT ( * ) PLANE_ANGLE_UNIT ( ) SI_UNIT ( $, .RADIAN. ) );
#88 = ADVANCED_FACE ( 'NONE', ( #223 ), #214, .T. ) ;
#89 = PRESENTATION_LAYER_ASSIGNMENT (  '', '', ( #61 ) ) ;
#90 = DIMENSIONAL_EXPONENTS ( 1.000000000000000000, 0.0000000000000000000, 0.0000000000000000000, 0.0000000000000000000, 0.0000000000000000000, 0.0000000000000000000, 0.0000000000000000000 ) ;
#91 = DIRECTION ( 'NONE',  ( -1.000000000000000000, 0.0000000000000000000, 0.0000000000000000000 ) ) ;
#92 = DIRECTION ( 'NONE',  ( 0.1736481776669314692, 0.0000000000000000000, 0.9848077530122077983 ) ) ;
#93 = PRODUCT_DEFINITION ( 'UNKNOWN', '', #278, #153 ) ;
#94 = VERTEX_POINT ( 'NONE', #265 ) ;
#95 = VECTOR ( 'NONE', #47, 39.37007874015748143 ) ;
#96 = ORIENTED_EDGE ( 'NONE', *, *, #79, .T. ) ;
#97 = ORIENTED_EDGE ( 'NONE', *, *, #76, .F. ) ;
#98 = LINE ( 'NONE', #267, #257 ) ;
#99 = UNCERTAINTY_MEASURE_WITH_UNIT (LENGTH_MEASURE( 1.000000000000000082E-05 ), #62, 'distance_accuracy_value', 'NONE');
#100 = CARTESIAN_POINT ( 'NONE',  ( 0.0000000000000000000, 0.0000000000000000000, 0.0000000000000000000 ) ) ;
#101 = MECHANICAL_DESIGN_GEOMETRIC_PRESENTATION_REPRESENTATION (  '', ( #178 ), #136 ) ;
#102 = CYLINDRICAL_SURFACE ( 'NONE', #249, 0.1573230194999999942 ) ;
#103 = DIRECTION ( 'NONE',  ( -0.0000000000000000000, -0.0000000000000000000, -1.000000000000000000 ) ) ;
#104 = CARTESIAN_POINT ( 'NONE',  ( 0.1574805000000000788, 1.928579902531248645E-17, 0.7095541162965941506 ) ) ;
#105 = AXIS2_PLACEMENT_3D ( 'NONE', #284, #285, #215 ) ;
#106 = CARTESIAN_POINT ( 'NONE',  ( -0.1574804999999999955, 0.0000000000000000000, 1.953503999999999907 ) ) ;
#107 =( NAMED_UNIT ( * ) SI_UNIT ( $, .STERADIAN. ) SOLID_ANGLE_UNIT ( ) );
#108 = CARTESIAN_POINT ( 'NONE',  ( 8.678594253305624695E-17, 0.0000000000000000000, 0.7086609999999999854 ) ) ;
#109 = DIRECTION ( 'NONE',  ( -1.224646799147353207E-16, -0.0000000000000000000, -1.000000000000000000 ) ) ;
#110 = AXIS2_PLACEMENT_3D ( 'NONE', #180, #50, #230 ) ;
#111 = ORIENTED_EDGE ( 'NONE', *, *, #35, .F. ) ;
#112 = LINE ( 'NONE', #226, #280 ) ;
#113 = ORIENTED_EDGE ( 'NONE', *, *, #212, .T. ) ;
#114 = AXIS2_PLACEMENT_3D ( 'NONE', #86, #275, #164 ) ;
#115 = ORIENTED_EDGE ( 'NONE', *, *, #179, .F. ) ;
#116 = DIRECTION ( 'NONE',  ( -1.000000000000000000, 0.0000000000000000000, 0.0000000000000000000 ) ) ;
#117 = EDGE_CURVE ( 'NONE', #75, #49, #287, .T. ) ;
#118 = ORIENTED_EDGE ( 'NONE', *, *, #13, .F. ) ;
#119 = EDGE_LOOP ( 'NONE', ( #174, #113, #209, #195 ) ) ;
#120 = CARTESIAN_POINT ( 'NONE',  ( 0.1574804999999999955, 1.928579902531247412E-17, 1.968503999999999809 ) ) ;
#121 = ADVANCED_FACE ( 'NONE', ( #34 ), #102, .T. ) ;
#122 = AXIS2_PLACEMENT_3D ( 'NONE', #17, #204, #205 ) ;
#123 = CARTESIAN_POINT ( 'NONE',  ( 0.0000000000000000000, 0.0000000000000000000, 1.968503999999999809 ) ) ;
#124 =( CONVERSION_BASED_UNIT ( 'INCH', #33 ) LENGTH_UNIT ( ) NAMED_UNIT ( #150 ) );
#125 = SURFACE_SIDE_STYLE ('',( #3 ) ) ;
#126 = CARTESIAN_POINT ( 'NONE',  ( 0.0000000000000000000, 0.0000000000000000000, 0.0000000000000000000 ) ) ;
#127 = DIRECTION ( 'NONE',  ( 1.224646799147353207E-16, 0.0000000000000000000, 1.000000000000000000 ) ) ;
#128 = CIRCLE ( 'NONE', #244, 0.1574804999999999955 ) ;
#129 = AXIS2_PLACEMENT_3D ( 'NONE', #108, #132, #155 ) ;
#130 = CARTESIAN_POINT ( 'NONE',  ( 8.689531773444529186E-17, 0.0000000000000000000, 0.7095541162965941506 ) ) ;
#131 = DIRECTION ( 'NONE',  ( 1.000000000000000000, 0.0000000000000000000, 0.0000000000000000000 ) ) ;
#132 = DIRECTION ( 'NONE',  ( 1.224646799147353207E-16, 0.0000000000000000000, 1.000000000000000000 ) ) ;
#133 = DIMENSIONAL_EXPONENTS ( 1.000000000000000000, 0.0000000000000000000, 0.0000000000000000000, 0.0000000000000000000, 0.0000000000000000000, 0.0000000000000000000, 0.0000000000000000000 ) ;
#134 = DIRECTION ( 'NONE',  ( 1.000000000000000000, 0.0000000000000000000, 0.0000000000000000000 ) ) ;
#135 = PLANE ( 'NONE',  #53 ) ;
#136 =( GEOMETRIC_REPRESENTATION_CONTEXT ( 3 ) GLOBAL_UNCERTAINTY_ASSIGNED_CONTEXT ( ( #224 ) ) GLOBAL_UNIT_ASSIGNED_CONTEXT ( ( #124, #87, #182 ) ) REPRESENTATION_CONTEXT ( 'NONE', 'WORKASPACE' ) );
#137 = ADVANCED_FACE ( 'NONE', ( #78 ), #263, .F. ) ;
#138 = ORIENTED_EDGE ( 'NONE', *, *, #154, .F. ) ;
#139 = CARTESIAN_POINT ( 'NONE',  ( 0.0000000000000000000, 0.0000000000000000000, 1.968503999999999809 ) ) ;
#140 = EDGE_LOOP ( 'NONE', ( #27, #261, #169, #279 ) ) ;
#141 = VERTEX_POINT ( 'NONE', #243 ) ;
#142 = CONICAL_SURFACE ( 'NONE', #129, 0.1573230194999999942, 0.1745329251994339748 ) ;
#143 = VERTEX_POINT ( 'NONE', #282 ) ;
#144 = ORIENTED_EDGE ( 'NONE', *, *, #276, .T. ) ;
#145 = ADVANCED_FACE ( 'NONE', ( #176 ), #56, .T. ) ;
#146 = CARTESIAN_POINT ( 'NONE',  ( -0.1574804999999998845, 0.0000000000000000000, 0.7095541162965941506 ) ) ;
#147 = DIRECTION ( 'NONE',  ( -1.000000000000000000, 0.0000000000000000000, 0.0000000000000000000 ) ) ;
#148 = DIRECTION ( 'NONE',  ( -0.0000000000000000000, -0.0000000000000000000, -1.000000000000000000 ) ) ;
#149 = DIRECTION ( 'NONE',  ( -1.000000000000000000, 0.0000000000000000000, 1.224646799147353454E-16 ) ) ;
#150 = DIMENSIONAL_EXPONENTS ( 1.000000000000000000, 0.0000000000000000000, 0.0000000000000000000, 0.0000000000000000000, 0.0000000000000000000, 0.0000000000000000000, 0.0000000000000000000 ) ;
#151 = CARTESIAN_POINT ( 'NONE',  ( -0.1573230194999999942, 0.0000000000000000000, 1.926651322628716627E-17 ) ) ;
#152 = CIRCLE ( 'NONE', #114, 0.1424805000000001765 ) ;
#153 = PRODUCT_DEFINITION_CONTEXT ( 'detailed design', #26, 'design' ) ;
#154 = EDGE_CURVE ( 'NONE', #210, #74, #236, .T. ) ;
#155 = DIRECTION ( 'NONE',  ( 1.000000000000000000, 0.0000000000000000000, 0.0000000000000000000 ) ) ;
#156 = CIRCLE ( 'NONE', #24, 0.1573230194999999942 ) ;
#157 = COLOUR_RGB ( '',0.7921568627450980005, 0.8196078431372548767, 0.9333333333333333481 ) ;
#158 = LENGTH_MEASURE_WITH_UNIT ( LENGTH_MEASURE( 0.02539999999999999897 ), #295 );
#159 = CARTESIAN_POINT ( 'NONE',  ( 0.0000000000000000000, 0.0000000000000000000, 1.953503999999999907 ) ) ;
#160 = CYLINDRICAL_SURFACE ( 'NONE', #12, 0.1574804999999999955 ) ;
#161 = EDGE_CURVE ( 'NONE', #171, #49, #98, .T. ) ;
#162 = APPLICATION_PROTOCOL_DEFINITION ( 'draft international standard', 'automotive_design', 1998, #44 ) ;
#163 = EDGE_LOOP ( 'NONE', ( #258, #4, #54, #51 ) ) ;
#164 = DIRECTION ( 'NONE',  ( 1.000000000000000000, 0.0000000000000000000, 0.0000000000000000000 ) ) ;
#165 = ORIENTED_EDGE ( 'NONE', *, *, #67, .T. ) ;
#166 = LENGTH_MEASURE_WITH_UNIT ( LENGTH_MEASURE( 0.02539999999999999897 ), #283 );
#167 = ORIENTED_EDGE ( 'NONE', *, *, #39, .T. ) ;
#168 = MANIFOLD_SOLID_BREP ( 'Cut-Revolve1', #81 ) ;
#169 = ORIENTED_EDGE ( 'NONE', *, *, #13, .T. ) ;
#170 = AXIS2_PLACEMENT_3D ( 'NONE', #126, #83, #59 ) ;
#171 = VERTEX_POINT ( 'NONE', #201 ) ;
#172 = CARTESIAN_POINT ( 'NONE',  ( 0.0000000000000000000, 0.0000000000000000000, 0.0000000000000000000 ) ) ;
#173 = EDGE_LOOP ( 'NONE', ( #237, #55 ) ) ;
#174 = ORIENTED_EDGE ( 'NONE', *, *, #85, .F. ) ;
#175 = LINE ( 'NONE', #151, #220 ) ;
#176 = FACE_OUTER_BOUND ( 'NONE', #119, .T. ) ;
#177 =( CONVERSION_BASED_UNIT ( 'INCH', #166 ) LENGTH_UNIT ( ) NAMED_UNIT ( #133 ) );
#178 = STYLED_ITEM ( 'NONE', ( #207 ), #168 ) ;
#179 = EDGE_CURVE ( 'NONE', #210, #75, #68, .T. ) ;
#180 = CARTESIAN_POINT ( 'NONE',  ( 0.0000000000000000000, 0.0000000000000000000, 1.968503999999999809 ) ) ;
#181 = DIRECTION ( 'NONE',  ( 1.000000000000000000, 0.0000000000000000000, 0.0000000000000000000 ) ) ;
#182 =( NAMED_UNIT ( * ) SI_UNIT ( $, .STERADIAN. ) SOLID_ANGLE_UNIT ( ) );
#183 = CIRCLE ( 'NONE', #286, 0.1574804999999999955 ) ;
#184 = CIRCLE ( 'NONE', #48, 0.1573230194999999942 ) ;
#185 =( NAMED_UNIT ( * ) PLANE_ANGLE_UNIT ( ) SI_UNIT ( $, .RADIAN. ) );
#186 = CARTESIAN_POINT ( 'NONE',  ( 0.1574804999999999955, 1.928579902531247412E-17, 1.953503999999999907 ) ) ;
#187 = ORIENTED_EDGE ( 'NONE', *, *, #67, .F. ) ;
#188 = DIRECTION ( 'NONE',  ( -1.000000000000000000, 0.0000000000000000000, 0.0000000000000000000 ) ) ;
#189 = ADVANCED_FACE ( 'NONE', ( #273 ), #65, .T. ) ;
#190 =( LENGTH_UNIT ( ) NAMED_UNIT ( * ) SI_UNIT ( $, .METRE. ) );
#191 = EDGE_LOOP ( 'NONE', ( #167, #299 ) ) ;
#192 = ORIENTED_EDGE ( 'NONE', *, *, #212, .F. ) ;
#193 = MECHANICAL_DESIGN_GEOMETRIC_PRESENTATION_REPRESENTATION (  '', ( #61 ), #290 ) ;
#194 = CARTESIAN_POINT ( 'NONE',  ( 2.359467375330272285E-33, 0.0000000000000000000, 1.926651322628716627E-17 ) ) ;
#195 = ORIENTED_EDGE ( 'NONE', *, *, #7, .F. ) ;
#196 = DIRECTION ( 'NONE',  ( 1.000000000000000000, 0.0000000000000000000, 0.0000000000000000000 ) ) ;
#197 = DIRECTION ( 'NONE',  ( -1.000000000000000000, 0.0000000000000000000, 1.224646799147353454E-16 ) ) ;
#198 = VECTOR ( 'NONE', #242, 39.37007874015748143 ) ;
#199 = DIRECTION ( 'NONE',  ( 1.000000000000000000, 0.0000000000000000000, 0.0000000000000000000 ) ) ;
#200 = SHAPE_DEFINITION_REPRESENTATION ( #38, #281 ) ;
#201 = CARTESIAN_POINT ( 'NONE',  ( -0.1573230194999999110, 1.927615612579982019E-17, 0.7086609999999999854 ) ) ;
#202 = APPLICATION_PROTOCOL_DEFINITION ( 'draft international standard', 'automotive_design', 1998, #26 ) ;
#203 = SURFACE_SIDE_STYLE ('',( #15 ) ) ;
#204 = DIRECTION ( 'NONE',  ( 0.0000000000000000000, 0.0000000000000000000, -1.000000000000000000 ) ) ;
#205 = DIRECTION ( 'NONE',  ( -1.000000000000000000, 0.0000000000000000000, 0.0000000000000000000 ) ) ;
#206 = COLOUR_RGB ( '',0.7921568627450980005, 0.8196078431372548767, 0.9333333333333333481 ) ;
#207 = PRESENTATION_STYLE_ASSIGNMENT (( #247 ) ) ;
#208 = ORIENTED_EDGE ( 'NONE', *, *, #39, .F. ) ;
#209 = ORIENTED_EDGE ( 'NONE', *, *, #117, .T. ) ;
#210 = VERTEX_POINT ( 'NONE', #21 ) ;
#211 = EDGE_LOOP ( 'NONE', ( #73, #70, #118, #5 ) ) ;
#212 = EDGE_CURVE ( 'NONE', #277, #75, #57, .T. ) ;
#213 = EDGE_LOOP ( 'NONE', ( #232, #96, #29, #115 ) ) ;
#214 = CONICAL_SURFACE ( 'NONE', #31, 0.1573230194999999942, 0.1745329251994339748 ) ;
#215 = DIRECTION ( 'NONE',  ( -1.000000000000000000, 0.0000000000000000000, 1.224646799147353454E-16 ) ) ;
#216 = DIRECTION ( 'NONE',  ( -1.224646799147353207E-16, -0.0000000000000000000, -1.000000000000000000 ) ) ;
#217 = EDGE_CURVE ( 'NONE', #75, #277, #222, .T. ) ;
#218 = DIRECTION ( 'NONE',  ( -1.000000000000000000, 0.0000000000000000000, 1.224646799147353454E-16 ) ) ;
#219 = UNCERTAINTY_MEASURE_WITH_UNIT (LENGTH_MEASURE( 1.000000000000000082E-05 ), #177, 'distance_accuracy_value', 'NONE');
#220 = VECTOR ( 'NONE', #77, 39.37007874015748143 ) ;
#221 = DIRECTION ( 'NONE',  ( -1.224646799147353207E-16, -0.0000000000000000000, -1.000000000000000000 ) ) ;
#222 = CIRCLE ( 'NONE', #72, 0.1574804999999999955 ) ;
#223 = FACE_OUTER_BOUND ( 'NONE', #163, .T. ) ;
#224 = UNCERTAINTY_MEASURE_WITH_UNIT (LENGTH_MEASURE( 1.000000000000000082E-05 ), #124, 'distance_accuracy_value', 'NONE');
#225 =( GEOMETRIC_REPRESENTATION_CONTEXT ( 3 ) GLOBAL_UNCERTAINTY_ASSIGNED_CONTEXT ( ( #219 ) ) GLOBAL_UNIT_ASSIGNED_CONTEXT ( ( #177, #64, #229 ) ) REPRESENTATION_CONTEXT ( 'NONE', 'WORKASPACE' ) );
#226 = CARTESIAN_POINT ( 'NONE',  ( 0.1573230195000001053, 0.0000000000000000000, 0.7086609999999999854 ) ) ;
#227 = CARTESIAN_POINT ( 'NONE',  ( -0.1424805000000001765, 0.0000000000000000000, 1.968503999999999809 ) ) ;
#228 = ADVANCED_FACE ( 'NONE', ( #233 ), #135, .T. ) ;
#229 =( NAMED_UNIT ( * ) SI_UNIT ( $, .STERADIAN. ) SOLID_ANGLE_UNIT ( ) );
#230 = DIRECTION ( 'NONE',  ( -1.000000000000000000, 0.0000000000000000000, 0.0000000000000000000 ) ) ;
#231 = ADVANCED_FACE ( 'NONE', ( #298 ), #142, .T. ) ;
#232 = ORIENTED_EDGE ( 'NONE', *, *, #270, .F. ) ;
#233 = FACE_OUTER_BOUND ( 'NONE', #173, .T. ) ;
#234 = ORIENTED_EDGE ( 'NONE', *, *, #76, .T. ) ;
#235 = CIRCLE ( 'NONE', #105, 0.1573230194999999942 ) ;
#236 = CIRCLE ( 'NONE', #82, 0.1424805000000001765 ) ;
#237 = ORIENTED_EDGE ( 'NONE', *, *, #154, .T. ) ;
#238 = EDGE_CURVE ( 'NONE', #141, #20, #112, .T. ) ;
#239 = CARTESIAN_POINT ( 'NONE',  ( 0.1573230194999999942, 1.926651322628716627E-17, -1.926651322628716627E-17 ) ) ;
#240 = AXIS2_PLACEMENT_3D ( 'NONE', #289, #46, #181 ) ;
#241 = CARTESIAN_POINT ( 'NONE',  ( 0.0000000000000000000, 0.0000000000000000000, 1.968503999999999809 ) ) ;
#242 = DIRECTION ( 'NONE',  ( 0.7071067811865434649, 8.659560562354883554E-17, -0.7071067811865515695 ) ) ;
#243 = CARTESIAN_POINT ( 'NONE',  ( 0.1573230195000001053, 0.0000000000000000000, 0.7086609999999999854 ) ) ;
#244 = AXIS2_PLACEMENT_3D ( 'NONE', #130, #221, #245 ) ;
#245 = DIRECTION ( 'NONE',  ( 1.000000000000000000, 0.0000000000000000000, 0.0000000000000000000 ) ) ;
#246 = AXIS2_PLACEMENT_3D ( 'NONE', #256, #18, #134 ) ;
#247 = SURFACE_STYLE_USAGE ( .BOTH. , #125 ) ;
#248 = SURFACE_STYLE_USAGE ( .BOTH. , #203 ) ;
#249 = AXIS2_PLACEMENT_3D ( 'NONE', #100, #84, #149 ) ;
#250 = FACE_OUTER_BOUND ( 'NONE', #52, .T. ) ;
#251 = PRODUCT_CONTEXT ( 'NONE', #44, 'mechanical' ) ;
#252 = DIRECTION ( 'NONE',  ( 1.000000000000000000, 0.0000000000000000000, -0.0000000000000000000 ) ) ;
#253 = PRODUCT ( 'Micro_SFPM-080-10', 'Micro_SFPM-080-10', '', ( #251 ) ) ;
#254 = EDGE_CURVE ( 'NONE', #171, #141, #43, .T. ) ;
#255 = ORIENTED_EDGE ( 'NONE', *, *, #254, .T. ) ;
#256 = CARTESIAN_POINT ( 'NONE',  ( 0.0000000000000000000, 0.0000000000000000000, 1.953503999999999907 ) ) ;
#257 = VECTOR ( 'NONE', #297, 39.37007874015748143 ) ;
#258 = ORIENTED_EDGE ( 'NONE', *, *, #161, .F. ) ;
#259 = ORIENTED_EDGE ( 'NONE', *, *, #179, .T. ) ;
#260 = VECTOR ( 'NONE', #103, 39.37007874015748143 ) ;
#261 = ORIENTED_EDGE ( 'NONE', *, *, #161, .T. ) ;
#262 = CYLINDRICAL_SURFACE ( 'NONE', #264, 0.1573230194999999942 ) ;
#263 = PLANE ( 'NONE',  #170 ) ;
#264 = AXIS2_PLACEMENT_3D ( 'NONE', #172, #216, #197 ) ;
#265 = CARTESIAN_POINT ( 'NONE',  ( 0.1573230194999999942, 1.926651322628716627E-17, 0.0000000000000000000 ) ) ;
#266 = CARTESIAN_POINT ( 'NONE',  ( -0.1574804999999999955, 0.0000000000000000000, 1.968503999999999809 ) ) ;
#267 = CARTESIAN_POINT ( 'NONE',  ( -0.1573230194999999110, 1.926651322628716627E-17, 0.7086609999999999854 ) ) ;
#268 = DIRECTION ( 'NONE',  ( -0.0000000000000000000, -0.0000000000000000000, -1.000000000000000000 ) ) ;
#269 = ADVANCED_FACE ( 'NONE', ( #250 ), #272, .T. ) ;
#270 = EDGE_CURVE ( 'NONE', #74, #210, #152, .T. ) ;
#271 = DIRECTION ( 'NONE',  ( 0.0000000000000000000, 0.0000000000000000000, 1.000000000000000000 ) ) ;
#272 = CONICAL_SURFACE ( 'NONE', #122, 0.1424805000000001765, 0.7853981633974426169 ) ;
#273 = FACE_OUTER_BOUND ( 'NONE', #213, .T. ) ;
#274 = FACE_OUTER_BOUND ( 'NONE', #211, .T. ) ;
#275 = DIRECTION ( 'NONE',  ( 0.0000000000000000000, 0.0000000000000000000, 1.000000000000000000 ) ) ;
#276 = EDGE_CURVE ( 'NONE', #141, #171, #184, .T. ) ;
#277 = VERTEX_POINT ( 'NONE', #186 ) ;
#278 = PRODUCT_DEFINITION_FORMATION_WITH_SPECIFIED_SOURCE ( 'ANY', '', #253, .NOT_KNOWN. ) ;
#279 = ORIENTED_EDGE ( 'NONE', *, *, #238, .F. ) ;
#280 = VECTOR ( 'NONE', #92, 39.37007874015748143 ) ;
#281 = ADVANCED_BREP_SHAPE_REPRESENTATION ( 'Micro_SFPM-080-10', ( #168, #240 ), #225 ) ;
#282 = CARTESIAN_POINT ( 'NONE',  ( -0.1573230194999999942, 0.0000000000000000000, 3.853302645257433254E-17 ) ) ;
#283 =( LENGTH_UNIT ( ) NAMED_UNIT ( * ) SI_UNIT ( $, .METRE. ) );
#284 = CARTESIAN_POINT ( 'NONE',  ( 2.359467375330272285E-33, 0.0000000000000000000, 1.926651322628716627E-17 ) ) ;
#285 = DIRECTION ( 'NONE',  ( -1.224646799147353207E-16, -0.0000000000000000000, -1.000000000000000000 ) ) ;
#286 = AXIS2_PLACEMENT_3D ( 'NONE', #9, #60, #196 ) ;
#287 = LINE ( 'NONE', #266, #260 ) ;
#288 = FACE_OUTER_BOUND ( 'NONE', #6, .T. ) ;
#289 = CARTESIAN_POINT ( 'NONE',  ( 0.0000000000000000000, 0.0000000000000000000, 0.0000000000000000000 ) ) ;
#290 =( GEOMETRIC_REPRESENTATION_CONTEXT ( 3 ) GLOBAL_UNCERTAINTY_ASSIGNED_CONTEXT ( ( #99 ) ) GLOBAL_UNIT_ASSIGNED_CONTEXT ( ( #62, #185, #107 ) ) REPRESENTATION_CONTEXT ( 'NONE', 'WORKASPACE' ) );
#291 = CARTESIAN_POINT ( 'NONE',  ( 8.678594253305624695E-17, 0.0000000000000000000, 0.7086609999999999854 ) ) ;
#292 = ADVANCED_FACE ( 'NONE', ( #274 ), #160, .T. ) ;
#293 = CARTESIAN_POINT ( 'NONE',  ( 8.678594253305624695E-17, 0.0000000000000000000, 0.7086609999999999854 ) ) ;
#294 = AXIS2_PLACEMENT_3D ( 'NONE', #291, #109, #188 ) ;
#295 =( LENGTH_UNIT ( ) NAMED_UNIT ( * ) SI_UNIT ( $, .METRE. ) );
#296 = DIRECTION ( 'NONE',  ( -1.224646799147353207E-16, -0.0000000000000000000, -1.000000000000000000 ) ) ;
#297 = DIRECTION ( 'NONE',  ( -0.1736481776669312471, 2.126576849575783933E-17, 0.9848077530122077983 ) ) ;
#298 = FACE_OUTER_BOUND ( 'NONE', #140, .T. ) ;
#299 = ORIENTED_EDGE ( 'NONE', *, *, #35, .T. ) ;
ENDSEC;
END-ISO-10303-21;
