ISO-10303-21;
HEADER;
FILE_DESCRIPTION (( 'STEP AP214' ),
    '1' );
FILE_NAME ('48535.STEP',
    '2023-06-22T21:46:25',
    ( '' ),
    ( '' ),
    'SwSTEP 2.0',
    'SolidWorks 2023',
    '' );
FILE_SCHEMA (( 'AUTOMOTIVE_DESIGN' ));
ENDSEC;

DATA;
#1 = AXIS2_PLACEMENT_3D ( 'NONE', #173, #277, #57 ) ;
#2 = ORIENTED_EDGE ( 'NONE', *, *, #216, .F. ) ;
#3 = PLANE ( 'NONE',  #272 ) ;
#4 = LENGTH_MEASURE_WITH_UNIT ( LENGTH_MEASURE( 0.02539999999999999897 ), #87 );
#5 = ORIENTED_EDGE ( 'NONE', *, *, #235, .T. ) ;
#6 = SURFACE_SIDE_STYLE ('',( #28 ) ) ;
#7 =( CONVERSION_BASED_UNIT ( 'INCH', #141 ) LENGTH_UNIT ( ) NAMED_UNIT ( #85 ) );
#8 = MECHANICAL_DESIGN_GEOMETRIC_PRESENTATION_REPRESENTATION (  '', ( #82 ), #203 ) ;
#9 = MECHANICAL_DESIGN_GEOMETRIC_PRESENTATION_REPRESENTATION (  '', ( #79 ), #220 ) ;
#10 = ORIENTED_EDGE ( 'NONE', *, *, #155, .T. ) ;
#11 = APPLICATION_CONTEXT ( 'automotive_design' ) ;
#12 = PRESENTATION_STYLE_ASSIGNMENT (( #119 ) ) ;
#13 = EDGE_CURVE ( 'NONE', #117, #27, #50, .T. ) ;
#14 = DIRECTION ( 'NONE',  ( -1.000000000000000000, 0.000000000000000000, 0.000000000000000000 ) ) ;
#15 = FILL_AREA_STYLE ('',( #112 ) ) ;
#16 = ADVANCED_FACE ( 'NONE', ( #139 ), #192, .T. ) ;
#17 = ORIENTED_EDGE ( 'NONE', *, *, #127, .F. ) ;
#18 = CIRCLE ( 'NONE', #300, 0.3125000000000000000 ) ;
#19 = EDGE_LOOP ( 'NONE', ( #75, #126 ) ) ;
#20 = EDGE_LOOP ( 'NONE', ( #101, #108 ) ) ;
#21 = DIMENSIONAL_EXPONENTS ( 1.000000000000000000, 0.000000000000000000, 0.000000000000000000, 0.000000000000000000, 0.000000000000000000, 0.000000000000000000, 0.000000000000000000 ) ;
#22 =( LENGTH_UNIT ( ) NAMED_UNIT ( * ) SI_UNIT ( $, .METRE. ) );
#23 = AXIS2_PLACEMENT_3D ( 'NONE', #305, #176, #37 ) ;
#24 = FILL_AREA_STYLE ('',( #265 ) ) ;
#25 = DIRECTION ( 'NONE',  ( -0.000000000000000000, -1.000000000000000000, -0.000000000000000000 ) ) ;
#26 = ADVANCED_FACE ( 'NONE', ( #270 ), #131, .F. ) ;
#27 = VERTEX_POINT ( 'NONE', #172 ) ;
#28 = SURFACE_STYLE_FILL_AREA ( #243 ) ;
#29 = AXIS2_PLACEMENT_3D ( 'NONE', #148, #255, #14 ) ;
#30 = CIRCLE ( 'NONE', #98, 0.3125000000000000555 ) ;
#31 =( LENGTH_UNIT ( ) NAMED_UNIT ( * ) SI_UNIT ( $, .METRE. ) );
#32 = COLOUR_RGB ( '',1.000000000000000000, 0.000000000000000000, 0.000000000000000000 ) ;
#33 = CYLINDRICAL_SURFACE ( 'NONE', #29, 0.3125000000000000000 ) ;
#34 = UNCERTAINTY_MEASURE_WITH_UNIT (LENGTH_MEASURE( 1.000000000000000082E-05 ), #56, 'distance_accuracy_value', 'NONE');
#35 = ADVANCED_FACE ( 'NONE', ( #118 ), #33, .T. ) ;
#36 = FILL_AREA_STYLE ('',( #125 ) ) ;
#37 = DIRECTION ( 'NONE',  ( 0.000000000000000000, 0.000000000000000000, -1.000000000000000000 ) ) ;
#38 = SHAPE_DEFINITION_REPRESENTATION ( #78, #73 ) ;
#39 = PLANE ( 'NONE',  #150 ) ;
#40 = CIRCLE ( 'NONE', #62, 0.3125000000000000000 ) ;
#41 = DIMENSIONAL_EXPONENTS ( 1.000000000000000000, 0.000000000000000000, 0.000000000000000000, 0.000000000000000000, 0.000000000000000000, 0.000000000000000000, 0.000000000000000000 ) ;
#42 =( LENGTH_UNIT ( ) NAMED_UNIT ( * ) SI_UNIT ( $, .METRE. ) );
#43 = ORIENTED_EDGE ( 'NONE', *, *, #200, .F. ) ;
#44 =( GEOMETRIC_REPRESENTATION_CONTEXT ( 3 ) GLOBAL_UNCERTAINTY_ASSIGNED_CONTEXT ( ( #236 ) ) GLOBAL_UNIT_ASSIGNED_CONTEXT ( ( #58, #170, #187 ) ) REPRESENTATION_CONTEXT ( 'NONE', 'WORKASPACE' ) );
#45 = SURFACE_STYLE_FILL_AREA ( #15 ) ;
#46 = CARTESIAN_POINT ( 'NONE',  ( 0.000000000000000000, 0.000000000000000000, 0.000000000000000000 ) ) ;
#47 = COLOUR_RGB ( '',1.000000000000000000, 0.000000000000000000, 0.000000000000000000 ) ;
#48 = AXIS2_PLACEMENT_3D ( 'NONE', #109, #214, #84 ) ;
#49 = LENGTH_MEASURE_WITH_UNIT ( LENGTH_MEASURE( 0.02539999999999999897 ), #90 );
#50 = LINE ( 'NONE', #167, #128 ) ;
#51 = MANIFOLD_SOLID_BREP ( 'Revolve - Cutting Edge', #306 ) ;
#52 = UNCERTAINTY_MEASURE_WITH_UNIT (LENGTH_MEASURE( 1.000000000000000082E-05 ), #145, 'distance_accuracy_value', 'NONE');
#53 = DIRECTION ( 'NONE',  ( -1.000000000000000000, 0.000000000000000000, 0.000000000000000000 ) ) ;
#54 =( GEOMETRIC_REPRESENTATION_CONTEXT ( 3 ) GLOBAL_UNCERTAINTY_ASSIGNED_CONTEXT ( ( #34 ) ) GLOBAL_UNIT_ASSIGNED_CONTEXT ( ( #56, #206, #211 ) ) REPRESENTATION_CONTEXT ( 'NONE', 'WORKASPACE' ) );
#55 = APPLICATION_CONTEXT ( 'automotive_design' ) ;
#56 =( CONVERSION_BASED_UNIT ( 'INCH', #202 ) LENGTH_UNIT ( ) NAMED_UNIT ( #132 ) );
#57 = DIRECTION ( 'NONE',  ( -1.000000000000000000, 0.000000000000000000, 0.000000000000000000 ) ) ;
#58 =( CONVERSION_BASED_UNIT ( 'INCH', #4 ) LENGTH_UNIT ( ) NAMED_UNIT ( #41 ) );
#59 = DIRECTION ( 'NONE',  ( 1.000000000000000000, 2.578203787678638882E-17, 0.000000000000000000 ) ) ;
#60 = DIRECTION ( 'NONE',  ( -2.578203787678638882E-17, 1.000000000000000000, -0.000000000000000000 ) ) ;
#61 = CLOSED_SHELL ( 'NONE', ( #35, #177, #226, #26 ) ) ;
#62 = AXIS2_PLACEMENT_3D ( 'NONE', #160, #25, #224 ) ;
#63 =( LENGTH_UNIT ( ) NAMED_UNIT ( * ) SI_UNIT ( $, .METRE. ) );
#64 = ORIENTED_EDGE ( 'NONE', *, *, #13, .T. ) ;
#65 = DIRECTION ( 'NONE',  ( -0.000000000000000000, -1.000000000000000000, -0.000000000000000000 ) ) ;
#66 = DIRECTION ( 'NONE',  ( -2.578203787678638882E-17, 1.000000000000000000, 0.000000000000000000 ) ) ;
#67 = UNCERTAINTY_MEASURE_WITH_UNIT (LENGTH_MEASURE( 1.000000000000000082E-05 ), #138, 'distance_accuracy_value', 'NONE');
#68 = FACE_OUTER_BOUND ( 'NONE', #301, .T. ) ;
#69 = SURFACE_SIDE_STYLE ('',( #111 ) ) ;
#70 = DIRECTION ( 'NONE',  ( -0.000000000000000000, -1.000000000000000000, -0.000000000000000000 ) ) ;
#71 =( GEOMETRIC_REPRESENTATION_CONTEXT ( 3 ) GLOBAL_UNCERTAINTY_ASSIGNED_CONTEXT ( ( #52 ) ) GLOBAL_UNIT_ASSIGNED_CONTEXT ( ( #145, #254, #181 ) ) REPRESENTATION_CONTEXT ( 'NONE', 'WORKASPACE' ) );
#72 = ORIENTED_EDGE ( 'NONE', *, *, #200, .T. ) ;
#73 = ADVANCED_BREP_SHAPE_REPRESENTATION ( '48535', ( #51, #153, #113 ), #44 ) ;
#74 = MECHANICAL_DESIGN_GEOMETRIC_PRESENTATION_REPRESENTATION (  '', ( #232 ), #71 ) ;
#75 = ORIENTED_EDGE ( 'NONE', *, *, #169, .T. ) ;
#76 = EDGE_CURVE ( 'NONE', #27, #106, #184, .T. ) ;
#77 = EDGE_CURVE ( 'NONE', #195, #117, #91, .T. ) ;
#78 = PRODUCT_DEFINITION_SHAPE ( 'NONE', 'NONE',  #133 ) ;
#79 = STYLED_ITEM ( 'NONE', ( #287 ), #153 ) ;
#80 = DIRECTION ( 'NONE',  ( -2.578203787678638882E-17, 1.000000000000000000, -0.000000000000000000 ) ) ;
#81 = ORIENTED_EDGE ( 'NONE', *, *, #77, .F. ) ;
#82 = STYLED_ITEM ( 'NONE', ( #225 ), #51 ) ;
#83 = DIRECTION ( 'NONE',  ( 0.000000000000000000, 1.000000000000000000, 0.000000000000000000 ) ) ;
#84 = DIRECTION ( 'NONE',  ( 0.000000000000000000, 0.000000000000000000, -1.000000000000000000 ) ) ;
#85 = DIMENSIONAL_EXPONENTS ( 1.000000000000000000, 0.000000000000000000, 0.000000000000000000, 0.000000000000000000, 0.000000000000000000, 0.000000000000000000, 0.000000000000000000 ) ;
#86 = VERTEX_POINT ( 'NONE', #114 ) ;
#87 =( LENGTH_UNIT ( ) NAMED_UNIT ( * ) SI_UNIT ( $, .METRE. ) );
#88 = CARTESIAN_POINT ( 'NONE',  ( 0.000000000000000000, 1.625000000000000000, 0.000000000000000000 ) ) ;
#89 =( GEOMETRIC_REPRESENTATION_CONTEXT ( 3 ) GLOBAL_UNCERTAINTY_ASSIGNED_CONTEXT ( ( #242 ) ) GLOBAL_UNIT_ASSIGNED_CONTEXT ( ( #7, #221, #218 ) ) REPRESENTATION_CONTEXT ( 'NONE', 'WORKASPACE' ) );
#90 =( LENGTH_UNIT ( ) NAMED_UNIT ( * ) SI_UNIT ( $, .METRE. ) );
#91 = CIRCLE ( 'NONE', #1, 0.3125000000000000000 ) ;
#92 = ORIENTED_EDGE ( 'NONE', *, *, #262, .T. ) ;
#93 = EDGE_CURVE ( 'NONE', #195, #106, #135, .T. ) ;
#94 = FACE_OUTER_BOUND ( 'NONE', #288, .T. ) ;
#95 = AXIS2_PLACEMENT_3D ( 'NONE', #144, #60, #151 ) ;
#96 = SURFACE_SIDE_STYLE ('',( #122 ) ) ;
#97 = ORIENTED_EDGE ( 'NONE', *, *, #13, .F. ) ;
#98 = AXIS2_PLACEMENT_3D ( 'NONE', #186, #283, #281 ) ;
#99 = CARTESIAN_POINT ( 'NONE',  ( 0.000000000000000000, 0.000000000000000000, -0.3125000000000000000 ) ) ;
#100 = CARTESIAN_POINT ( 'NONE',  ( 0.000000000000000000, 0.000000000000000000, 0.000000000000000000 ) ) ;
#101 = ORIENTED_EDGE ( 'NONE', *, *, #292, .F. ) ;
#102 = DIMENSIONAL_EXPONENTS ( 1.000000000000000000, 0.000000000000000000, 0.000000000000000000, 0.000000000000000000, 0.000000000000000000, 0.000000000000000000, 0.000000000000000000 ) ;
#103 = PRODUCT_RELATED_PRODUCT_CATEGORY ( 'part', '', ( #234 ) ) ;
#104 = DIRECTION ( 'NONE',  ( -0.000000000000000000, -1.000000000000000000, -0.000000000000000000 ) ) ;
#105 =( NAMED_UNIT ( * ) PLANE_ANGLE_UNIT ( ) SI_UNIT ( $, .RADIAN. ) );
#106 = VERTEX_POINT ( 'NONE', #174 ) ;
#107 = COLOUR_RGB ( '',0.7921568627450980005, 0.8196078431372548767, 0.9333333333333333481 ) ;
#108 = ORIENTED_EDGE ( 'NONE', *, *, #155, .F. ) ;
#109 = CARTESIAN_POINT ( 'NONE',  ( 0.000000000000000000, 0.000000000000000000, 0.000000000000000000 ) ) ;
#110 = DIMENSIONAL_EXPONENTS ( 1.000000000000000000, 0.000000000000000000, 0.000000000000000000, 0.000000000000000000, 0.000000000000000000, 0.000000000000000000, 0.000000000000000000 ) ;
#111 = SURFACE_STYLE_FILL_AREA ( #24 ) ;
#112 = FILL_AREA_STYLE_COLOUR ( '', #107 ) ;
#113 = AXIS2_PLACEMENT_3D ( 'NONE', #100, #209, #263 ) ;
#114 = CARTESIAN_POINT ( 'NONE',  ( 3.827021247335478926E-17, 1.625000000000000000, 0.3125000000000000000 ) ) ;
#115 = PRESENTATION_STYLE_ASSIGNMENT (( #247 ) ) ;
#116 = VERTEX_POINT ( 'NONE', #120 ) ;
#117 = VERTEX_POINT ( 'NONE', #268 ) ;
#118 = FACE_OUTER_BOUND ( 'NONE', #297, .T. ) ;
#119 = SURFACE_STYLE_USAGE ( .BOTH. , #96 ) ;
#120 = CARTESIAN_POINT ( 'NONE',  ( 3.827021247335478926E-17, 0.000000000000000000, 0.3125000000000000000 ) ) ;
#121 = SURFACE_SIDE_STYLE ('',( #302 ) ) ;
#122 = SURFACE_STYLE_FILL_AREA ( #252 ) ;
#123 = AXIS2_PLACEMENT_3D ( 'NONE', #163, #188, #294 ) ;
#124 = EDGE_LOOP ( 'NONE', ( #17, #10, #72, #256 ) ) ;
#125 = FILL_AREA_STYLE_COLOUR ( '', #47 ) ;
#126 = ORIENTED_EDGE ( 'NONE', *, *, #76, .T. ) ;
#127 = EDGE_CURVE ( 'NONE', #86, #116, #285, .T. ) ;
#128 = VECTOR ( 'NONE', #193, 39.37007874015748143 ) ;
#129 = UNCERTAINTY_MEASURE_WITH_UNIT (LENGTH_MEASURE( 1.000000000000000082E-05 ), #222, 'distance_accuracy_value', 'NONE');
#130 = PRESENTATION_LAYER_ASSIGNMENT (  '', '', ( #142 ) ) ;
#131 = PLANE ( 'NONE',  #212 ) ;
#132 = DIMENSIONAL_EXPONENTS ( 1.000000000000000000, 0.000000000000000000, 0.000000000000000000, 0.000000000000000000, 0.000000000000000000, 0.000000000000000000, 0.000000000000000000 ) ;
#133 = PRODUCT_DEFINITION ( 'UNKNOWN', '', #194, #178 ) ;
#134 = ADVANCED_FACE ( 'NONE', ( #233 ), #180, .T. ) ;
#135 = LINE ( 'NONE', #244, #271 ) ;
#136 = VECTOR ( 'NONE', #147, 39.37007874015748143 ) ;
#137 = PRODUCT_CONTEXT ( 'NONE', #11, 'mechanical' ) ;
#138 =( CONVERSION_BASED_UNIT ( 'INCH', #219 ) LENGTH_UNIT ( ) NAMED_UNIT ( #102 ) );
#139 = FACE_OUTER_BOUND ( 'NONE', #189, .T. ) ;
#140 =( NAMED_UNIT ( * ) PLANE_ANGLE_UNIT ( ) SI_UNIT ( $, .RADIAN. ) );
#141 = LENGTH_MEASURE_WITH_UNIT ( LENGTH_MEASURE( 0.02539999999999999897 ), #31 );
#142 = STYLED_ITEM ( 'NONE', ( #248 ), #16 ) ;
#143 = PRESENTATION_LAYER_ASSIGNMENT (  '', '', ( #79 ) ) ;
#144 = CARTESIAN_POINT ( 'NONE',  ( -6.123233995736766036E-17, 4.000000000000000000, 0.000000000000000000 ) ) ;
#145 =( CONVERSION_BASED_UNIT ( 'INCH', #291 ) LENGTH_UNIT ( ) NAMED_UNIT ( #21 ) );
#146 = CARTESIAN_POINT ( 'NONE',  ( -6.123233995736766036E-17, 4.000000000000000000, 0.000000000000000000 ) ) ;
#147 = DIRECTION ( 'NONE',  ( -0.000000000000000000, -1.000000000000000000, -0.000000000000000000 ) ) ;
#148 = CARTESIAN_POINT ( 'NONE',  ( -6.123233995736766036E-17, 4.000000000000000000, 0.000000000000000000 ) ) ;
#149 = PRESENTATION_LAYER_ASSIGNMENT (  '', '', ( #82 ) ) ;
#150 = AXIS2_PLACEMENT_3D ( 'NONE', #179, #66, #267 ) ;
#151 = DIRECTION ( 'NONE',  ( -1.000000000000000000, 0.000000000000000000, 0.000000000000000000 ) ) ;
#152 = DIRECTION ( 'NONE',  ( 0.000000000000000000, 0.000000000000000000, -1.000000000000000000 ) ) ;
#153 = MANIFOLD_SOLID_BREP ( 'Revolve - Tool Body (Straight Shanked)', #61 ) ;
#154 = CARTESIAN_POINT ( 'NONE',  ( -0.3125000000000000000, 1.625000000000000000, 0.000000000000000000 ) ) ;
#155 = EDGE_CURVE ( 'NONE', #86, #230, #18, .T. ) ;
#156 = AXIS2_PLACEMENT_3D ( 'NONE', #46, #104, #158 ) ;
#157 = ORIENTED_EDGE ( 'NONE', *, *, #262, .F. ) ;
#158 = DIRECTION ( 'NONE',  ( 0.000000000000000000, 0.000000000000000000, -1.000000000000000000 ) ) ;
#159 = AXIS2_PLACEMENT_3D ( 'NONE', #308, #80, #53 ) ;
#160 = CARTESIAN_POINT ( 'NONE',  ( 0.000000000000000000, 1.625000000000000000, 0.000000000000000000 ) ) ;
#161 = FILL_AREA_STYLE_COLOUR ( '', #32 ) ;
#162 = ADVANCED_FACE ( 'NONE', ( #273 ), #3, .T. ) ;
#163 = CARTESIAN_POINT ( 'NONE',  ( 0.000000000000000000, 0.000000000000000000, 0.000000000000000000 ) ) ;
#164 = ORIENTED_EDGE ( 'NONE', *, *, #93, .F. ) ;
#165 = PRESENTATION_LAYER_ASSIGNMENT (  '', '', ( #232 ) ) ;
#166 = AXIS2_PLACEMENT_3D ( 'NONE', #278, #65, #152 ) ;
#167 = CARTESIAN_POINT ( 'NONE',  ( 0.3124999999999999445, 4.000000000000000000, 3.827021247335478926E-17 ) ) ;
#168 = SURFACE_STYLE_USAGE ( .BOTH. , #298 ) ;
#169 = EDGE_CURVE ( 'NONE', #106, #27, #30, .T. ) ;
#170 =( NAMED_UNIT ( * ) PLANE_ANGLE_UNIT ( ) SI_UNIT ( $, .RADIAN. ) );
#171 =( GEOMETRIC_REPRESENTATION_CONTEXT ( 3 ) GLOBAL_UNCERTAINTY_ASSIGNED_CONTEXT ( ( #129 ) ) GLOBAL_UNIT_ASSIGNED_CONTEXT ( ( #222, #105, #199 ) ) REPRESENTATION_CONTEXT ( 'NONE', 'WORKASPACE' ) );
#172 = CARTESIAN_POINT ( 'NONE',  ( 0.3125000000000000000, 4.000000000000000000, 3.827021247335478926E-17 ) ) ;
#173 = CARTESIAN_POINT ( 'NONE',  ( 1.516480271171051896E-32, 1.625000000000000000, 0.000000000000000000 ) ) ;
#174 = CARTESIAN_POINT ( 'NONE',  ( -0.3125000000000001665, 4.000000000000000000, 0.000000000000000000 ) ) ;
#175 = PRESENTATION_LAYER_ASSIGNMENT (  '', '', ( #207 ) ) ;
#176 = DIRECTION ( 'NONE',  ( -0.000000000000000000, -1.000000000000000000, -0.000000000000000000 ) ) ;
#177 = ADVANCED_FACE ( 'NONE', ( #68 ), #39, .F. ) ;
#178 = PRODUCT_DEFINITION_CONTEXT ( 'detailed design', #55, 'design' ) ;
#179 = CARTESIAN_POINT ( 'NONE',  ( 1.038614807937575041E-34, 1.625000000000000000, 0.000000000000000000 ) ) ;
#180 = CYLINDRICAL_SURFACE ( 'NONE', #156, 0.3125000000000000000 ) ;
#181 =( NAMED_UNIT ( * ) SI_UNIT ( $, .STERADIAN. ) SOLID_ANGLE_UNIT ( ) );
#182 = DIRECTION ( 'NONE',  ( 0.000000000000000000, -0.000000000000000000, 1.000000000000000000 ) ) ;
#183 = ORIENTED_EDGE ( 'NONE', *, *, #93, .T. ) ;
#184 = CIRCLE ( 'NONE', #282, 0.3125000000000000555 ) ;
#185 = MECHANICAL_DESIGN_GEOMETRIC_PRESENTATION_REPRESENTATION (  '', ( #207 ), #171 ) ;
#186 = CARTESIAN_POINT ( 'NONE',  ( -6.123233995736766036E-17, 4.000000000000000000, 0.000000000000000000 ) ) ;
#187 =( NAMED_UNIT ( * ) SI_UNIT ( $, .STERADIAN. ) SOLID_ANGLE_UNIT ( ) );
#188 = DIRECTION ( 'NONE',  ( -0.000000000000000000, -1.000000000000000000, -0.000000000000000000 ) ) ;
#189 = EDGE_LOOP ( 'NONE', ( #269, #217, #157, #43 ) ) ;
#190 = SURFACE_STYLE_USAGE ( .BOTH. , #69 ) ;
#191 = MECHANICAL_DESIGN_GEOMETRIC_PRESENTATION_REPRESENTATION (  '', ( #142 ), #89 ) ;
#192 = CYLINDRICAL_SURFACE ( 'NONE', #123, 0.3125000000000000000 ) ;
#193 = DIRECTION ( 'NONE',  ( -2.578203787678638882E-17, 1.000000000000000000, -0.000000000000000000 ) ) ;
#194 = PRODUCT_DEFINITION_FORMATION_WITH_SPECIFIED_SOURCE ( 'ANY', '', #234, .NOT_KNOWN. ) ;
#195 = VERTEX_POINT ( 'NONE', #154 ) ;
#196 = SURFACE_STYLE_FILL_AREA ( #274 ) ;
#197 = PLANE ( 'NONE',  #48 ) ;
#198 =( NAMED_UNIT ( * ) SI_UNIT ( $, .STERADIAN. ) SOLID_ANGLE_UNIT ( ) );
#199 =( NAMED_UNIT ( * ) SI_UNIT ( $, .STERADIAN. ) SOLID_ANGLE_UNIT ( ) );
#200 = EDGE_CURVE ( 'NONE', #230, #276, #258, .T. ) ;
#201 = ORIENTED_EDGE ( 'NONE', *, *, #169, .F. ) ;
#202 = LENGTH_MEASURE_WITH_UNIT ( LENGTH_MEASURE( 0.02539999999999999897 ), #63 );
#203 =( GEOMETRIC_REPRESENTATION_CONTEXT ( 3 ) GLOBAL_UNCERTAINTY_ASSIGNED_CONTEXT ( ( #266 ) ) GLOBAL_UNIT_ASSIGNED_CONTEXT ( ( #275, #251, #198 ) ) REPRESENTATION_CONTEXT ( 'NONE', 'WORKASPACE' ) );
#204 = CIRCLE ( 'NONE', #166, 0.3125000000000000000 ) ;
#205 = CARTESIAN_POINT ( 'NONE',  ( 0.000000000000000000, 1.625000000000000000, -0.3125000000000000000 ) ) ;
#206 =( NAMED_UNIT ( * ) PLANE_ANGLE_UNIT ( ) SI_UNIT ( $, .RADIAN. ) );
#207 = STYLED_ITEM ( 'NONE', ( #12 ), #284 ) ;
#208 = DIRECTION ( 'NONE',  ( -0.000000000000000000, -1.000000000000000000, -0.000000000000000000 ) ) ;
#209 = DIRECTION ( 'NONE',  ( 0.000000000000000000, 0.000000000000000000, 1.000000000000000000 ) ) ;
#210 = EDGE_LOOP ( 'NONE', ( #97, #229, #183, #309 ) ) ;
#211 =( NAMED_UNIT ( * ) SI_UNIT ( $, .STERADIAN. ) SOLID_ANGLE_UNIT ( ) );
#212 = AXIS2_PLACEMENT_3D ( 'NONE', #241, #215, #59 ) ;
#213 = COLOUR_RGB ( '',1.000000000000000000, 0.000000000000000000, 0.000000000000000000 ) ;
#214 = DIRECTION ( 'NONE',  ( 0.000000000000000000, -1.000000000000000000, -0.000000000000000000 ) ) ;
#215 = DIRECTION ( 'NONE',  ( 2.578203787678638882E-17, -1.000000000000000000, 0.000000000000000000 ) ) ;
#216 = EDGE_CURVE ( 'NONE', #117, #195, #240, .T. ) ;
#217 = ORIENTED_EDGE ( 'NONE', *, *, #127, .T. ) ;
#218 =( NAMED_UNIT ( * ) SI_UNIT ( $, .STERADIAN. ) SOLID_ANGLE_UNIT ( ) );
#219 = LENGTH_MEASURE_WITH_UNIT ( LENGTH_MEASURE( 0.02539999999999999897 ), #22 );
#220 =( GEOMETRIC_REPRESENTATION_CONTEXT ( 3 ) GLOBAL_UNCERTAINTY_ASSIGNED_CONTEXT ( ( #67 ) ) GLOBAL_UNIT_ASSIGNED_CONTEXT ( ( #138, #140, #249 ) ) REPRESENTATION_CONTEXT ( 'NONE', 'WORKASPACE' ) );
#221 =( NAMED_UNIT ( * ) PLANE_ANGLE_UNIT ( ) SI_UNIT ( $, .RADIAN. ) );
#222 =( CONVERSION_BASED_UNIT ( 'INCH', #304 ) LENGTH_UNIT ( ) NAMED_UNIT ( #303 ) );
#223 = CYLINDRICAL_SURFACE ( 'NONE', #95, 0.3125000000000000000 ) ;
#224 = DIRECTION ( 'NONE',  ( 0.000000000000000000, 0.000000000000000000, -1.000000000000000000 ) ) ;
#225 = PRESENTATION_STYLE_ASSIGNMENT (( #231 ) ) ;
#226 = ADVANCED_FACE ( 'NONE', ( #279 ), #223, .T. ) ;
#227 = DIRECTION ( 'NONE',  ( -1.000000000000000000, 0.000000000000000000, 0.000000000000000000 ) ) ;
#228 = PRESENTATION_STYLE_ASSIGNMENT (( #237 ) ) ;
#229 = ORIENTED_EDGE ( 'NONE', *, *, #216, .T. ) ;
#230 = VERTEX_POINT ( 'NONE', #205 ) ;
#231 = SURFACE_STYLE_USAGE ( .BOTH. , #290 ) ;
#232 = STYLED_ITEM ( 'NONE', ( #228 ), #134 ) ;
#233 = FACE_OUTER_BOUND ( 'NONE', #124, .T. ) ;
#234 = PRODUCT ( '48535', '48535', '', ( #137 ) ) ;
#235 = EDGE_CURVE ( 'NONE', #116, #276, #264, .T. ) ;
#236 = UNCERTAINTY_MEASURE_WITH_UNIT (LENGTH_MEASURE( 1.000000000000000082E-05 ), #58, 'distance_accuracy_value', 'NONE');
#237 = SURFACE_STYLE_USAGE ( .BOTH. , #121 ) ;
#238 = VECTOR ( 'NONE', #208, 39.37007874015748143 ) ;
#239 =( LENGTH_UNIT ( ) NAMED_UNIT ( * ) SI_UNIT ( $, .METRE. ) );
#240 = CIRCLE ( 'NONE', #159, 0.3125000000000000000 ) ;
#241 = CARTESIAN_POINT ( 'NONE',  ( 0.3125000000000000000, 4.000000000000000000, 0.000000000000000000 ) ) ;
#242 = UNCERTAINTY_MEASURE_WITH_UNIT (LENGTH_MEASURE( 1.000000000000000082E-05 ), #7, 'distance_accuracy_value', 'NONE');
#243 = FILL_AREA_STYLE ('',( #161 ) ) ;
#244 = CARTESIAN_POINT ( 'NONE',  ( -0.3125000000000000555, 4.000000000000000000, 0.000000000000000000 ) ) ;
#245 = MECHANICAL_DESIGN_GEOMETRIC_PRESENTATION_REPRESENTATION (  '', ( #296 ), #54 ) ;
#246 = CARTESIAN_POINT ( 'NONE',  ( 3.827021247335478926E-17, 0.000000000000000000, 0.3125000000000000000 ) ) ;
#247 = SURFACE_STYLE_USAGE ( .BOTH. , #6 ) ;
#248 = PRESENTATION_STYLE_ASSIGNMENT (( #168 ) ) ;
#249 =( NAMED_UNIT ( * ) SI_UNIT ( $, .STERADIAN. ) SOLID_ANGLE_UNIT ( ) );
#250 = COLOUR_RGB ( '',0.7921568627450980005, 0.8196078431372548767, 0.9333333333333333481 ) ;
#251 =( NAMED_UNIT ( * ) PLANE_ANGLE_UNIT ( ) SI_UNIT ( $, .RADIAN. ) );
#252 = FILL_AREA_STYLE ('',( #299 ) ) ;
#253 = DIRECTION ( 'NONE',  ( -2.578203787678638882E-17, 1.000000000000000000, -0.000000000000000000 ) ) ;
#254 =( NAMED_UNIT ( * ) PLANE_ANGLE_UNIT ( ) SI_UNIT ( $, .RADIAN. ) );
#255 = DIRECTION ( 'NONE',  ( -2.578203787678638882E-17, 1.000000000000000000, -0.000000000000000000 ) ) ;
#256 = ORIENTED_EDGE ( 'NONE', *, *, #235, .F. ) ;
#257 = CARTESIAN_POINT ( 'NONE',  ( 0.000000000000000000, 0.000000000000000000, -0.3125000000000000000 ) ) ;
#258 = LINE ( 'NONE', #99, #238 ) ;
#259 = APPLICATION_PROTOCOL_DEFINITION ( 'draft international standard', 'automotive_design', 1998, #11 ) ;
#260 = CARTESIAN_POINT ( 'NONE',  ( 0.000000000000000000, 1.625000000000000000, 0.000000000000000000 ) ) ;
#261 = ORIENTED_EDGE ( 'NONE', *, *, #77, .T. ) ;
#262 = EDGE_CURVE ( 'NONE', #276, #116, #204, .T. ) ;
#263 = DIRECTION ( 'NONE',  ( 1.000000000000000000, 0.000000000000000000, 0.000000000000000000 ) ) ;
#264 = CIRCLE ( 'NONE', #23, 0.3125000000000000000 ) ;
#265 = FILL_AREA_STYLE_COLOUR ( '', #250 ) ;
#266 = UNCERTAINTY_MEASURE_WITH_UNIT (LENGTH_MEASURE( 1.000000000000000082E-05 ), #275, 'distance_accuracy_value', 'NONE');
#267 = DIRECTION ( 'NONE',  ( -1.000000000000000000, -2.578203787678638882E-17, 0.000000000000000000 ) ) ;
#268 = CARTESIAN_POINT ( 'NONE',  ( 0.3125000000000000000, 1.625000000000000000, 3.827021247335478926E-17 ) ) ;
#269 = ORIENTED_EDGE ( 'NONE', *, *, #292, .T. ) ;
#270 = FACE_OUTER_BOUND ( 'NONE', #19, .T. ) ;
#271 = VECTOR ( 'NONE', #293, 39.37007874015748143 ) ;
#272 = AXIS2_PLACEMENT_3D ( 'NONE', #260, #83, #182 ) ;
#273 = FACE_OUTER_BOUND ( 'NONE', #20, .T. ) ;
#274 = FILL_AREA_STYLE ('',( #295 ) ) ;
#275 =( CONVERSION_BASED_UNIT ( 'INCH', #49 ) LENGTH_UNIT ( ) NAMED_UNIT ( #110 ) );
#276 = VERTEX_POINT ( 'NONE', #257 ) ;
#277 = DIRECTION ( 'NONE',  ( -2.578203787678638882E-17, 1.000000000000000000, -0.000000000000000000 ) ) ;
#278 = CARTESIAN_POINT ( 'NONE',  ( 0.000000000000000000, 0.000000000000000000, 0.000000000000000000 ) ) ;
#279 = FACE_OUTER_BOUND ( 'NONE', #210, .T. ) ;
#280 = APPLICATION_PROTOCOL_DEFINITION ( 'draft international standard', 'automotive_design', 1998, #55 ) ;
#281 = DIRECTION ( 'NONE',  ( -1.000000000000000000, 0.000000000000000000, 0.000000000000000000 ) ) ;
#282 = AXIS2_PLACEMENT_3D ( 'NONE', #146, #253, #227 ) ;
#283 = DIRECTION ( 'NONE',  ( -2.578203787678638882E-17, 1.000000000000000000, -0.000000000000000000 ) ) ;
#284 = ADVANCED_FACE ( 'NONE', ( #94 ), #197, .T. ) ;
#285 = LINE ( 'NONE', #246, #136 ) ;
#286 = COLOUR_RGB ( '',1.000000000000000000, 0.000000000000000000, 0.000000000000000000 ) ;
#287 = PRESENTATION_STYLE_ASSIGNMENT (( #190 ) ) ;
#288 = EDGE_LOOP ( 'NONE', ( #92, #5 ) ) ;
#289 = DIRECTION ( 'NONE',  ( 0.000000000000000000, 0.000000000000000000, -1.000000000000000000 ) ) ;
#290 = SURFACE_SIDE_STYLE ('',( #45 ) ) ;
#291 = LENGTH_MEASURE_WITH_UNIT ( LENGTH_MEASURE( 0.02539999999999999897 ), #42 );
#292 = EDGE_CURVE ( 'NONE', #230, #86, #40, .T. ) ;
#293 = DIRECTION ( 'NONE',  ( -2.578203787678638882E-17, 1.000000000000000000, -0.000000000000000000 ) ) ;
#294 = DIRECTION ( 'NONE',  ( 0.000000000000000000, 0.000000000000000000, -1.000000000000000000 ) ) ;
#295 = FILL_AREA_STYLE_COLOUR ( '', #286 ) ;
#296 = STYLED_ITEM ( 'NONE', ( #115 ), #162 ) ;
#297 = EDGE_LOOP ( 'NONE', ( #261, #64, #201, #164 ) ) ;
#298 = SURFACE_SIDE_STYLE ('',( #196 ) ) ;
#299 = FILL_AREA_STYLE_COLOUR ( '', #213 ) ;
#300 = AXIS2_PLACEMENT_3D ( 'NONE', #88, #70, #289 ) ;
#301 = EDGE_LOOP ( 'NONE', ( #81, #2 ) ) ;
#302 = SURFACE_STYLE_FILL_AREA ( #36 ) ;
#303 = DIMENSIONAL_EXPONENTS ( 1.000000000000000000, 0.000000000000000000, 0.000000000000000000, 0.000000000000000000, 0.000000000000000000, 0.000000000000000000, 0.000000000000000000 ) ;
#304 = LENGTH_MEASURE_WITH_UNIT ( LENGTH_MEASURE( 0.02539999999999999897 ), #239 );
#305 = CARTESIAN_POINT ( 'NONE',  ( 0.000000000000000000, 0.000000000000000000, 0.000000000000000000 ) ) ;
#306 = CLOSED_SHELL ( 'NONE', ( #16, #162, #134, #284 ) ) ;
#307 = PRESENTATION_LAYER_ASSIGNMENT (  '', '', ( #296 ) ) ;
#308 = CARTESIAN_POINT ( 'NONE',  ( 1.516480271171051896E-32, 1.625000000000000000, 0.000000000000000000 ) ) ;
#309 = ORIENTED_EDGE ( 'NONE', *, *, #76, .F. ) ;
ENDSEC;
END-ISO-10303-21;
