ISO-10303-21;
HEADER;
FILE_DESCRIPTION (( 'STEP AP214' ),
    '1' );
FILE_NAME ('49040.STEP',
    '2023-06-30T21:55:52',
    ( '' ),
    ( '' ),
    'SwSTEP 2.0',
    'SolidWorks 2023',
    '' );
FILE_SCHEMA (( 'AUTOMOTIVE_DESIGN' ));
ENDSEC;

DATA;
#1 =( NAMED_UNIT ( * ) PLANE_ANGLE_UNIT ( ) SI_UNIT ( $, .RADIAN. ) );
#2 = CARTESIAN_POINT ( 'NONE',  ( 0.000000000000000000, 0.06250000000000001388, 0.000000000000000000 ) ) ;
#3 = CARTESIAN_POINT ( 'NONE',  ( 0.000000000000000000, 0.06250000000000001388, -0.06249999999999995143 ) ) ;
#4 = ORIENTED_EDGE ( 'NONE', *, *, #219, .F. ) ;
#5 = PRODUCT_DEFINITION_SHAPE ( 'NONE', 'NONE',  #46 ) ;
#6 = FILL_AREA_STYLE ('',( #321 ) ) ;
#7 = ORIENTED_EDGE ( 'NONE', *, *, #190, .F. ) ;
#8 = PRODUCT_DEFINITION_CONTEXT ( 'detailed design', #136, 'design' ) ;
#9 = STYLED_ITEM ( 'NONE', ( #266 ), #42 ) ;
#10 = DIRECTION ( 'NONE',  ( -0.000000000000000000, -1.000000000000000000, -0.000000000000000000 ) ) ;
#11 = MECHANICAL_DESIGN_GEOMETRIC_PRESENTATION_REPRESENTATION (  '', ( #306 ), #37 ) ;
#12 = DIRECTION ( 'NONE',  ( 0.000000000000000000, 0.000000000000000000, -1.000000000000000000 ) ) ;
#13 = PRODUCT_CONTEXT ( 'NONE', #160, 'mechanical' ) ;
#14 = EDGE_CURVE ( 'NONE', #300, #364, #360, .T. ) ;
#15 = AXIS2_PLACEMENT_3D ( 'NONE', #177, #350, #38 ) ;
#16 = COLOUR_RGB ( '',1.000000000000000000, 0.000000000000000000, 0.000000000000000000 ) ;
#17 = EDGE_CURVE ( 'NONE', #70, #238, #274, .T. ) ;
#18 = PRESENTATION_LAYER_ASSIGNMENT (  '', '', ( #104 ) ) ;
#19 = EDGE_LOOP ( 'NONE', ( #202, #93, #4, #237, #106 ) ) ;
#20 = CARTESIAN_POINT ( 'NONE',  ( 1.836970198721029194E-16, 0.5000000000000001110, 0.000000000000000000 ) ) ;
#21 = PRESENTATION_STYLE_ASSIGNMENT (( #105 ) ) ;
#22 = DIRECTION ( 'NONE',  ( 1.224646799147352961E-16, -1.000000000000000000, 0.000000000000000000 ) ) ;
#23 = FILL_AREA_STYLE ('',( #108 ) ) ;
#24 =( CONVERSION_BASED_UNIT ( 'INCH', #107 ) LENGTH_UNIT ( ) NAMED_UNIT ( #348 ) );
#25 = AXIS2_PLACEMENT_3D ( 'NONE', #27, #232, #235 ) ;
#26 = SURFACE_SIDE_STYLE ('',( #342 ) ) ;
#27 = CARTESIAN_POINT ( 'NONE',  ( 0.000000000000000000, 0.5000000000000000000, 0.000000000000000000 ) ) ;
#28 = AXIS2_PLACEMENT_3D ( 'NONE', #86, #199, #294 ) ;
#29 =( GEOMETRIC_REPRESENTATION_CONTEXT ( 3 ) GLOBAL_UNCERTAINTY_ASSIGNED_CONTEXT ( ( #90 ) ) GLOBAL_UNIT_ASSIGNED_CONTEXT ( ( #324, #83, #31 ) ) REPRESENTATION_CONTEXT ( 'NONE', 'WORKASPACE' ) );
#30 = SURFACE_STYLE_USAGE ( .BOTH. , #175 ) ;
#31 =( NAMED_UNIT ( * ) SI_UNIT ( $, .STERADIAN. ) SOLID_ANGLE_UNIT ( ) );
#32 =( CONVERSION_BASED_UNIT ( 'INCH', #229 ) LENGTH_UNIT ( ) NAMED_UNIT ( #48 ) );
#33 = FILL_AREA_STYLE_COLOUR ( '', #49 ) ;
#34 = DIRECTION ( 'NONE',  ( 0.000000000000000000, 0.000000000000000000, -1.000000000000000000 ) ) ;
#35 = SURFACE_STYLE_FILL_AREA ( #261 ) ;
#36 = MECHANICAL_DESIGN_GEOMETRIC_PRESENTATION_REPRESENTATION (  '', ( #263 ), #67 ) ;
#37 =( GEOMETRIC_REPRESENTATION_CONTEXT ( 3 ) GLOBAL_UNCERTAINTY_ASSIGNED_CONTEXT ( ( #293 ) ) GLOBAL_UNIT_ASSIGNED_CONTEXT ( ( #169, #163, #339 ) ) REPRESENTATION_CONTEXT ( 'NONE', 'WORKASPACE' ) );
#38 = DIRECTION ( 'NONE',  ( 0.000000000000000000, 0.000000000000000000, -1.000000000000000000 ) ) ;
#39 = CARTESIAN_POINT ( 'NONE',  ( -6.123233995736766036E-17, 2.500000000000000000, 0.000000000000000000 ) ) ;
#40 = AXIS2_PLACEMENT_3D ( 'NONE', #227, #197, #297 ) ;
#41 = LENGTH_MEASURE_WITH_UNIT ( LENGTH_MEASURE( 0.02539999999999999897 ), #304 );
#42 = MANIFOLD_SOLID_BREP ( 'Revolve - Tool Body (Straight Shanked)', #182 ) ;
#43 = AXIS2_PLACEMENT_3D ( 'NONE', #277, #22, #162 ) ;
#44 =( GEOMETRIC_REPRESENTATION_CONTEXT ( 3 ) GLOBAL_UNCERTAINTY_ASSIGNED_CONTEXT ( ( #125 ) ) GLOBAL_UNIT_ASSIGNED_CONTEXT ( ( #159, #273, #128 ) ) REPRESENTATION_CONTEXT ( 'NONE', 'WORKASPACE' ) );
#45 =( LENGTH_UNIT ( ) NAMED_UNIT ( * ) SI_UNIT ( $, .METRE. ) );
#46 = PRODUCT_DEFINITION ( 'UNKNOWN', '', #61, #8 ) ;
#47 = DIRECTION ( 'NONE',  ( -1.224646799147352961E-16, 1.000000000000000000, -0.000000000000000000 ) ) ;
#48 = DIMENSIONAL_EXPONENTS ( 1.000000000000000000, 0.000000000000000000, 0.000000000000000000, 0.000000000000000000, 0.000000000000000000, 0.000000000000000000, 0.000000000000000000 ) ;
#49 = COLOUR_RGB ( '',0.7921568627450980005, 0.8196078431372548767, 0.9333333333333333481 ) ;
#50 = SURFACE_STYLE_FILL_AREA ( #318 ) ;
#51 = STYLED_ITEM ( 'NONE', ( #55 ), #334 ) ;
#52 = ORIENTED_EDGE ( 'NONE', *, *, #190, .T. ) ;
#53 = DIRECTION ( 'NONE',  ( 0.000000000000000000, 1.000000000000000000, 0.000000000000000000 ) ) ;
#54 = DIRECTION ( 'NONE',  ( -1.224646799147352961E-16, 1.000000000000000000, 0.000000000000000000 ) ) ;
#55 = PRESENTATION_STYLE_ASSIGNMENT (( #257 ) ) ;
#56 = PRESENTATION_LAYER_ASSIGNMENT (  '', '', ( #263 ) ) ;
#57 = CIRCLE ( 'NONE', #87, 0.06250000000000000000 ) ;
#58 = EDGE_LOOP ( 'NONE', ( #167, #171, #328, #361 ) ) ;
#59 = APPLICATION_PROTOCOL_DEFINITION ( 'draft international standard', 'automotive_design', 1998, #136 ) ;
#60 = EDGE_LOOP ( 'NONE', ( #258, #7 ) ) ;
#61 = PRODUCT_DEFINITION_FORMATION_WITH_SPECIFIED_SOURCE ( 'ANY', '', #99, .NOT_KNOWN. ) ;
#62 = EDGE_LOOP ( 'NONE', ( #220, #181 ) ) ;
#63 = EDGE_CURVE ( 'NONE', #300, #301, #370, .T. ) ;
#64 = SURFACE_STYLE_FILL_AREA ( #186 ) ;
#65 = VECTOR ( 'NONE', #251, 39.37007874015748143 ) ;
#66 = DIRECTION ( 'NONE',  ( 1.000000000000000000, 0.000000000000000000, -1.224646799147353454E-16 ) ) ;
#67 =( GEOMETRIC_REPRESENTATION_CONTEXT ( 3 ) GLOBAL_UNCERTAINTY_ASSIGNED_CONTEXT ( ( #119 ) ) GLOBAL_UNIT_ASSIGNED_CONTEXT ( ( #24, #124, #153 ) ) REPRESENTATION_CONTEXT ( 'NONE', 'WORKASPACE' ) );
#68 = AXIS2_PLACEMENT_3D ( 'NONE', #88, #255, #34 ) ;
#69 =( NAMED_UNIT ( * ) SI_UNIT ( $, .STERADIAN. ) SOLID_ANGLE_UNIT ( ) );
#70 = VERTEX_POINT ( 'NONE', #249 ) ;
#71 = ADVANCED_FACE ( 'NONE', ( #222 ), #73, .T. ) ;
#72 = ORIENTED_EDGE ( 'NONE', *, *, #234, .T. ) ;
#73 = CYLINDRICAL_SURFACE ( 'NONE', #112, 0.06249999999999988204 ) ;
#74 = CARTESIAN_POINT ( 'NONE',  ( -7.654042494670957545E-18, 0.06250000000000001388, 0.000000000000000000 ) ) ;
#75 = CARTESIAN_POINT ( 'NONE',  ( -6.123233995736766036E-17, 2.500000000000000000, 0.000000000000000000 ) ) ;
#76 = AXIS2_PLACEMENT_3D ( 'NONE', #20, #47, #223 ) ;
#77 = CARTESIAN_POINT ( 'NONE',  ( 7.654042494670951382E-18, 0.000000000000000000, 0.06249999999999995143 ) ) ;
#78 = AXIS2_PLACEMENT_3D ( 'NONE', #206, #333, #185 ) ;
#79 = CARTESIAN_POINT ( 'NONE',  ( -6.123233995736766036E-17, 2.500000000000000000, 0.000000000000000000 ) ) ;
#80 = PRESENTATION_STYLE_ASSIGNMENT (( #102 ) ) ;
#81 = DIMENSIONAL_EXPONENTS ( 1.000000000000000000, 0.000000000000000000, 0.000000000000000000, 0.000000000000000000, 0.000000000000000000, 0.000000000000000000, 0.000000000000000000 ) ;
#82 = DIRECTION ( 'NONE',  ( -0.000000000000000000, -1.000000000000000000, -0.000000000000000000 ) ) ;
#83 =( NAMED_UNIT ( * ) PLANE_ANGLE_UNIT ( ) SI_UNIT ( $, .RADIAN. ) );
#84 =( LENGTH_UNIT ( ) NAMED_UNIT ( * ) SI_UNIT ( $, .METRE. ) );
#85 = DIRECTION ( 'NONE',  ( 0.000000000000000000, 0.000000000000000000, 1.000000000000000000 ) ) ;
#86 = CARTESIAN_POINT ( 'NONE',  ( 1.836970198721029194E-16, 0.5000000000000001110, 0.000000000000000000 ) ) ;
#87 = AXIS2_PLACEMENT_3D ( 'NONE', #39, #302, #270 ) ;
#88 = CARTESIAN_POINT ( 'NONE',  ( 0.000000000000000000, 0.06250000000000001388, 0.000000000000000000 ) ) ;
#89 = DIRECTION ( 'NONE',  ( -1.224646799147352961E-16, 1.000000000000000000, -0.000000000000000000 ) ) ;
#90 = UNCERTAINTY_MEASURE_WITH_UNIT (LENGTH_MEASURE( 1.000000000000000082E-05 ), #324, 'distance_accuracy_value', 'NONE');
#91 = ADVANCED_FACE ( 'NONE', ( #368 ), #221, .F. ) ;
#92 = CARTESIAN_POINT ( 'NONE',  ( 0.000000000000000000, 0.5000000000000000000, 0.000000000000000000 ) ) ;
#93 = ORIENTED_EDGE ( 'NONE', *, *, #308, .T. ) ;
#94 = COLOUR_RGB ( '',1.000000000000000000, 0.000000000000000000, 0.000000000000000000 ) ;
#95 = VERTEX_POINT ( 'NONE', #111 ) ;
#96 = EDGE_CURVE ( 'NONE', #238, #70, #192, .T. ) ;
#97 = AXIS2_PLACEMENT_3D ( 'NONE', #314, #214, #338 ) ;
#98 = SURFACE_SIDE_STYLE ('',( #64 ) ) ;
#99 = PRODUCT ( '49040', '49040', '', ( #13 ) ) ;
#100 = ORIENTED_EDGE ( 'NONE', *, *, #63, .F. ) ;
#101 = CYLINDRICAL_SURFACE ( 'NONE', #97, 0.06249999999999988204 ) ;
#102 = SURFACE_STYLE_USAGE ( .BOTH. , #216 ) ;
#103 = FILL_AREA_STYLE_COLOUR ( '', #211 ) ;
#104 = STYLED_ITEM ( 'NONE', ( #330 ), #248 ) ;
#105 = SURFACE_STYLE_USAGE ( .BOTH. , #26 ) ;
#106 = ORIENTED_EDGE ( 'NONE', *, *, #320, .F. ) ;
#107 = LENGTH_MEASURE_WITH_UNIT ( LENGTH_MEASURE( 0.02539999999999999897 ), #189 );
#108 = FILL_AREA_STYLE_COLOUR ( '', #225 ) ;
#109 = EDGE_CURVE ( 'NONE', #355, #204, #151, .T. ) ;
#110 = CARTESIAN_POINT ( 'NONE',  ( -0.06249999999999996531, 0.06250000000000001388, 7.654042494670952923E-18 ) ) ;
#111 = CARTESIAN_POINT ( 'NONE',  ( 7.654042494670951382E-18, 0.06250000000000001388, 0.06249999999999995143 ) ) ;
#112 = AXIS2_PLACEMENT_3D ( 'NONE', #75, #366, #319 ) ;
#113 = STYLED_ITEM ( 'NONE', ( #80 ), #309 ) ;
#114 = FILL_AREA_STYLE_COLOUR ( '', #16 ) ;
#115 = ADVANCED_FACE ( 'NONE', ( #138 ), #101, .T. ) ;
#116 = DIRECTION ( 'NONE',  ( 0.000000000000000000, 0.000000000000000000, -1.000000000000000000 ) ) ;
#117 = ORIENTED_EDGE ( 'NONE', *, *, #14, .F. ) ;
#118 =( NAMED_UNIT ( * ) PLANE_ANGLE_UNIT ( ) SI_UNIT ( $, .RADIAN. ) );
#119 = UNCERTAINTY_MEASURE_WITH_UNIT (LENGTH_MEASURE( 1.000000000000000082E-05 ), #24, 'distance_accuracy_value', 'NONE');
#120 = DIRECTION ( 'NONE',  ( -0.000000000000000000, -1.000000000000000000, -0.000000000000000000 ) ) ;
#121 = DIRECTION ( 'NONE',  ( 0.000000000000000000, -0.000000000000000000, 1.000000000000000000 ) ) ;
#122 = ADVANCED_FACE ( 'NONE', ( #187 ), #311, .T. ) ;
#123 = ADVANCED_FACE ( 'NONE', ( #283 ), #267, .F. ) ;
#124 =( NAMED_UNIT ( * ) PLANE_ANGLE_UNIT ( ) SI_UNIT ( $, .RADIAN. ) );
#125 = UNCERTAINTY_MEASURE_WITH_UNIT (LENGTH_MEASURE( 1.000000000000000082E-05 ), #159, 'distance_accuracy_value', 'NONE');
#126 = SHAPE_DEFINITION_REPRESENTATION ( #5, #240 ) ;
#127 = EDGE_LOOP ( 'NONE', ( #269, #228, #188, #129 ) ) ;
#128 =( NAMED_UNIT ( * ) SI_UNIT ( $, .STERADIAN. ) SOLID_ANGLE_UNIT ( ) );
#129 = ORIENTED_EDGE ( 'NONE', *, *, #219, .T. ) ;
#130 = AXIS2_PLACEMENT_3D ( 'NONE', #291, #209, #66 ) ;
#131 = DIRECTION ( 'NONE',  ( 1.000000000000000000, 0.000000000000000000, 0.000000000000000000 ) ) ;
#132 = CARTESIAN_POINT ( 'NONE',  ( -7.654042494670957545E-18, 0.06250000000000001388, 0.000000000000000000 ) ) ;
#133 = AXIS2_PLACEMENT_3D ( 'NONE', #92, #82, #12 ) ;
#134 = CIRCLE ( 'NONE', #25, 0.06249999999999993755 ) ;
#135 = DIRECTION ( 'NONE',  ( -1.224646799147352961E-16, 1.000000000000000000, -0.000000000000000000 ) ) ;
#136 = APPLICATION_CONTEXT ( 'automotive_design' ) ;
#137 = CARTESIAN_POINT ( 'NONE',  ( -3.827021247335479543E-18, 3.414809992080329023E-17, 0.000000000000000000 ) ) ;
#138 = FACE_OUTER_BOUND ( 'NONE', #180, .T. ) ;
#139 = CARTESIAN_POINT ( 'NONE',  ( -7.654042494670957545E-18, 0.06250000000000001388, 0.000000000000000000 ) ) ;
#140 = CIRCLE ( 'NONE', #241, 0.06249999999999995143 ) ;
#141 = CARTESIAN_POINT ( 'NONE',  ( -0.06249999999999993755, 2.500000000000000000, 0.000000000000000000 ) ) ;
#142 = MECHANICAL_DESIGN_GEOMETRIC_PRESENTATION_REPRESENTATION (  '', ( #113 ), #288 ) ;
#143 = CARTESIAN_POINT ( 'NONE',  ( 0.000000000000000000, 0.000000000000000000, -0.06249999999999995143 ) ) ;
#144 = CARTESIAN_POINT ( 'NONE',  ( 0.000000000000000000, 0.5000000000000000000, 0.000000000000000000 ) ) ;
#145 = ORIENTED_EDGE ( 'NONE', *, *, #109, .F. ) ;
#146 = CARTESIAN_POINT ( 'NONE',  ( 0.000000000000000000, 0.000000000000000000, 0.000000000000000000 ) ) ;
#147 = EDGE_CURVE ( 'NONE', #70, #204, #262, .T. ) ;
#148 =( NAMED_UNIT ( * ) SI_UNIT ( $, .STERADIAN. ) SOLID_ANGLE_UNIT ( ) );
#149 = ORIENTED_EDGE ( 'NONE', *, *, #281, .T. ) ;
#150 = SURFACE_SIDE_STYLE ('',( #35 ) ) ;
#151 = CIRCLE ( 'NONE', #157, 0.06250000000000000000 ) ;
#152 = AXIS2_PLACEMENT_3D ( 'NONE', #139, #282, #246 ) ;
#153 =( NAMED_UNIT ( * ) SI_UNIT ( $, .STERADIAN. ) SOLID_ANGLE_UNIT ( ) );
#154 = SURFACE_STYLE_USAGE ( .BOTH. , #150 ) ;
#155 = EDGE_CURVE ( 'NONE', #332, #285, #363, .T. ) ;
#156 = FILL_AREA_STYLE_COLOUR ( '', #316 ) ;
#157 = AXIS2_PLACEMENT_3D ( 'NONE', #79, #135, #244 ) ;
#158 = VECTOR ( 'NONE', #120, 39.37007874015748143 ) ;
#159 =( CONVERSION_BASED_UNIT ( 'INCH', #41 ) LENGTH_UNIT ( ) NAMED_UNIT ( #250 ) );
#160 = APPLICATION_CONTEXT ( 'automotive_design' ) ;
#161 = CIRCLE ( 'NONE', #336, 0.06249999999999995143 ) ;
#162 = DIRECTION ( 'NONE',  ( 1.000000000000000000, 1.224646799147352961E-16, 0.000000000000000000 ) ) ;
#163 =( NAMED_UNIT ( * ) PLANE_ANGLE_UNIT ( ) SI_UNIT ( $, .RADIAN. ) );
#164 = SURFACE_SIDE_STYLE ('',( #218 ) ) ;
#165 = LINE ( 'NONE', #143, #158 ) ;
#166 = SURFACE_STYLE_USAGE ( .BOTH. , #164 ) ;
#167 = ORIENTED_EDGE ( 'NONE', *, *, #147, .F. ) ;
#168 = VERTEX_POINT ( 'NONE', #200 ) ;
#169 =( CONVERSION_BASED_UNIT ( 'INCH', #369 ) LENGTH_UNIT ( ) NAMED_UNIT ( #362 ) );
#170 = DIRECTION ( 'NONE',  ( 1.000000000000000000, 0.000000000000000000, 0.000000000000000000 ) ) ;
#171 = ORIENTED_EDGE ( 'NONE', *, *, #17, .T. ) ;
#172 = LENGTH_MEASURE_WITH_UNIT ( LENGTH_MEASURE( 0.02539999999999999897 ), #84 );
#173 =( LENGTH_UNIT ( ) NAMED_UNIT ( * ) SI_UNIT ( $, .METRE. ) );
#174 = ORIENTED_EDGE ( 'NONE', *, *, #147, .T. ) ;
#175 = SURFACE_SIDE_STYLE ('',( #326 ) ) ;
#176 =( LENGTH_UNIT ( ) NAMED_UNIT ( * ) SI_UNIT ( $, .METRE. ) );
#177 = CARTESIAN_POINT ( 'NONE',  ( 0.000000000000000000, 0.06250000000000001388, 0.000000000000000000 ) ) ;
#178 = ORIENTED_EDGE ( 'NONE', *, *, #308, .F. ) ;
#179 =( NAMED_UNIT ( * ) PLANE_ANGLE_UNIT ( ) SI_UNIT ( $, .RADIAN. ) );
#180 = EDGE_LOOP ( 'NONE', ( #298, #174, #145, #279 ) ) ;
#181 = ORIENTED_EDGE ( 'NONE', *, *, #17, .F. ) ;
#182 = CLOSED_SHELL ( 'NONE', ( #115, #123, #71, #91 ) ) ;
#183 = DIRECTION ( 'NONE',  ( 0.000000000000000000, 0.000000000000000000, -1.000000000000000000 ) ) ;
#184 = EDGE_CURVE ( 'NONE', #364, #168, #140, .T. ) ;
#185 = DIRECTION ( 'NONE',  ( 0.000000000000000000, 0.000000000000000000, -1.000000000000000000 ) ) ;
#186 = FILL_AREA_STYLE ('',( #156 ) ) ;
#187 = FACE_OUTER_BOUND ( 'NONE', #19, .T. ) ;
#188 = ORIENTED_EDGE ( 'NONE', *, *, #281, .F. ) ;
#189 =( LENGTH_UNIT ( ) NAMED_UNIT ( * ) SI_UNIT ( $, .METRE. ) );
#190 = EDGE_CURVE ( 'NONE', #285, #332, #134, .T. ) ;
#191 = ORIENTED_EDGE ( 'NONE', *, *, #109, .T. ) ;
#192 = CIRCLE ( 'NONE', #76, 0.06249999999999975020 ) ;
#193 = CIRCLE ( 'NONE', #68, 0.06249999999999995143 ) ;
#194 = FACE_OUTER_BOUND ( 'NONE', #127, .T. ) ;
#195 = DIMENSIONAL_EXPONENTS ( 1.000000000000000000, 0.000000000000000000, 0.000000000000000000, 0.000000000000000000, 0.000000000000000000, 0.000000000000000000, 0.000000000000000000 ) ;
#196 = CARTESIAN_POINT ( 'NONE',  ( 0.06249999999999981959, 2.500000000000000000, 7.654042494670943678E-18 ) ) ;
#197 = DIRECTION ( 'NONE',  ( 0.000000000000000000, 0.000000000000000000, 1.000000000000000000 ) ) ;
#198 = SURFACE_STYLE_FILL_AREA ( #6 ) ;
#199 = DIRECTION ( 'NONE',  ( -1.224646799147352961E-16, 1.000000000000000000, -0.000000000000000000 ) ) ;
#200 = CARTESIAN_POINT ( 'NONE',  ( 0.06249999999999996531, 0.06250000000000001388, 0.000000000000000000 ) ) ;
#201 = DIRECTION ( 'NONE',  ( -1.000000000000000000, -1.224646799147352961E-16, 0.000000000000000000 ) ) ;
#202 = ORIENTED_EDGE ( 'NONE', *, *, #155, .T. ) ;
#203 = CARTESIAN_POINT ( 'NONE',  ( 1.836970198721029441E-16, 0.5000000000000000000, 0.000000000000000000 ) ) ;
#204 = VERTEX_POINT ( 'NONE', #287 ) ;
#205 = MECHANICAL_DESIGN_GEOMETRIC_PRESENTATION_REPRESENTATION (  '', ( #104 ), #44 ) ;
#206 = CARTESIAN_POINT ( 'NONE',  ( 0.000000000000000000, 0.000000000000000000, 0.000000000000000000 ) ) ;
#207 =( LENGTH_UNIT ( ) NAMED_UNIT ( * ) SI_UNIT ( $, .METRE. ) );
#208 = EDGE_CURVE ( 'NONE', #238, #355, #253, .T. ) ;
#209 = DIRECTION ( 'NONE',  ( 1.224646799147353207E-16, -0.000000000000000000, 1.000000000000000000 ) ) ;
#210 = CARTESIAN_POINT ( 'NONE',  ( -0.06249999999999956285, 0.5000000000000001110, 0.000000000000000000 ) ) ;
#211 = COLOUR_RGB ( '',1.000000000000000000, 0.000000000000000000, 0.000000000000000000 ) ;
#212 = COLOUR_RGB ( '',1.000000000000000000, 0.000000000000000000, 0.000000000000000000 ) ;
#213 = SPHERICAL_SURFACE ( 'NONE', #242, 0.06249999999999997918 ) ;
#214 = DIRECTION ( 'NONE',  ( -1.224646799147352961E-16, 1.000000000000000000, -0.000000000000000000 ) ) ;
#215 = ADVANCED_FACE ( 'NONE', ( #372 ), #213, .T. ) ;
#216 = SURFACE_SIDE_STYLE ('',( #50 ) ) ;
#217 = CLOSED_SHELL ( 'NONE', ( #309, #122, #334, #248, #215 ) ) ;
#218 = SURFACE_STYLE_FILL_AREA ( #341 ) ;
#219 = EDGE_CURVE ( 'NONE', #168, #95, #161, .T. ) ;
#220 = ORIENTED_EDGE ( 'NONE', *, *, #96, .F. ) ;
#221 = PLANE ( 'NONE',  #43 ) ;
#222 = FACE_OUTER_BOUND ( 'NONE', #58, .T. ) ;
#223 = DIRECTION ( 'NONE',  ( -1.000000000000000000, 0.000000000000000000, 0.000000000000000000 ) ) ;
#224 = MECHANICAL_DESIGN_GEOMETRIC_PRESENTATION_REPRESENTATION (  '', ( #371 ), #254 ) ;
#225 = COLOUR_RGB ( '',0.7921568627450980005, 0.8196078431372548767, 0.9333333333333333481 ) ;
#226 = PRESENTATION_STYLE_ASSIGNMENT (( #30 ) ) ;
#227 = CARTESIAN_POINT ( 'NONE',  ( 0.000000000000000000, 0.000000000000000000, 0.000000000000000000 ) ) ;
#228 = ORIENTED_EDGE ( 'NONE', *, *, #63, .T. ) ;
#229 = LENGTH_MEASURE_WITH_UNIT ( LENGTH_MEASURE( 0.02539999999999999897 ), #173 );
#230 = ORIENTED_EDGE ( 'NONE', *, *, #373, .F. ) ;
#231 =( GEOMETRIC_REPRESENTATION_CONTEXT ( 3 ) GLOBAL_UNCERTAINTY_ASSIGNED_CONTEXT ( ( #260 ) ) GLOBAL_UNIT_ASSIGNED_CONTEXT ( ( #337, #179, #148 ) ) REPRESENTATION_CONTEXT ( 'NONE', 'WORKASPACE' ) );
#232 = DIRECTION ( 'NONE',  ( -0.000000000000000000, -1.000000000000000000, -0.000000000000000000 ) ) ;
#233 = UNCERTAINTY_MEASURE_WITH_UNIT (LENGTH_MEASURE( 1.000000000000000082E-05 ), #315, 'distance_accuracy_value', 'NONE');
#234 = EDGE_CURVE ( 'NONE', #204, #355, #57, .T. ) ;
#235 = DIRECTION ( 'NONE',  ( 0.000000000000000000, 0.000000000000000000, -1.000000000000000000 ) ) ;
#236 = FACE_OUTER_BOUND ( 'NONE', #60, .T. ) ;
#237 = ORIENTED_EDGE ( 'NONE', *, *, #184, .F. ) ;
#238 = VERTEX_POINT ( 'NONE', #210 ) ;
#239 = AXIS2_PLACEMENT_3D ( 'NONE', #144, #53, #121 ) ;
#240 = ADVANCED_BREP_SHAPE_REPRESENTATION ( '49040', ( #303, #42, #40 ), #352 ) ;
#241 = AXIS2_PLACEMENT_3D ( 'NONE', #2, #10, #116 ) ;
#242 = AXIS2_PLACEMENT_3D ( 'NONE', #132, #299, #131 ) ;
#243 = SURFACE_STYLE_USAGE ( .BOTH. , #98 ) ;
#244 = DIRECTION ( 'NONE',  ( -1.000000000000000000, 0.000000000000000000, 0.000000000000000000 ) ) ;
#245 = PRESENTATION_STYLE_ASSIGNMENT (( #166 ) ) ;
#246 = DIRECTION ( 'NONE',  ( -1.000000000000000000, 0.000000000000000000, 0.000000000000000000 ) ) ;
#247 = EDGE_LOOP ( 'NONE', ( #191, #72 ) ) ;
#248 = ADVANCED_FACE ( 'NONE', ( #335 ), #307, .T. ) ;
#249 = CARTESIAN_POINT ( 'NONE',  ( 0.06249999999999993755, 0.5000000000000001110, 7.654042494670949841E-18 ) ) ;
#250 = DIMENSIONAL_EXPONENTS ( 1.000000000000000000, 0.000000000000000000, 0.000000000000000000, 0.000000000000000000, 0.000000000000000000, 0.000000000000000000, 0.000000000000000000 ) ;
#251 = DIRECTION ( 'NONE',  ( -0.000000000000000000, -1.000000000000000000, -0.000000000000000000 ) ) ;
#252 = CARTESIAN_POINT ( 'NONE',  ( 7.654042494670949841E-18, 0.5000000000000000000, 0.06249999999999993755 ) ) ;
#253 = LINE ( 'NONE', #141, #272 ) ;
#254 =( GEOMETRIC_REPRESENTATION_CONTEXT ( 3 ) GLOBAL_UNCERTAINTY_ASSIGNED_CONTEXT ( ( #351 ) ) GLOBAL_UNIT_ASSIGNED_CONTEXT ( ( #290, #118, #292 ) ) REPRESENTATION_CONTEXT ( 'NONE', 'WORKASPACE' ) );
#255 = DIRECTION ( 'NONE',  ( -0.000000000000000000, -1.000000000000000000, -0.000000000000000000 ) ) ;
#256 = DIRECTION ( 'NONE',  ( -1.224646799147352961E-16, 1.000000000000000000, -0.000000000000000000 ) ) ;
#257 = SURFACE_STYLE_USAGE ( .BOTH. , #265 ) ;
#258 = ORIENTED_EDGE ( 'NONE', *, *, #155, .F. ) ;
#259 = DIRECTION ( 'NONE',  ( -0.000000000000000000, -1.000000000000000000, -0.000000000000000000 ) ) ;
#260 = UNCERTAINTY_MEASURE_WITH_UNIT (LENGTH_MEASURE( 1.000000000000000082E-05 ), #337, 'distance_accuracy_value', 'NONE');
#261 = FILL_AREA_STYLE ('',( #33 ) ) ;
#262 = LINE ( 'NONE', #196, #271 ) ;
#263 = STYLED_ITEM ( 'NONE', ( #245 ), #122 ) ;
#264 = MECHANICAL_DESIGN_GEOMETRIC_PRESENTATION_REPRESENTATION (  '', ( #51 ), #29 ) ;
#265 = SURFACE_SIDE_STYLE ('',( #198 ) ) ;
#266 = PRESENTATION_STYLE_ASSIGNMENT (( #154 ) ) ;
#267 = PLANE ( 'NONE',  #296 ) ;
#268 = APPLICATION_PROTOCOL_DEFINITION ( 'draft international standard', 'automotive_design', 1998, #160 ) ;
#269 = ORIENTED_EDGE ( 'NONE', *, *, #373, .T. ) ;
#270 = DIRECTION ( 'NONE',  ( -1.000000000000000000, 0.000000000000000000, 0.000000000000000000 ) ) ;
#271 = VECTOR ( 'NONE', #256, 39.37007874015748143 ) ;
#272 = VECTOR ( 'NONE', #89, 39.37007874015748143 ) ;
#273 =( NAMED_UNIT ( * ) PLANE_ANGLE_UNIT ( ) SI_UNIT ( $, .RADIAN. ) );
#274 = CIRCLE ( 'NONE', #28, 0.06249999999999975020 ) ;
#275 = CIRCLE ( 'NONE', #152, 0.06249999999999997918 ) ;
#276 =( NAMED_UNIT ( * ) PLANE_ANGLE_UNIT ( ) SI_UNIT ( $, .RADIAN. ) );
#277 = CARTESIAN_POINT ( 'NONE',  ( 0.06249999999999993755, 2.500000000000000000, 0.000000000000000000 ) ) ;
#278 = LENGTH_MEASURE_WITH_UNIT ( LENGTH_MEASURE( 0.02539999999999999897 ), #313 );
#279 = ORIENTED_EDGE ( 'NONE', *, *, #208, .F. ) ;
#280 = PRESENTATION_LAYER_ASSIGNMENT (  '', '', ( #371 ) ) ;
#281 = EDGE_CURVE ( 'NONE', #168, #301, #275, .T. ) ;
#282 = DIRECTION ( 'NONE',  ( 0.000000000000000000, 0.000000000000000000, -1.000000000000000000 ) ) ;
#283 = FACE_OUTER_BOUND ( 'NONE', #62, .T. ) ;
#284 = CARTESIAN_POINT ( 'NONE',  ( -0.06250000000000005551, 2.500000000000000000, 0.000000000000000000 ) ) ;
#285 = VERTEX_POINT ( 'NONE', #252 ) ;
#286 = PRESENTATION_LAYER_ASSIGNMENT (  '', '', ( #9 ) ) ;
#287 = CARTESIAN_POINT ( 'NONE',  ( 0.06249999999999993755, 2.500000000000000000, 7.654042494670949841E-18 ) ) ;
#288 =( GEOMETRIC_REPRESENTATION_CONTEXT ( 3 ) GLOBAL_UNCERTAINTY_ASSIGNED_CONTEXT ( ( #233 ) ) GLOBAL_UNIT_ASSIGNED_CONTEXT ( ( #315, #276, #69 ) ) REPRESENTATION_CONTEXT ( 'NONE', 'WORKASPACE' ) );
#289 = PLANE ( 'NONE',  #239 ) ;
#290 =( CONVERSION_BASED_UNIT ( 'INCH', #172 ) LENGTH_UNIT ( ) NAMED_UNIT ( #317 ) );
#291 = CARTESIAN_POINT ( 'NONE',  ( -7.654042494670957545E-18, 0.06250000000000001388, 0.000000000000000000 ) ) ;
#292 =( NAMED_UNIT ( * ) SI_UNIT ( $, .STERADIAN. ) SOLID_ANGLE_UNIT ( ) );
#293 = UNCERTAINTY_MEASURE_WITH_UNIT (LENGTH_MEASURE( 1.000000000000000082E-05 ), #169, 'distance_accuracy_value', 'NONE');
#294 = DIRECTION ( 'NONE',  ( -1.000000000000000000, 0.000000000000000000, 0.000000000000000000 ) ) ;
#295 = DIRECTION ( 'NONE',  ( 0.000000000000000000, 0.000000000000000000, -1.000000000000000000 ) ) ;
#296 = AXIS2_PLACEMENT_3D ( 'NONE', #203, #54, #201 ) ;
#297 = DIRECTION ( 'NONE',  ( 1.000000000000000000, 0.000000000000000000, 0.000000000000000000 ) ) ;
#298 = ORIENTED_EDGE ( 'NONE', *, *, #96, .T. ) ;
#299 = DIRECTION ( 'NONE',  ( 0.000000000000000000, 0.000000000000000000, 1.000000000000000000 ) ) ;
#300 = VERTEX_POINT ( 'NONE', #110 ) ;
#301 = VERTEX_POINT ( 'NONE', #137 ) ;
#302 = DIRECTION ( 'NONE',  ( -1.224646799147352961E-16, 1.000000000000000000, -0.000000000000000000 ) ) ;
#303 = MANIFOLD_SOLID_BREP ( 'Revolve - Cutting Edge', #217 ) ;
#304 =( LENGTH_UNIT ( ) NAMED_UNIT ( * ) SI_UNIT ( $, .METRE. ) );
#305 = MECHANICAL_DESIGN_GEOMETRIC_PRESENTATION_REPRESENTATION (  '', ( #9 ), #231 ) ;
#306 = STYLED_ITEM ( 'NONE', ( #21 ), #303 ) ;
#307 = CYLINDRICAL_SURFACE ( 'NONE', #78, 0.06249999999999995143 ) ;
#308 = EDGE_CURVE ( 'NONE', #285, #95, #344, .T. ) ;
#309 = ADVANCED_FACE ( 'NONE', ( #194 ), #365, .T. ) ;
#310 = PRESENTATION_LAYER_ASSIGNMENT (  '', '', ( #113 ) ) ;
#311 = CYLINDRICAL_SURFACE ( 'NONE', #322, 0.06249999999999995143 ) ;
#312 = DIMENSIONAL_EXPONENTS ( 1.000000000000000000, 0.000000000000000000, 0.000000000000000000, 0.000000000000000000, 0.000000000000000000, 0.000000000000000000, 0.000000000000000000 ) ;
#313 =( LENGTH_UNIT ( ) NAMED_UNIT ( * ) SI_UNIT ( $, .METRE. ) );
#314 = CARTESIAN_POINT ( 'NONE',  ( -6.123233995736766036E-17, 2.500000000000000000, 0.000000000000000000 ) ) ;
#315 =( CONVERSION_BASED_UNIT ( 'INCH', #278 ) LENGTH_UNIT ( ) NAMED_UNIT ( #195 ) );
#316 = COLOUR_RGB ( '',1.000000000000000000, 0.000000000000000000, 0.000000000000000000 ) ;
#317 = DIMENSIONAL_EXPONENTS ( 1.000000000000000000, 0.000000000000000000, 0.000000000000000000, 0.000000000000000000, 0.000000000000000000, 0.000000000000000000, 0.000000000000000000 ) ;
#318 = FILL_AREA_STYLE ('',( #346 ) ) ;
#319 = DIRECTION ( 'NONE',  ( -1.000000000000000000, 0.000000000000000000, 0.000000000000000000 ) ) ;
#320 = EDGE_CURVE ( 'NONE', #332, #364, #165, .T. ) ;
#321 = FILL_AREA_STYLE_COLOUR ( '', #212 ) ;
#322 = AXIS2_PLACEMENT_3D ( 'NONE', #146, #259, #295 ) ;
#323 = AXIS2_PLACEMENT_3D ( 'NONE', #74, #85, #170 ) ;
#324 =( CONVERSION_BASED_UNIT ( 'INCH', #353 ) LENGTH_UNIT ( ) NAMED_UNIT ( #81 ) );
#325 = ORIENTED_EDGE ( 'NONE', *, *, #14, .T. ) ;
#326 = SURFACE_STYLE_FILL_AREA ( #349 ) ;
#327 =( NAMED_UNIT ( * ) SI_UNIT ( $, .STERADIAN. ) SOLID_ANGLE_UNIT ( ) );
#328 = ORIENTED_EDGE ( 'NONE', *, *, #208, .T. ) ;
#329 = UNCERTAINTY_MEASURE_WITH_UNIT (LENGTH_MEASURE( 1.000000000000000082E-05 ), #32, 'distance_accuracy_value', 'NONE');
#330 = PRESENTATION_STYLE_ASSIGNMENT (( #243 ) ) ;
#331 = PRESENTATION_LAYER_ASSIGNMENT (  '', '', ( #51 ) ) ;
#332 = VERTEX_POINT ( 'NONE', #347 ) ;
#333 = DIRECTION ( 'NONE',  ( -0.000000000000000000, -1.000000000000000000, -0.000000000000000000 ) ) ;
#334 = ADVANCED_FACE ( 'NONE', ( #236 ), #289, .T. ) ;
#335 = FACE_OUTER_BOUND ( 'NONE', #343, .T. ) ;
#336 = AXIS2_PLACEMENT_3D ( 'NONE', #354, #358, #183 ) ;
#337 =( CONVERSION_BASED_UNIT ( 'INCH', #359 ) LENGTH_UNIT ( ) NAMED_UNIT ( #312 ) );
#338 = DIRECTION ( 'NONE',  ( -1.000000000000000000, 0.000000000000000000, 0.000000000000000000 ) ) ;
#339 =( NAMED_UNIT ( * ) SI_UNIT ( $, .STERADIAN. ) SOLID_ANGLE_UNIT ( ) );
#340 = ORIENTED_EDGE ( 'NONE', *, *, #320, .T. ) ;
#341 = FILL_AREA_STYLE ('',( #103 ) ) ;
#342 = SURFACE_STYLE_FILL_AREA ( #23 ) ;
#343 = EDGE_LOOP ( 'NONE', ( #178, #52, #340, #117, #230 ) ) ;
#344 = LINE ( 'NONE', #77, #65 ) ;
#345 = PRESENTATION_LAYER_ASSIGNMENT (  '', '', ( #306 ) ) ;
#346 = FILL_AREA_STYLE_COLOUR ( '', #94 ) ;
#347 = CARTESIAN_POINT ( 'NONE',  ( 0.000000000000000000, 0.5000000000000000000, -0.06249999999999993755 ) ) ;
#348 = DIMENSIONAL_EXPONENTS ( 1.000000000000000000, 0.000000000000000000, 0.000000000000000000, 0.000000000000000000, 0.000000000000000000, 0.000000000000000000, 0.000000000000000000 ) ;
#349 = FILL_AREA_STYLE ('',( #114 ) ) ;
#350 = DIRECTION ( 'NONE',  ( -0.000000000000000000, -1.000000000000000000, -0.000000000000000000 ) ) ;
#351 = UNCERTAINTY_MEASURE_WITH_UNIT (LENGTH_MEASURE( 1.000000000000000082E-05 ), #290, 'distance_accuracy_value', 'NONE');
#352 =( GEOMETRIC_REPRESENTATION_CONTEXT ( 3 ) GLOBAL_UNCERTAINTY_ASSIGNED_CONTEXT ( ( #329 ) ) GLOBAL_UNIT_ASSIGNED_CONTEXT ( ( #32, #1, #327 ) ) REPRESENTATION_CONTEXT ( 'NONE', 'WORKASPACE' ) );
#353 = LENGTH_MEASURE_WITH_UNIT ( LENGTH_MEASURE( 0.02539999999999999897 ), #176 );
#354 = CARTESIAN_POINT ( 'NONE',  ( 0.000000000000000000, 0.06250000000000001388, 0.000000000000000000 ) ) ;
#355 = VERTEX_POINT ( 'NONE', #284 ) ;
#356 = EDGE_LOOP ( 'NONE', ( #100, #325, #367, #149 ) ) ;
#357 = PRODUCT_RELATED_PRODUCT_CATEGORY ( 'part', '', ( #99 ) ) ;
#358 = DIRECTION ( 'NONE',  ( -0.000000000000000000, -1.000000000000000000, -0.000000000000000000 ) ) ;
#359 = LENGTH_MEASURE_WITH_UNIT ( LENGTH_MEASURE( 0.02539999999999999897 ), #207 );
#360 = CIRCLE ( 'NONE', #15, 0.06249999999999995143 ) ;
#361 = ORIENTED_EDGE ( 'NONE', *, *, #234, .F. ) ;
#362 = DIMENSIONAL_EXPONENTS ( 1.000000000000000000, 0.000000000000000000, 0.000000000000000000, 0.000000000000000000, 0.000000000000000000, 0.000000000000000000, 0.000000000000000000 ) ;
#363 = CIRCLE ( 'NONE', #133, 0.06249999999999993755 ) ;
#364 = VERTEX_POINT ( 'NONE', #3 ) ;
#365 = SPHERICAL_SURFACE ( 'NONE', #323, 0.06249999999999997918 ) ;
#366 = DIRECTION ( 'NONE',  ( -1.224646799147352961E-16, 1.000000000000000000, -0.000000000000000000 ) ) ;
#367 = ORIENTED_EDGE ( 'NONE', *, *, #184, .T. ) ;
#368 = FACE_OUTER_BOUND ( 'NONE', #247, .T. ) ;
#369 = LENGTH_MEASURE_WITH_UNIT ( LENGTH_MEASURE( 0.02539999999999999897 ), #45 );
#370 = CIRCLE ( 'NONE', #130, 0.06249999999999997918 ) ;
#371 = STYLED_ITEM ( 'NONE', ( #226 ), #215 ) ;
#372 = FACE_OUTER_BOUND ( 'NONE', #356, .T. ) ;
#373 = EDGE_CURVE ( 'NONE', #95, #300, #193, .T. ) ;
ENDSEC;
END-ISO-10303-21;
