ISO-10303-21;
HEADER;
FILE_DESCRIPTION (( 'STEP AP214' ),
    '1' );
FILE_NAME ('30707.STEP',
    '2023-06-22T19:03:53',
    ( '' ),
    ( '' ),
    'SwSTEP 2.0',
    'SolidWorks 2023',
    '' );
FILE_SCHEMA (( 'AUTOMOTIVE_DESIGN' ));
ENDSEC;

DATA;
#1 =( NAMED_UNIT ( * ) PLANE_ANGLE_UNIT ( ) SI_UNIT ( $, .RADIAN. ) );
#2 = MECHANICAL_DESIGN_GEOMETRIC_PRESENTATION_REPRESENTATION (  '', ( #47 ), #239 ) ;
#3 = CARTESIAN_POINT ( 'NONE',  ( 0.000000000000000000, 0.000000000000000000, 0.000000000000000000 ) ) ;
#4 = EDGE_CURVE ( 'NONE', #52, #12, #207, .T. ) ;
#5 = AXIS2_PLACEMENT_3D ( 'NONE', #206, #122, #113 ) ;
#6 = STYLED_ITEM ( 'NONE', ( #274 ), #277 ) ;
#7 =( NAMED_UNIT ( * ) SI_UNIT ( $, .STERADIAN. ) SOLID_ANGLE_UNIT ( ) );
#8 = LENGTH_MEASURE_WITH_UNIT ( LENGTH_MEASURE( 0.02539999999999999897 ), #191 );
#9 = EDGE_CURVE ( 'NONE', #52, #157, #287, .T. ) ;
#10 = SURFACE_STYLE_USAGE ( .BOTH. , #27 ) ;
#11 = EDGE_LOOP ( 'NONE', ( #107, #98, #30, #153 ) ) ;
#12 = VERTEX_POINT ( 'NONE', #222 ) ;
#13 = LENGTH_MEASURE_WITH_UNIT ( LENGTH_MEASURE( 0.02539999999999999897 ), #254 );
#14 =( GEOMETRIC_REPRESENTATION_CONTEXT ( 3 ) GLOBAL_UNCERTAINTY_ASSIGNED_CONTEXT ( ( #80 ) ) GLOBAL_UNIT_ASSIGNED_CONTEXT ( ( #249, #216, #7 ) ) REPRESENTATION_CONTEXT ( 'NONE', 'WORKASPACE' ) );
#15 = ORIENTED_EDGE ( 'NONE', *, *, #35, .T. ) ;
#16 = DIRECTION ( 'NONE',  ( 9.797174393178829848E-17, 1.000000000000000000, -0.000000000000000000 ) ) ;
#17 = FACE_OUTER_BOUND ( 'NONE', #103, .T. ) ;
#18 = DIMENSIONAL_EXPONENTS ( 1.000000000000000000, 0.000000000000000000, 0.000000000000000000, 0.000000000000000000, 0.000000000000000000, 0.000000000000000000, 0.000000000000000000 ) ;
#19 = SURFACE_STYLE_USAGE ( .BOTH. , #230 ) ;
#20 = AXIS2_PLACEMENT_3D ( 'NONE', #139, #307, #79 ) ;
#21 = CARTESIAN_POINT ( 'NONE',  ( 0.000000000000000000, 1.500000000000000222, 0.000000000000000000 ) ) ;
#22 = SURFACE_STYLE_USAGE ( .BOTH. , #142 ) ;
#23 = DIRECTION ( 'NONE',  ( 9.797174393178829848E-17, 1.000000000000000000, -0.000000000000000000 ) ) ;
#24 = DIRECTION ( 'NONE',  ( 0.000000000000000000, 1.000000000000000000, 0.000000000000000000 ) ) ;
#25 = LINE ( 'NONE', #51, #28 ) ;
#26 = PRESENTATION_LAYER_ASSIGNMENT (  '', '', ( #47 ) ) ;
#27 = SURFACE_SIDE_STYLE ('',( #245 ) ) ;
#28 = VECTOR ( 'NONE', #293, 39.37007874015748143 ) ;
#29 = DIRECTION ( 'NONE',  ( 9.797174393178829848E-17, 1.000000000000000000, -0.000000000000000000 ) ) ;
#30 = ORIENTED_EDGE ( 'NONE', *, *, #172, .T. ) ;
#31 =( NAMED_UNIT ( * ) PLANE_ANGLE_UNIT ( ) SI_UNIT ( $, .RADIAN. ) );
#32 = CLOSED_SHELL ( 'NONE', ( #180, #195, #140, #66 ) ) ;
#33 = MECHANICAL_DESIGN_GEOMETRIC_PRESENTATION_REPRESENTATION (  '', ( #132 ), #257 ) ;
#34 =( GEOMETRIC_REPRESENTATION_CONTEXT ( 3 ) GLOBAL_UNCERTAINTY_ASSIGNED_CONTEXT ( ( #64 ) ) GLOBAL_UNIT_ASSIGNED_CONTEXT ( ( #183, #31, #208 ) ) REPRESENTATION_CONTEXT ( 'NONE', 'WORKASPACE' ) );
#35 = EDGE_CURVE ( 'NONE', #130, #250, #232, .T. ) ;
#36 = DIRECTION ( 'NONE',  ( 0.000000000000000000, 0.000000000000000000, -1.000000000000000000 ) ) ;
#37 = AXIS2_PLACEMENT_3D ( 'NONE', #265, #165, #95 ) ;
#38 = SURFACE_SIDE_STYLE ('',( #256 ) ) ;
#39 = FILL_AREA_STYLE_COLOUR ( '', #284 ) ;
#40 = APPLICATION_PROTOCOL_DEFINITION ( 'draft international standard', 'automotive_design', 1998, #296 ) ;
#41 = FACE_OUTER_BOUND ( 'NONE', #248, .T. ) ;
#42 = DIRECTION ( 'NONE',  ( -1.000000000000000000, 0.000000000000000000, 0.000000000000000000 ) ) ;
#43 = DIRECTION ( 'NONE',  ( 1.000000000000000000, 0.000000000000000000, 0.000000000000000000 ) ) ;
#44 = FILL_AREA_STYLE ('',( #261 ) ) ;
#45 = PRESENTATION_STYLE_ASSIGNMENT (( #161 ) ) ;
#46 = DIRECTION ( 'NONE',  ( -1.000000000000000000, 0.000000000000000000, 0.000000000000000000 ) ) ;
#47 = STYLED_ITEM ( 'NONE', ( #45 ), #120 ) ;
#48 = FILL_AREA_STYLE ('',( #281 ) ) ;
#49 = CARTESIAN_POINT ( 'NONE',  ( 0.000000000000000000, 0.000000000000000000, -0.5000000000000000000 ) ) ;
#50 = CARTESIAN_POINT ( 'NONE',  ( 0.000000000000000000, 0.000000000000000000, -0.5000000000000000000 ) ) ;
#51 = CARTESIAN_POINT ( 'NONE',  ( 6.123233995736766036E-17, 0.000000000000000000, 0.5000000000000000000 ) ) ;
#52 = VERTEX_POINT ( 'NONE', #189 ) ;
#53 = CIRCLE ( 'NONE', #309, 0.4999999999999997224 ) ;
#54 = CARTESIAN_POINT ( 'NONE',  ( 0.000000000000000000, 1.500000000000000222, 0.000000000000000000 ) ) ;
#55 = EDGE_LOOP ( 'NONE', ( #272, #275 ) ) ;
#56 = ORIENTED_EDGE ( 'NONE', *, *, #172, .F. ) ;
#57 = FILL_AREA_STYLE ('',( #85 ) ) ;
#58 = ORIENTED_EDGE ( 'NONE', *, *, #125, .T. ) ;
#59 = EDGE_CURVE ( 'NONE', #280, #157, #164, .T. ) ;
#60 = CARTESIAN_POINT ( 'NONE',  ( 0.5000000000000001110, 4.000000000000000000, 6.123233995736766036E-17 ) ) ;
#61 = AXIS2_PLACEMENT_3D ( 'NONE', #72, #115, #42 ) ;
#62 = COLOUR_RGB ( '',0.7921568627450980005, 0.8196078431372548767, 0.9333333333333333481 ) ;
#63 = ORIENTED_EDGE ( 'NONE', *, *, #111, .F. ) ;
#64 = UNCERTAINTY_MEASURE_WITH_UNIT (LENGTH_MEASURE( 1.000000000000000082E-05 ), #183, 'distance_accuracy_value', 'NONE');
#65 =( NAMED_UNIT ( * ) PLANE_ANGLE_UNIT ( ) SI_UNIT ( $, .RADIAN. ) );
#66 = ADVANCED_FACE ( 'NONE', ( #92 ), #68, .F. ) ;
#67 = MANIFOLD_SOLID_BREP ( 'Revolve - Cutting Edge', #117 ) ;
#68 = PLANE ( 'NONE',  #37 ) ;
#69 = CYLINDRICAL_SURFACE ( 'NONE', #109, 0.5000000000000000000 ) ;
#70 = COLOUR_RGB ( '',0.7921568627450980005, 0.8196078431372548767, 0.9333333333333333481 ) ;
#71 = DIMENSIONAL_EXPONENTS ( 1.000000000000000000, 0.000000000000000000, 0.000000000000000000, 0.000000000000000000, 0.000000000000000000, 0.000000000000000000, 0.000000000000000000 ) ;
#72 = CARTESIAN_POINT ( 'NONE',  ( 0.000000000000000000, 1.499999999999999778, 0.000000000000000000 ) ) ;
#73 = FILL_AREA_STYLE ('',( #39 ) ) ;
#74 = CARTESIAN_POINT ( 'NONE',  ( 2.399615652258974294E-33, 1.500000000000000222, 0.000000000000000000 ) ) ;
#75 = FILL_AREA_STYLE_COLOUR ( '', #215 ) ;
#76 = FACE_OUTER_BOUND ( 'NONE', #11, .T. ) ;
#77 = DIRECTION ( 'NONE',  ( -0.000000000000000000, -1.000000000000000000, -0.000000000000000000 ) ) ;
#78 = COLOUR_RGB ( '',1.000000000000000000, 0.000000000000000000, 0.000000000000000000 ) ;
#79 = DIRECTION ( 'NONE',  ( -1.000000000000000000, 0.000000000000000000, 0.000000000000000000 ) ) ;
#80 = UNCERTAINTY_MEASURE_WITH_UNIT (LENGTH_MEASURE( 1.000000000000000082E-05 ), #249, 'distance_accuracy_value', 'NONE');
#81 = LINE ( 'NONE', #49, #146 ) ;
#82 = DIMENSIONAL_EXPONENTS ( 1.000000000000000000, 0.000000000000000000, 0.000000000000000000, 0.000000000000000000, 0.000000000000000000, 0.000000000000000000, 0.000000000000000000 ) ;
#83 = FACE_OUTER_BOUND ( 'NONE', #217, .T. ) ;
#84 = CIRCLE ( 'NONE', #159, 0.5000000000000000000 ) ;
#85 = FILL_AREA_STYLE_COLOUR ( '', #62 ) ;
#86 = UNCERTAINTY_MEASURE_WITH_UNIT (LENGTH_MEASURE( 1.000000000000000082E-05 ), #229, 'distance_accuracy_value', 'NONE');
#87 = DIRECTION ( 'NONE',  ( -1.000000000000000000, 0.000000000000000000, 0.000000000000000000 ) ) ;
#88 = CARTESIAN_POINT ( 'NONE',  ( 2.449293598294707400E-16, 4.000000000000000000, 0.000000000000000000 ) ) ;
#89 = ORIENTED_EDGE ( 'NONE', *, *, #251, .T. ) ;
#90 = AXIS2_PLACEMENT_3D ( 'NONE', #151, #240, #270 ) ;
#91 = UNCERTAINTY_MEASURE_WITH_UNIT (LENGTH_MEASURE( 1.000000000000000082E-05 ), #271, 'distance_accuracy_value', 'NONE');
#92 = FACE_OUTER_BOUND ( 'NONE', #218, .T. ) ;
#93 = DIRECTION ( 'NONE',  ( 9.797174393178829848E-17, 1.000000000000000000, -0.000000000000000000 ) ) ;
#94 = AXIS2_PLACEMENT_3D ( 'NONE', #291, #24, #237 ) ;
#95 = DIRECTION ( 'NONE',  ( 1.000000000000000000, -9.797174393178829848E-17, 0.000000000000000000 ) ) ;
#96 = DIRECTION ( 'NONE',  ( 0.000000000000000000, -1.000000000000000000, -0.000000000000000000 ) ) ;
#97 = CARTESIAN_POINT ( 'NONE',  ( 6.123233995736766036E-17, 0.000000000000000000, 0.5000000000000000000 ) ) ;
#98 = ORIENTED_EDGE ( 'NONE', *, *, #220, .T. ) ;
#99 = FILL_AREA_STYLE ('',( #269 ) ) ;
#100 = DIRECTION ( 'NONE',  ( 0.000000000000000000, 0.000000000000000000, -1.000000000000000000 ) ) ;
#101 = AXIS2_PLACEMENT_3D ( 'NONE', #211, #23, #46 ) ;
#102 = PRODUCT_DEFINITION_FORMATION_WITH_SPECIFIED_SOURCE ( 'ANY', '', #260, .NOT_KNOWN. ) ;
#103 = EDGE_LOOP ( 'NONE', ( #63, #138 ) ) ;
#104 = DIRECTION ( 'NONE',  ( -1.000000000000000000, 0.000000000000000000, 0.000000000000000000 ) ) ;
#105 = ORIENTED_EDGE ( 'NONE', *, *, #289, .T. ) ;
#106 = COLOUR_RGB ( '',1.000000000000000000, 0.000000000000000000, 0.000000000000000000 ) ;
#107 = ORIENTED_EDGE ( 'NONE', *, *, #125, .F. ) ;
#108 = ORIENTED_EDGE ( 'NONE', *, *, #223, .T. ) ;
#109 = AXIS2_PLACEMENT_3D ( 'NONE', #156, #178, #36 ) ;
#110 = PRESENTATION_LAYER_ASSIGNMENT (  '', '', ( #6 ) ) ;
#111 = EDGE_CURVE ( 'NONE', #279, #198, #192, .T. ) ;
#112 = DIRECTION ( 'NONE',  ( -1.000000000000000000, 0.000000000000000000, 0.000000000000000000 ) ) ;
#113 = DIRECTION ( 'NONE',  ( 0.000000000000000000, 0.000000000000000000, -1.000000000000000000 ) ) ;
#114 = CARTESIAN_POINT ( 'NONE',  ( 2.449293598294707400E-16, 4.000000000000000000, 0.000000000000000000 ) ) ;
#115 = DIRECTION ( 'NONE',  ( 9.797174393178829848E-17, 1.000000000000000000, -0.000000000000000000 ) ) ;
#116 = APPLICATION_PROTOCOL_DEFINITION ( 'draft international standard', 'automotive_design', 1998, #264 ) ;
#117 = CLOSED_SHELL ( 'NONE', ( #201, #120, #196, #137 ) ) ;
#118 = AXIS2_PLACEMENT_3D ( 'NONE', #114, #285, #112 ) ;
#119 = PRESENTATION_STYLE_ASSIGNMENT (( #19 ) ) ;
#120 = ADVANCED_FACE ( 'NONE', ( #17 ), #226, .T. ) ;
#121 = CYLINDRICAL_SURFACE ( 'NONE', #101, 0.4999999999999998335 ) ;
#122 = DIRECTION ( 'NONE',  ( -0.000000000000000000, -1.000000000000000000, -0.000000000000000000 ) ) ;
#123 = CARTESIAN_POINT ( 'NONE',  ( 0.000000000000000000, 0.000000000000000000, 0.000000000000000000 ) ) ;
#124 = SURFACE_STYLE_FILL_AREA ( #99 ) ;
#125 = EDGE_CURVE ( 'NONE', #198, #130, #25, .T. ) ;
#126 = STYLED_ITEM ( 'NONE', ( #242 ), #137 ) ;
#127 =( NAMED_UNIT ( * ) SI_UNIT ( $, .STERADIAN. ) SOLID_ANGLE_UNIT ( ) );
#128 = CARTESIAN_POINT ( 'NONE',  ( 0.000000000000000000, 0.000000000000000000, 0.000000000000000000 ) ) ;
#129 = DIMENSIONAL_EXPONENTS ( 1.000000000000000000, 0.000000000000000000, 0.000000000000000000, 0.000000000000000000, 0.000000000000000000, 0.000000000000000000, 0.000000000000000000 ) ;
#130 = VERTEX_POINT ( 'NONE', #97 ) ;
#131 = LENGTH_MEASURE_WITH_UNIT ( LENGTH_MEASURE( 0.02539999999999999897 ), #163 );
#132 = STYLED_ITEM ( 'NONE', ( #119 ), #196 ) ;
#133 =( LENGTH_UNIT ( ) NAMED_UNIT ( * ) SI_UNIT ( $, .METRE. ) );
#134 = ORIENTED_EDGE ( 'NONE', *, *, #289, .F. ) ;
#135 = AXIS2_PLACEMENT_3D ( 'NONE', #3, #96, #258 ) ;
#136 = FACE_OUTER_BOUND ( 'NONE', #255, .T. ) ;
#137 = ADVANCED_FACE ( 'NONE', ( #83 ), #169, .T. ) ;
#138 = ORIENTED_EDGE ( 'NONE', *, *, #220, .F. ) ;
#139 = CARTESIAN_POINT ( 'NONE',  ( 2.449293598294707400E-16, 4.000000000000000000, 0.000000000000000000 ) ) ;
#140 = ADVANCED_FACE ( 'NONE', ( #41 ), #121, .T. ) ;
#141 = DIMENSIONAL_EXPONENTS ( 1.000000000000000000, 0.000000000000000000, 0.000000000000000000, 0.000000000000000000, 0.000000000000000000, 0.000000000000000000, 0.000000000000000000 ) ;
#142 = SURFACE_SIDE_STYLE ('',( #259 ) ) ;
#143 = SURFACE_STYLE_FILL_AREA ( #44 ) ;
#144 = DIMENSIONAL_EXPONENTS ( 1.000000000000000000, 0.000000000000000000, 0.000000000000000000, 0.000000000000000000, 0.000000000000000000, 0.000000000000000000, 0.000000000000000000 ) ;
#145 = PRESENTATION_STYLE_ASSIGNMENT (( #202 ) ) ;
#146 = VECTOR ( 'NONE', #150, 39.37007874015748143 ) ;
#147 = LENGTH_MEASURE_WITH_UNIT ( LENGTH_MEASURE( 0.02539999999999999897 ), #210 );
#148 = CARTESIAN_POINT ( 'NONE',  ( 0.5000000000000001110, 4.000000000000000000, 6.123233995736764803E-17 ) ) ;
#149 = SURFACE_SIDE_STYLE ('',( #124 ) ) ;
#150 = DIRECTION ( 'NONE',  ( -0.000000000000000000, -1.000000000000000000, -0.000000000000000000 ) ) ;
#151 = CARTESIAN_POINT ( 'NONE',  ( 0.000000000000000000, 0.000000000000000000, 0.000000000000000000 ) ) ;
#152 = SURFACE_STYLE_USAGE ( .BOTH. , #149 ) ;
#153 = ORIENTED_EDGE ( 'NONE', *, *, #35, .F. ) ;
#154 = EDGE_CURVE ( 'NONE', #12, #280, #228, .T. ) ;
#155 = LENGTH_MEASURE_WITH_UNIT ( LENGTH_MEASURE( 0.02539999999999999897 ), #133 );
#156 = CARTESIAN_POINT ( 'NONE',  ( 0.000000000000000000, 0.000000000000000000, 0.000000000000000000 ) ) ;
#157 = VERTEX_POINT ( 'NONE', #290 ) ;
#158 = ORIENTED_EDGE ( 'NONE', *, *, #154, .T. ) ;
#159 = AXIS2_PLACEMENT_3D ( 'NONE', #297, #171, #87 ) ;
#160 =( GEOMETRIC_REPRESENTATION_CONTEXT ( 3 ) GLOBAL_UNCERTAINTY_ASSIGNED_CONTEXT ( ( #91 ) ) GLOBAL_UNIT_ASSIGNED_CONTEXT ( ( #271, #1, #273 ) ) REPRESENTATION_CONTEXT ( 'NONE', 'WORKASPACE' ) );
#161 = SURFACE_STYLE_USAGE ( .BOTH. , #38 ) ;
#162 = SURFACE_SIDE_STYLE ('',( #225 ) ) ;
#163 =( LENGTH_UNIT ( ) NAMED_UNIT ( * ) SI_UNIT ( $, .METRE. ) );
#164 = CIRCLE ( 'NONE', #20, 0.4999999999999997224 ) ;
#165 = DIRECTION ( 'NONE',  ( -9.797174393178829848E-17, -1.000000000000000000, 0.000000000000000000 ) ) ;
#166 = DIRECTION ( 'NONE',  ( 0.000000000000000000, 0.000000000000000000, 1.000000000000000000 ) ) ;
#167 = ORIENTED_EDGE ( 'NONE', *, *, #9, .T. ) ;
#168 = MECHANICAL_DESIGN_GEOMETRIC_PRESENTATION_REPRESENTATION (  '', ( #233 ), #182 ) ;
#169 = PLANE ( 'NONE',  #135 ) ;
#170 = PRODUCT_DEFINITION ( 'UNKNOWN', '', #102, #209 ) ;
#171 = DIRECTION ( 'NONE',  ( 9.797174393178829848E-17, 1.000000000000000000, -0.000000000000000000 ) ) ;
#172 = EDGE_CURVE ( 'NONE', #279, #250, #81, .T. ) ;
#173 = CIRCLE ( 'NONE', #187, 0.5000000000000000000 ) ;
#174 = ORIENTED_EDGE ( 'NONE', *, *, #9, .F. ) ;
#175 = MECHANICAL_DESIGN_GEOMETRIC_PRESENTATION_REPRESENTATION (  '', ( #6 ), #276 ) ;
#176 =( NAMED_UNIT ( * ) SI_UNIT ( $, .STERADIAN. ) SOLID_ANGLE_UNIT ( ) );
#177 =( NAMED_UNIT ( * ) SI_UNIT ( $, .STERADIAN. ) SOLID_ANGLE_UNIT ( ) );
#178 = DIRECTION ( 'NONE',  ( -0.000000000000000000, -1.000000000000000000, -0.000000000000000000 ) ) ;
#179 = ORIENTED_EDGE ( 'NONE', *, *, #59, .F. ) ;
#180 = ADVANCED_FACE ( 'NONE', ( #305 ), #238, .T. ) ;
#181 = DIRECTION ( 'NONE',  ( 0.000000000000000000, 0.000000000000000000, -1.000000000000000000 ) ) ;
#182 =( GEOMETRIC_REPRESENTATION_CONTEXT ( 3 ) GLOBAL_UNCERTAINTY_ASSIGNED_CONTEXT ( ( #86 ) ) GLOBAL_UNIT_ASSIGNED_CONTEXT ( ( #229, #262, #267 ) ) REPRESENTATION_CONTEXT ( 'NONE', 'WORKASPACE' ) );
#183 =( CONVERSION_BASED_UNIT ( 'INCH', #13 ) LENGTH_UNIT ( ) NAMED_UNIT ( #71 ) );
#184 = PRESENTATION_STYLE_ASSIGNMENT (( #22 ) ) ;
#185 = SHAPE_DEFINITION_REPRESENTATION ( #286, #188 ) ;
#186 = DIRECTION ( 'NONE',  ( 0.000000000000000000, 0.000000000000000000, -1.000000000000000000 ) ) ;
#187 = AXIS2_PLACEMENT_3D ( 'NONE', #54, #197, #100 ) ;
#188 = ADVANCED_BREP_SHAPE_REPRESENTATION ( '30707', ( #67, #277, #247 ), #34 ) ;
#189 = CARTESIAN_POINT ( 'NONE',  ( -0.5000000000000000000, 1.499999999999999778, 0.000000000000000000 ) ) ;
#190 =( CONVERSION_BASED_UNIT ( 'INCH', #147 ) LENGTH_UNIT ( ) NAMED_UNIT ( #82 ) );
#191 =( LENGTH_UNIT ( ) NAMED_UNIT ( * ) SI_UNIT ( $, .METRE. ) );
#192 = CIRCLE ( 'NONE', #199, 0.5000000000000000000 ) ;
#193 =( LENGTH_UNIT ( ) NAMED_UNIT ( * ) SI_UNIT ( $, .METRE. ) );
#194 = ORIENTED_EDGE ( 'NONE', *, *, #154, .F. ) ;
#195 = ADVANCED_FACE ( 'NONE', ( #204 ), #304, .F. ) ;
#196 = ADVANCED_FACE ( 'NONE', ( #76 ), #69, .T. ) ;
#197 = DIRECTION ( 'NONE',  ( -0.000000000000000000, -1.000000000000000000, -0.000000000000000000 ) ) ;
#198 = VERTEX_POINT ( 'NONE', #278 ) ;
#199 = AXIS2_PLACEMENT_3D ( 'NONE', #21, #77, #186 ) ;
#200 = FILL_AREA_STYLE ('',( #75 ) ) ;
#201 = ADVANCED_FACE ( 'NONE', ( #136 ), #221, .T. ) ;
#202 = SURFACE_STYLE_USAGE ( .BOTH. , #162 ) ;
#203 =( NAMED_UNIT ( * ) PLANE_ANGLE_UNIT ( ) SI_UNIT ( $, .RADIAN. ) );
#204 = FACE_OUTER_BOUND ( 'NONE', #55, .T. ) ;
#205 =( LENGTH_UNIT ( ) NAMED_UNIT ( * ) SI_UNIT ( $, .METRE. ) );
#206 = CARTESIAN_POINT ( 'NONE',  ( 0.000000000000000000, 0.000000000000000000, 0.000000000000000000 ) ) ;
#207 = CIRCLE ( 'NONE', #61, 0.5000000000000000000 ) ;
#208 =( NAMED_UNIT ( * ) SI_UNIT ( $, .STERADIAN. ) SOLID_ANGLE_UNIT ( ) );
#209 = PRODUCT_DEFINITION_CONTEXT ( 'detailed design', #296, 'design' ) ;
#210 =( LENGTH_UNIT ( ) NAMED_UNIT ( * ) SI_UNIT ( $, .METRE. ) );
#211 = CARTESIAN_POINT ( 'NONE',  ( 2.449293598294707400E-16, 4.000000000000000000, 0.000000000000000000 ) ) ;
#212 = LENGTH_MEASURE_WITH_UNIT ( LENGTH_MEASURE( 0.02539999999999999897 ), #193 );
#213 = UNCERTAINTY_MEASURE_WITH_UNIT (LENGTH_MEASURE( 1.000000000000000082E-05 ), #190, 'distance_accuracy_value', 'NONE');
#214 = VECTOR ( 'NONE', #16, 39.37007874015748143 ) ;
#215 = COLOUR_RGB ( '',1.000000000000000000, 0.000000000000000000, 0.000000000000000000 ) ;
#216 =( NAMED_UNIT ( * ) PLANE_ANGLE_UNIT ( ) SI_UNIT ( $, .RADIAN. ) );
#217 = EDGE_LOOP ( 'NONE', ( #105, #15 ) ) ;
#218 = EDGE_LOOP ( 'NONE', ( #89, #252 ) ) ;
#219 = PRESENTATION_LAYER_ASSIGNMENT (  '', '', ( #233 ) ) ;
#220 = EDGE_CURVE ( 'NONE', #198, #279, #173, .T. ) ;
#221 = CYLINDRICAL_SURFACE ( 'NONE', #90, 0.5000000000000000000 ) ;
#222 = CARTESIAN_POINT ( 'NONE',  ( 0.5000000000000001110, 1.499999999999999778, 6.123233995736766036E-17 ) ) ;
#223 = EDGE_CURVE ( 'NONE', #12, #52, #84, .T. ) ;
#224 = PRESENTATION_LAYER_ASSIGNMENT (  '', '', ( #132 ) ) ;
#225 = SURFACE_STYLE_FILL_AREA ( #73 ) ;
#226 = PLANE ( 'NONE',  #94 ) ;
#227 = PRODUCT_CONTEXT ( 'NONE', #264, 'mechanical' ) ;
#228 = LINE ( 'NONE', #148, #214 ) ;
#229 =( CONVERSION_BASED_UNIT ( 'INCH', #283 ) LENGTH_UNIT ( ) NAMED_UNIT ( #129 ) );
#230 = SURFACE_SIDE_STYLE ('',( #143 ) ) ;
#231 = DIRECTION ( 'NONE',  ( 9.797174393178829848E-17, 1.000000000000000000, -0.000000000000000000 ) ) ;
#232 = CIRCLE ( 'NONE', #5, 0.5000000000000000000 ) ;
#233 = STYLED_ITEM ( 'NONE', ( #184 ), #67 ) ;
#234 = AXIS2_PLACEMENT_3D ( 'NONE', #128, #253, #181 ) ;
#235 =( NAMED_UNIT ( * ) PLANE_ANGLE_UNIT ( ) SI_UNIT ( $, .RADIAN. ) );
#236 = DIMENSIONAL_EXPONENTS ( 1.000000000000000000, 0.000000000000000000, 0.000000000000000000, 0.000000000000000000, 0.000000000000000000, 0.000000000000000000, 0.000000000000000000 ) ;
#237 = DIRECTION ( 'NONE',  ( 0.000000000000000000, -0.000000000000000000, 1.000000000000000000 ) ) ;
#238 = CYLINDRICAL_SURFACE ( 'NONE', #118, 0.4999999999999998335 ) ;
#239 =( GEOMETRIC_REPRESENTATION_CONTEXT ( 3 ) GLOBAL_UNCERTAINTY_ASSIGNED_CONTEXT ( ( #213 ) ) GLOBAL_UNIT_ASSIGNED_CONTEXT ( ( #190, #235, #127 ) ) REPRESENTATION_CONTEXT ( 'NONE', 'WORKASPACE' ) );
#240 = DIRECTION ( 'NONE',  ( -0.000000000000000000, -1.000000000000000000, -0.000000000000000000 ) ) ;
#241 = CIRCLE ( 'NONE', #234, 0.5000000000000000000 ) ;
#242 = PRESENTATION_STYLE_ASSIGNMENT (( #152 ) ) ;
#243 = ORIENTED_EDGE ( 'NONE', *, *, #251, .F. ) ;
#244 = ORIENTED_EDGE ( 'NONE', *, *, #111, .T. ) ;
#245 = SURFACE_STYLE_FILL_AREA ( #57 ) ;
#246 =( CONVERSION_BASED_UNIT ( 'INCH', #155 ) LENGTH_UNIT ( ) NAMED_UNIT ( #144 ) );
#247 = AXIS2_PLACEMENT_3D ( 'NONE', #123, #166, #43 ) ;
#248 = EDGE_LOOP ( 'NONE', ( #194, #108, #167, #179 ) ) ;
#249 =( CONVERSION_BASED_UNIT ( 'INCH', #8 ) LENGTH_UNIT ( ) NAMED_UNIT ( #236 ) );
#250 = VERTEX_POINT ( 'NONE', #50 ) ;
#251 = EDGE_CURVE ( 'NONE', #157, #280, #53, .T. ) ;
#252 = ORIENTED_EDGE ( 'NONE', *, *, #59, .T. ) ;
#253 = DIRECTION ( 'NONE',  ( -0.000000000000000000, -1.000000000000000000, -0.000000000000000000 ) ) ;
#254 =( LENGTH_UNIT ( ) NAMED_UNIT ( * ) SI_UNIT ( $, .METRE. ) );
#255 = EDGE_LOOP ( 'NONE', ( #244, #58, #134, #56 ) ) ;
#256 = SURFACE_STYLE_FILL_AREA ( #200 ) ;
#257 =( GEOMETRIC_REPRESENTATION_CONTEXT ( 3 ) GLOBAL_UNCERTAINTY_ASSIGNED_CONTEXT ( ( #292 ) ) GLOBAL_UNIT_ASSIGNED_CONTEXT ( ( #301, #65, #176 ) ) REPRESENTATION_CONTEXT ( 'NONE', 'WORKASPACE' ) );
#258 = DIRECTION ( 'NONE',  ( 0.000000000000000000, 0.000000000000000000, -1.000000000000000000 ) ) ;
#259 = SURFACE_STYLE_FILL_AREA ( #48 ) ;
#260 = PRODUCT ( '30707', '30707', '', ( #227 ) ) ;
#261 = FILL_AREA_STYLE_COLOUR ( '', #78 ) ;
#262 =( NAMED_UNIT ( * ) PLANE_ANGLE_UNIT ( ) SI_UNIT ( $, .RADIAN. ) );
#263 = PRODUCT_RELATED_PRODUCT_CATEGORY ( 'part', '', ( #260 ) ) ;
#264 = APPLICATION_CONTEXT ( 'automotive_design' ) ;
#265 = CARTESIAN_POINT ( 'NONE',  ( 0.5000000000000000000, 4.000000000000000000, 0.000000000000000000 ) ) ;
#266 = AXIS2_PLACEMENT_3D ( 'NONE', #74, #93, #282 ) ;
#267 =( NAMED_UNIT ( * ) SI_UNIT ( $, .STERADIAN. ) SOLID_ANGLE_UNIT ( ) );
#268 = UNCERTAINTY_MEASURE_WITH_UNIT (LENGTH_MEASURE( 1.000000000000000082E-05 ), #246, 'distance_accuracy_value', 'NONE');
#269 = FILL_AREA_STYLE_COLOUR ( '', #106 ) ;
#270 = DIRECTION ( 'NONE',  ( 0.000000000000000000, 0.000000000000000000, -1.000000000000000000 ) ) ;
#271 =( CONVERSION_BASED_UNIT ( 'INCH', #212 ) LENGTH_UNIT ( ) NAMED_UNIT ( #141 ) );
#272 = ORIENTED_EDGE ( 'NONE', *, *, #4, .F. ) ;
#273 =( NAMED_UNIT ( * ) SI_UNIT ( $, .STERADIAN. ) SOLID_ANGLE_UNIT ( ) );
#274 = PRESENTATION_STYLE_ASSIGNMENT (( #10 ) ) ;
#275 = ORIENTED_EDGE ( 'NONE', *, *, #223, .F. ) ;
#276 =( GEOMETRIC_REPRESENTATION_CONTEXT ( 3 ) GLOBAL_UNCERTAINTY_ASSIGNED_CONTEXT ( ( #268 ) ) GLOBAL_UNIT_ASSIGNED_CONTEXT ( ( #246, #203, #177 ) ) REPRESENTATION_CONTEXT ( 'NONE', 'WORKASPACE' ) );
#277 = MANIFOLD_SOLID_BREP ( 'Revolve - Tool Body (Straight Shanked)', #32 ) ;
#278 = CARTESIAN_POINT ( 'NONE',  ( 6.123233995736766036E-17, 1.500000000000000222, 0.5000000000000000000 ) ) ;
#279 = VERTEX_POINT ( 'NONE', #300 ) ;
#280 = VERTEX_POINT ( 'NONE', #60 ) ;
#281 = FILL_AREA_STYLE_COLOUR ( '', #70 ) ;
#282 = DIRECTION ( 'NONE',  ( -1.000000000000000000, 9.797174393178829848E-17, 0.000000000000000000 ) ) ;
#283 = LENGTH_MEASURE_WITH_UNIT ( LENGTH_MEASURE( 0.02539999999999999897 ), #205 );
#284 = COLOUR_RGB ( '',1.000000000000000000, 0.000000000000000000, 0.000000000000000000 ) ;
#285 = DIRECTION ( 'NONE',  ( 9.797174393178829848E-17, 1.000000000000000000, -0.000000000000000000 ) ) ;
#286 = PRODUCT_DEFINITION_SHAPE ( 'NONE', 'NONE',  #170 ) ;
#287 = LINE ( 'NONE', #303, #294 ) ;
#288 = MECHANICAL_DESIGN_GEOMETRIC_PRESENTATION_REPRESENTATION (  '', ( #308 ), #14 ) ;
#289 = EDGE_CURVE ( 'NONE', #250, #130, #241, .T. ) ;
#290 = CARTESIAN_POINT ( 'NONE',  ( -0.4999999999999994449, 4.000000000000000000, 0.000000000000000000 ) ) ;
#291 = CARTESIAN_POINT ( 'NONE',  ( 0.000000000000000000, 1.500000000000000222, 0.000000000000000000 ) ) ;
#292 = UNCERTAINTY_MEASURE_WITH_UNIT (LENGTH_MEASURE( 1.000000000000000082E-05 ), #301, 'distance_accuracy_value', 'NONE');
#293 = DIRECTION ( 'NONE',  ( -0.000000000000000000, -1.000000000000000000, -0.000000000000000000 ) ) ;
#294 = VECTOR ( 'NONE', #231, 39.37007874015748143 ) ;
#295 = PRESENTATION_LAYER_ASSIGNMENT (  '', '', ( #308 ) ) ;
#296 = APPLICATION_CONTEXT ( 'automotive_design' ) ;
#297 = CARTESIAN_POINT ( 'NONE',  ( 0.000000000000000000, 1.499999999999999778, 0.000000000000000000 ) ) ;
#298 = ORIENTED_EDGE ( 'NONE', *, *, #4, .T. ) ;
#299 = MECHANICAL_DESIGN_GEOMETRIC_PRESENTATION_REPRESENTATION (  '', ( #126 ), #160 ) ;
#300 = CARTESIAN_POINT ( 'NONE',  ( 0.000000000000000000, 1.500000000000000222, -0.5000000000000000000 ) ) ;
#301 =( CONVERSION_BASED_UNIT ( 'INCH', #131 ) LENGTH_UNIT ( ) NAMED_UNIT ( #18 ) );
#302 = EDGE_LOOP ( 'NONE', ( #298, #158, #243, #174 ) ) ;
#303 = CARTESIAN_POINT ( 'NONE',  ( -0.4999999999999996114, 4.000000000000000000, 0.000000000000000000 ) ) ;
#304 = PLANE ( 'NONE',  #266 ) ;
#305 = FACE_OUTER_BOUND ( 'NONE', #302, .T. ) ;
#306 = PRESENTATION_LAYER_ASSIGNMENT (  '', '', ( #126 ) ) ;
#307 = DIRECTION ( 'NONE',  ( 9.797174393178829848E-17, 1.000000000000000000, -0.000000000000000000 ) ) ;
#308 = STYLED_ITEM ( 'NONE', ( #145 ), #201 ) ;
#309 = AXIS2_PLACEMENT_3D ( 'NONE', #88, #29, #104 ) ;
ENDSEC;
END-ISO-10303-21;
