ISO-10303-21;
HEADER;
FILE_DESCRIPTION (( 'STEP AP214' ),
    '1' );
FILE_NAME ('59623.STEP',
    '2023-07-24T15:16:28',
    ( '' ),
    ( '' ),
    'SwSTEP 2.0',
    'SolidWorks 2023',
    '' );
FILE_SCHEMA (( 'AUTOMOTIVE_DESIGN' ));
ENDSEC;

DATA;
#1 = CARTESIAN_POINT ( 'NONE',  ( 0.000000000000000000, 50.00000000000000000, 0.000000000000000000 ) ) ;
#2 =( NAMED_UNIT ( * ) SI_UNIT ( $, .STERADIAN. ) SOLID_ANGLE_UNIT ( ) );
#3 = VERTEX_POINT ( 'NONE', #206 ) ;
#4 = PRODUCT_RELATED_PRODUCT_CATEGORY ( 'part', '', ( #14 ) ) ;
#5 = DIRECTION ( 'NONE',  ( -1.000000000000000000, 0.000000000000000000, 0.000000000000000000 ) ) ;
#6 = COLOUR_RGB ( '',1.000000000000000000, 0.000000000000000000, 0.000000000000000000 ) ;
#7 = DIRECTION ( 'NONE',  ( -1.252807796048505441E-16, 1.000000000000000000, -0.000000000000000000 ) ) ;
#8 = ORIENTED_EDGE ( 'NONE', *, *, #153, .F. ) ;
#9 = FILL_AREA_STYLE ('',( #224 ) ) ;
#10 = UNCERTAINTY_MEASURE_WITH_UNIT (LENGTH_MEASURE( 1.000000000000000082E-05 ), #315, 'distance_accuracy_value', 'NONE');
#11 = AXIS2_PLACEMENT_3D ( 'NONE', #58, #166, #276 ) ;
#12 = PRESENTATION_LAYER_ASSIGNMENT (  '', '', ( #137 ) ) ;
#13 = AXIS2_PLACEMENT_3D ( 'NONE', #173, #348, #312 ) ;
#14 = PRODUCT ( '59623', '59623', '', ( #321 ) ) ;
#15 = EDGE_CURVE ( 'NONE', #93, #56, #255, .T. ) ;
#16 = PRODUCT_DEFINITION_CONTEXT ( 'detailed design', #346, 'design' ) ;
#17 = SURFACE_STYLE_FILL_AREA ( #319 ) ;
#18 = ORIENTED_EDGE ( 'NONE', *, *, #153, .T. ) ;
#19 = SURFACE_STYLE_USAGE ( .BOTH. , #241 ) ;
#20 = DIRECTION ( 'NONE',  ( 0.000000000000000000, 0.000000000000000000, -1.000000000000000000 ) ) ;
#21 = SHAPE_DEFINITION_REPRESENTATION ( #158, #235 ) ;
#22 = STYLED_ITEM ( 'NONE', ( #358 ), #220 ) ;
#23 =( GEOMETRIC_REPRESENTATION_CONTEXT ( 3 ) GLOBAL_UNCERTAINTY_ASSIGNED_CONTEXT ( ( #357 ) ) GLOBAL_UNIT_ASSIGNED_CONTEXT ( ( #338, #32, #2 ) ) REPRESENTATION_CONTEXT ( 'NONE', 'WORKASPACE' ) );
#24 = CARTESIAN_POINT ( 'NONE',  ( 0.000000000000000000, 0.000000000000000000, 0.000000000000000000 ) ) ;
#25 = PRESENTATION_STYLE_ASSIGNMENT (( #162 ) ) ;
#26 = ORIENTED_EDGE ( 'NONE', *, *, #209, .F. ) ;
#27 = FILL_AREA_STYLE ('',( #285 ) ) ;
#28 = ORIENTED_EDGE ( 'NONE', *, *, #320, .F. ) ;
#29 = CARTESIAN_POINT ( 'NONE',  ( -4.408728476930469278E-15, 124.9999999999999858, 0.000000000000000000 ) ) ;
#30 = PRESENTATION_LAYER_ASSIGNMENT (  '', '', ( #147 ) ) ;
#31 = FILL_AREA_STYLE_COLOUR ( '', #95 ) ;
#32 =( NAMED_UNIT ( * ) PLANE_ANGLE_UNIT ( ) SI_UNIT ( $, .RADIAN. ) );
#33 = FILL_AREA_STYLE ('',( #282 ) ) ;
#34 = CARTESIAN_POINT ( 'NONE',  ( 0.000000000000000000, 50.00000000000000000, -10.00000000000000000 ) ) ;
#35 =( LENGTH_UNIT ( ) NAMED_UNIT ( * ) SI_UNIT ( .MILLI., .METRE. ) );
#36 = SURFACE_SIDE_STYLE ('',( #227 ) ) ;
#37 = CARTESIAN_POINT ( 'NONE',  ( 0.000000000000000000, 1.000000000000000000, 0.000000000000000000 ) ) ;
#38 =( NAMED_UNIT ( * ) PLANE_ANGLE_UNIT ( ) SI_UNIT ( $, .RADIAN. ) );
#39 = DIRECTION ( 'NONE',  ( 0.000000000000000000, 0.000000000000000000, -1.000000000000000000 ) ) ;
#40 = ORIENTED_EDGE ( 'NONE', *, *, #289, .F. ) ;
#41 = CIRCLE ( 'NONE', #246, 10.00000000000000000 ) ;
#42 = COLOUR_RGB ( '',0.7921568627450980005, 0.8196078431372548767, 0.9333333333333333481 ) ;
#43 = DIRECTION ( 'NONE',  ( -1.252807796048505441E-16, 1.000000000000000000, 0.000000000000000000 ) ) ;
#44 = DIRECTION ( 'NONE',  ( -1.252807796048505441E-16, 1.000000000000000000, -0.000000000000000000 ) ) ;
#45 = CARTESIAN_POINT ( 'NONE',  ( 0.000000000000000000, 0.000000000000000000, 0.000000000000000000 ) ) ;
#46 = VECTOR ( 'NONE', #369, 1000.000000000000000 ) ;
#47 = APPLICATION_PROTOCOL_DEFINITION ( 'draft international standard', 'automotive_design', 1998, #346 ) ;
#48 = CARTESIAN_POINT ( 'NONE',  ( 1.163414459189985682E-15, 0.000000000000000000, 9.000000000000001776 ) ) ;
#49 = CIRCLE ( 'NONE', #136, 9.000000000000001776 ) ;
#50 = UNCERTAINTY_MEASURE_WITH_UNIT (LENGTH_MEASURE( 1.000000000000000082E-05 ), #104, 'distance_accuracy_value', 'NONE');
#51 =( NAMED_UNIT ( * ) SI_UNIT ( $, .STERADIAN. ) SOLID_ANGLE_UNIT ( ) );
#52 = PRESENTATION_LAYER_ASSIGNMENT (  '', '', ( #183 ) ) ;
#53 = FACE_OUTER_BOUND ( 'NONE', #135, .T. ) ;
#54 = DIRECTION ( 'NONE',  ( 0.000000000000000000, 0.000000000000000000, -1.000000000000000000 ) ) ;
#55 = DIRECTION ( 'NONE',  ( 0.000000000000000000, 0.000000000000000000, -1.000000000000000000 ) ) ;
#56 = VERTEX_POINT ( 'NONE', #120 ) ;
#57 = DIRECTION ( 'NONE',  ( 0.000000000000000000, 0.000000000000000000, 1.000000000000000000 ) ) ;
#58 = CARTESIAN_POINT ( 'NONE',  ( 0.000000000000000000, 1.000000000000000000, 0.000000000000000000 ) ) ;
#59 = COLOUR_RGB ( '',1.000000000000000000, 0.000000000000000000, 0.000000000000000000 ) ;
#60 = SURFACE_STYLE_FILL_AREA ( #331 ) ;
#61 = ORIENTED_EDGE ( 'NONE', *, *, #327, .F. ) ;
#62 = MECHANICAL_DESIGN_GEOMETRIC_PRESENTATION_REPRESENTATION (  '', ( #147 ), #131 ) ;
#63 = AXIS2_PLACEMENT_3D ( 'NONE', #146, #260, #205 ) ;
#64 = DIRECTION ( 'NONE',  ( -1.252807796048505441E-16, 1.000000000000000000, -0.000000000000000000 ) ) ;
#65 = ORIENTED_EDGE ( 'NONE', *, *, #139, .T. ) ;
#66 = ADVANCED_FACE ( 'NONE', ( #370 ), #266, .T. ) ;
#67 = CARTESIAN_POINT ( 'NONE',  ( 0.000000000000000000, 50.00000000000000000, 0.000000000000000000 ) ) ;
#68 = CARTESIAN_POINT ( 'NONE',  ( 1.224646799147353454E-15, 0.000000000000000000, 10.00000000000000178 ) ) ;
#69 = DIRECTION ( 'NONE',  ( -0.000000000000000000, -1.000000000000000000, -0.000000000000000000 ) ) ;
#70 = AXIS2_PLACEMENT_3D ( 'NONE', #217, #192, #356 ) ;
#71 = PRESENTATION_STYLE_ASSIGNMENT (( #180 ) ) ;
#72 = SURFACE_STYLE_USAGE ( .BOTH. , #145 ) ;
#73 = ADVANCED_FACE ( 'NONE', ( #197 ), #308, .T. ) ;
#74 = CARTESIAN_POINT ( 'NONE',  ( 0.000000000000000000, 0.000000000000000000, 0.000000000000000000 ) ) ;
#75 = SURFACE_SIDE_STYLE ('',( #368 ) ) ;
#76 =( GEOMETRIC_REPRESENTATION_CONTEXT ( 3 ) GLOBAL_UNCERTAINTY_ASSIGNED_CONTEXT ( ( #236 ) ) GLOBAL_UNIT_ASSIGNED_CONTEXT ( ( #111, #212, #51 ) ) REPRESENTATION_CONTEXT ( 'NONE', 'WORKASPACE' ) );
#77 = ADVANCED_FACE ( 'NONE', ( #344 ), #281, .F. ) ;
#78 = CARTESIAN_POINT ( 'NONE',  ( 10.00000000000000000, 124.9999999999999858, 1.224646799147353454E-15 ) ) ;
#79 = SURFACE_STYLE_FILL_AREA ( #322 ) ;
#80 = EDGE_LOOP ( 'NONE', ( #118, #61 ) ) ;
#81 = AXIS2_PLACEMENT_3D ( 'NONE', #198, #98, #154 ) ;
#82 = PRESENTATION_STYLE_ASSIGNMENT (( #163 ) ) ;
#83 = ORIENTED_EDGE ( 'NONE', *, *, #230, .T. ) ;
#84 =( NAMED_UNIT ( * ) PLANE_ANGLE_UNIT ( ) SI_UNIT ( $, .RADIAN. ) );
#85 = ORIENTED_EDGE ( 'NONE', *, *, #203, .T. ) ;
#86 = DIRECTION ( 'NONE',  ( -0.000000000000000000, -1.000000000000000000, -0.000000000000000000 ) ) ;
#87 = EDGE_LOOP ( 'NONE', ( #243, #85, #28, #278 ) ) ;
#88 =( GEOMETRIC_REPRESENTATION_CONTEXT ( 3 ) GLOBAL_UNCERTAINTY_ASSIGNED_CONTEXT ( ( #159 ) ) GLOBAL_UNIT_ASSIGNED_CONTEXT ( ( #264, #237, #269 ) ) REPRESENTATION_CONTEXT ( 'NONE', 'WORKASPACE' ) );
#89 = STYLED_ITEM ( 'NONE', ( #92 ), #99 ) ;
#90 = CARTESIAN_POINT ( 'NONE',  ( -4.408728476930469278E-15, 124.9999999999999858, 0.000000000000000000 ) ) ;
#91 = FACE_OUTER_BOUND ( 'NONE', #80, .T. ) ;
#92 = PRESENTATION_STYLE_ASSIGNMENT (( #337 ) ) ;
#93 = VERTEX_POINT ( 'NONE', #232 ) ;
#94 = PRESENTATION_STYLE_ASSIGNMENT (( #341 ) ) ;
#95 = COLOUR_RGB ( '',0.7921568627450980005, 0.8196078431372548767, 0.9333333333333333481 ) ;
#96 = AXIS2_PLACEMENT_3D ( 'NONE', #1, #272, #20 ) ;
#97 = PRESENTATION_STYLE_ASSIGNMENT (( #72 ) ) ;
#98 = DIRECTION ( 'NONE',  ( -1.000000000000000000, 0.000000000000000000, 0.000000000000000000 ) ) ;
#99 = MANIFOLD_SOLID_BREP ( 'Revolve - Tool Body (Straight Shanked)', #361 ) ;
#100 =( NAMED_UNIT ( * ) SI_UNIT ( $, .STERADIAN. ) SOLID_ANGLE_UNIT ( ) );
#101 = CARTESIAN_POINT ( 'NONE',  ( 4.987329993433320396E-15, 50.00000000000000000, 0.000000000000000000 ) ) ;
#102 =( NAMED_UNIT ( * ) PLANE_ANGLE_UNIT ( ) SI_UNIT ( $, .RADIAN. ) );
#103 = ORIENTED_EDGE ( 'NONE', *, *, #216, .F. ) ;
#104 =( LENGTH_UNIT ( ) NAMED_UNIT ( * ) SI_UNIT ( .MILLI., .METRE. ) );
#105 = DIRECTION ( 'NONE',  ( -0.000000000000000000, -1.000000000000000000, -0.000000000000000000 ) ) ;
#106 = VERTEX_POINT ( 'NONE', #78 ) ;
#107 = EDGE_CURVE ( 'NONE', #332, #144, #132, .T. ) ;
#108 = CIRCLE ( 'NONE', #187, 10.00000000000000178 ) ;
#109 = ORIENTED_EDGE ( 'NONE', *, *, #15, .T. ) ;
#110 = CIRCLE ( 'NONE', #275, 9.999999999999996447 ) ;
#111 =( LENGTH_UNIT ( ) NAMED_UNIT ( * ) SI_UNIT ( .MILLI., .METRE. ) );
#112 = CARTESIAN_POINT ( 'NONE',  ( 0.000000000000000000, 1.000000000000000000, 0.000000000000000000 ) ) ;
#113 = CARTESIAN_POINT ( 'NONE',  ( 1.102182119232617911E-15, 1.000000000000000000, 9.000000000000001776 ) ) ;
#114 = CARTESIAN_POINT ( 'NONE',  ( 1.224646799147353256E-15, 1.000000000000000000, 10.00000000000000178 ) ) ;
#115 = ORIENTED_EDGE ( 'NONE', *, *, #139, .F. ) ;
#116 = LINE ( 'NONE', #221, #355 ) ;
#117 = SURFACE_STYLE_FILL_AREA ( #149 ) ;
#118 = ORIENTED_EDGE ( 'NONE', *, *, #107, .F. ) ;
#119 = LINE ( 'NONE', #283, #46 ) ;
#120 = CARTESIAN_POINT ( 'NONE',  ( 0.000000000000000000, 0.000000000000000000, -9.000000000000001776 ) ) ;
#121 = CIRCLE ( 'NONE', #186, 10.00000000000000533 ) ;
#122 = PRESENTATION_LAYER_ASSIGNMENT (  '', '', ( #199 ) ) ;
#123 = SURFACE_STYLE_FILL_AREA ( #27 ) ;
#124 = FACE_OUTER_BOUND ( 'NONE', #165, .T. ) ;
#125 = ORIENTED_EDGE ( 'NONE', *, *, #267, .T. ) ;
#126 = ADVANCED_FACE ( 'NONE', ( #53 ), #288, .T. ) ;
#127 = SURFACE_STYLE_FILL_AREA ( #33 ) ;
#128 = TOROIDAL_SURFACE ( 'NONE', #11, 9.000000000000001776, 1.000000000000000444 ) ;
#129 = VECTOR ( 'NONE', #105, 1000.000000000000000 ) ;
#130 = DIRECTION ( 'NONE',  ( 1.000000000000000000, 0.000000000000000000, 0.000000000000000000 ) ) ;
#131 =( GEOMETRIC_REPRESENTATION_CONTEXT ( 3 ) GLOBAL_UNCERTAINTY_ASSIGNED_CONTEXT ( ( #240 ) ) GLOBAL_UNIT_ASSIGNED_CONTEXT ( ( #231, #259, #142 ) ) REPRESENTATION_CONTEXT ( 'NONE', 'WORKASPACE' ) );
#132 = CIRCLE ( 'NONE', #96, 10.00000000000000000 ) ;
#133 = FILL_AREA_STYLE_COLOUR ( '', #59 ) ;
#134 = SURFACE_SIDE_STYLE ('',( #127 ) ) ;
#135 = EDGE_LOOP ( 'NONE', ( #273, #125, #109, #103 ) ) ;
#136 = AXIS2_PLACEMENT_3D ( 'NONE', #213, #298, #54 ) ;
#137 = STYLED_ITEM ( 'NONE', ( #189 ), #126 ) ;
#138 = SURFACE_STYLE_USAGE ( .BOTH. , #143 ) ;
#139 = EDGE_CURVE ( 'NONE', #106, #362, #181, .T. ) ;
#140 = DIRECTION ( 'NONE',  ( 0.000000000000000000, 0.000000000000000000, -1.000000000000000000 ) ) ;
#141 = ORIENTED_EDGE ( 'NONE', *, *, #289, .T. ) ;
#142 =( NAMED_UNIT ( * ) SI_UNIT ( $, .STERADIAN. ) SOLID_ANGLE_UNIT ( ) );
#143 = SURFACE_SIDE_STYLE ('',( #60 ) ) ;
#144 = VERTEX_POINT ( 'NONE', #242 ) ;
#145 = SURFACE_SIDE_STYLE ('',( #123 ) ) ;
#146 = CARTESIAN_POINT ( 'NONE',  ( 10.00000000000000000, 124.9999999999999858, 0.000000000000000000 ) ) ;
#147 = STYLED_ITEM ( 'NONE', ( #97 ), #301 ) ;
#148 = COLOUR_RGB ( '',1.000000000000000000, 0.000000000000000000, 0.000000000000000000 ) ;
#149 = FILL_AREA_STYLE ('',( #31 ) ) ;
#150 = ADVANCED_FACE ( 'NONE', ( #244 ), #325, .T. ) ;
#151 = CARTESIAN_POINT ( 'NONE',  ( -4.408728476930469278E-15, 124.9999999999999858, 0.000000000000000000 ) ) ;
#152 = DIRECTION ( 'NONE',  ( -1.252807796048505441E-16, 1.000000000000000000, -0.000000000000000000 ) ) ;
#153 = EDGE_CURVE ( 'NONE', #3, #207, #110, .T. ) ;
#154 = DIRECTION ( 'NONE',  ( 0.000000000000000000, 0.000000000000000000, 1.000000000000000000 ) ) ;
#155 = COLOUR_RGB ( '',1.000000000000000000, 0.000000000000000000, 0.000000000000000000 ) ;
#156 = ADVANCED_FACE ( 'NONE', ( #124 ), #349, .F. ) ;
#157 = APPLICATION_CONTEXT ( 'automotive_design' ) ;
#158 = PRODUCT_DEFINITION_SHAPE ( 'NONE', 'NONE',  #250 ) ;
#159 = UNCERTAINTY_MEASURE_WITH_UNIT (LENGTH_MEASURE( 1.000000000000000082E-05 ), #264, 'distance_accuracy_value', 'NONE');
#160 = AXIS2_PLACEMENT_3D ( 'NONE', #101, #43, #364 ) ;
#161 = STYLED_ITEM ( 'NONE', ( #25 ), #73 ) ;
#162 = SURFACE_STYLE_USAGE ( .BOTH. , #134 ) ;
#163 = SURFACE_STYLE_USAGE ( .BOTH. , #297 ) ;
#164 = DIRECTION ( 'NONE',  ( -0.000000000000000000, -1.000000000000000000, -0.000000000000000000 ) ) ;
#165 = EDGE_LOOP ( 'NONE', ( #8, #26 ) ) ;
#166 = DIRECTION ( 'NONE',  ( -0.000000000000000000, -1.000000000000000000, -0.000000000000000000 ) ) ;
#167 = AXIS2_PLACEMENT_3D ( 'NONE', #113, #252, #307 ) ;
#168 = COLOUR_RGB ( '',1.000000000000000000, 0.000000000000000000, 0.000000000000000000 ) ;
#169 = ORIENTED_EDGE ( 'NONE', *, *, #316, .T. ) ;
#170 = FACE_OUTER_BOUND ( 'NONE', #258, .T. ) ;
#171 = ORIENTED_EDGE ( 'NONE', *, *, #296, .T. ) ;
#172 = DIRECTION ( 'NONE',  ( -0.000000000000000000, -1.000000000000000000, -0.000000000000000000 ) ) ;
#173 = CARTESIAN_POINT ( 'NONE',  ( 0.000000000000000000, 0.000000000000000000, 0.000000000000000000 ) ) ;
#174 =( NAMED_UNIT ( * ) SI_UNIT ( $, .STERADIAN. ) SOLID_ANGLE_UNIT ( ) );
#175 = ORIENTED_EDGE ( 'NONE', *, *, #270, .F. ) ;
#176 = AXIS2_PLACEMENT_3D ( 'NONE', #45, #57, #130 ) ;
#177 = DIRECTION ( 'NONE',  ( 0.000000000000000000, 1.000000000000000000, 0.000000000000000000 ) ) ;
#178 = VERTEX_POINT ( 'NONE', #114 ) ;
#179 = DIRECTION ( 'NONE',  ( -0.000000000000000000, -1.000000000000000000, -0.000000000000000000 ) ) ;
#180 = SURFACE_STYLE_USAGE ( .BOTH. , #36 ) ;
#181 = CIRCLE ( 'NONE', #70, 10.00000000000000533 ) ;
#182 = PRESENTATION_LAYER_ASSIGNMENT (  '', '', ( #342 ) ) ;
#183 = STYLED_ITEM ( 'NONE', ( #82 ), #150 ) ;
#184 =( NAMED_UNIT ( * ) PLANE_ANGLE_UNIT ( ) SI_UNIT ( $, .RADIAN. ) );
#185 = FACE_OUTER_BOUND ( 'NONE', #190, .T. ) ;
#186 = AXIS2_PLACEMENT_3D ( 'NONE', #90, #152, #5 ) ;
#187 = AXIS2_PLACEMENT_3D ( 'NONE', #37, #311, #201 ) ;
#188 =( NAMED_UNIT ( * ) SI_UNIT ( $, .STERADIAN. ) SOLID_ANGLE_UNIT ( ) );
#189 = PRESENTATION_STYLE_ASSIGNMENT (( #138 ) ) ;
#190 = EDGE_LOOP ( 'NONE', ( #323, #233, #300, #248 ) ) ;
#191 = AXIS2_PLACEMENT_3D ( 'NONE', #251, #177, #363 ) ;
#192 = DIRECTION ( 'NONE',  ( -1.252807796048505441E-16, 1.000000000000000000, -0.000000000000000000 ) ) ;
#193 = ORIENTED_EDGE ( 'NONE', *, *, #270, .T. ) ;
#194 = DIRECTION ( 'NONE',  ( -0.000000000000000000, -1.000000000000000000, -0.000000000000000000 ) ) ;
#195 =( NAMED_UNIT ( * ) PLANE_ANGLE_UNIT ( ) SI_UNIT ( $, .RADIAN. ) );
#196 = LINE ( 'NONE', #68, #129 ) ;
#197 = FACE_OUTER_BOUND ( 'NONE', #326, .T. ) ;
#198 = CARTESIAN_POINT ( 'NONE',  ( 0.000000000000000000, 1.000000000000000000, -9.000000000000001776 ) ) ;
#199 = STYLED_ITEM ( 'NONE', ( #71 ), #66 ) ;
#200 = AXIS2_PLACEMENT_3D ( 'NONE', #74, #179, #39 ) ;
#201 = DIRECTION ( 'NONE',  ( 0.000000000000000000, 0.000000000000000000, -1.000000000000000000 ) ) ;
#202 = FILL_AREA_STYLE ('',( #253 ) ) ;
#203 = EDGE_CURVE ( 'NONE', #144, #178, #196, .T. ) ;
#204 =( LENGTH_UNIT ( ) NAMED_UNIT ( * ) SI_UNIT ( .MILLI., .METRE. ) );
#205 = DIRECTION ( 'NONE',  ( 1.000000000000000000, 1.252807796048505441E-16, 0.000000000000000000 ) ) ;
#206 = CARTESIAN_POINT ( 'NONE',  ( -9.999999999999991118, 50.00000000000000000, 0.000000000000000000 ) ) ;
#207 = VERTEX_POINT ( 'NONE', #265 ) ;
#208 = PRESENTATION_LAYER_ASSIGNMENT (  '', '', ( #89 ) ) ;
#209 = EDGE_CURVE ( 'NONE', #207, #3, #366, .T. ) ;
#210 = UNCERTAINTY_MEASURE_WITH_UNIT (LENGTH_MEASURE( 1.000000000000000082E-05 ), #204, 'distance_accuracy_value', 'NONE');
#211 = PRESENTATION_LAYER_ASSIGNMENT (  '', '', ( #161 ) ) ;
#212 =( NAMED_UNIT ( * ) PLANE_ANGLE_UNIT ( ) SI_UNIT ( $, .RADIAN. ) );
#213 = CARTESIAN_POINT ( 'NONE',  ( 0.000000000000000000, 0.000000000000000000, 0.000000000000000000 ) ) ;
#214 = FILL_AREA_STYLE_COLOUR ( '', #313 ) ;
#215 = MECHANICAL_DESIGN_GEOMETRIC_PRESENTATION_REPRESENTATION (  '', ( #89 ), #295 ) ;
#216 = EDGE_CURVE ( 'NONE', #218, #56, #49, .T. ) ;
#217 = CARTESIAN_POINT ( 'NONE',  ( -4.408728476930469278E-15, 124.9999999999999858, 0.000000000000000000 ) ) ;
#218 = VERTEX_POINT ( 'NONE', #48 ) ;
#219 = CARTESIAN_POINT ( 'NONE',  ( 0.000000000000000000, 1.000000000000000000, 0.000000000000000000 ) ) ;
#220 = ADVANCED_FACE ( 'NONE', ( #185 ), #128, .T. ) ;
#221 = CARTESIAN_POINT ( 'NONE',  ( -10.00000000000000533, 124.9999999999999858, 0.000000000000000000 ) ) ;
#222 = DIRECTION ( 'NONE',  ( -0.000000000000000000, -1.000000000000000000, -0.000000000000000000 ) ) ;
#223 = PLANE ( 'NONE',  #191 ) ;
#224 = FILL_AREA_STYLE_COLOUR ( '', #168 ) ;
#225 = PRESENTATION_LAYER_ASSIGNMENT (  '', '', ( #22 ) ) ;
#226 = DIRECTION ( 'NONE',  ( 0.000000000000000000, 0.000000000000000000, -1.000000000000000000 ) ) ;
#227 = SURFACE_STYLE_FILL_AREA ( #9 ) ;
#228 = AXIS2_PLACEMENT_3D ( 'NONE', #219, #194, #306 ) ;
#229 = MECHANICAL_DESIGN_GEOMETRIC_PRESENTATION_REPRESENTATION (  '', ( #161 ), #304 ) ;
#230 = EDGE_CURVE ( 'NONE', #56, #218, #291, .T. ) ;
#231 =( LENGTH_UNIT ( ) NAMED_UNIT ( * ) SI_UNIT ( .MILLI., .METRE. ) );
#232 = CARTESIAN_POINT ( 'NONE',  ( 0.000000000000000000, 1.000000000000000000, -10.00000000000000178 ) ) ;
#233 = ORIENTED_EDGE ( 'NONE', *, *, #318, .T. ) ;
#234 = APPLICATION_PROTOCOL_DEFINITION ( 'draft international standard', 'automotive_design', 1998, #157 ) ;
#235 = ADVANCED_BREP_SHAPE_REPRESENTATION ( '59623', ( #340, #99, #176 ), #88 ) ;
#236 = UNCERTAINTY_MEASURE_WITH_UNIT (LENGTH_MEASURE( 1.000000000000000082E-05 ), #111, 'distance_accuracy_value', 'NONE');
#237 =( NAMED_UNIT ( * ) PLANE_ANGLE_UNIT ( ) SI_UNIT ( $, .RADIAN. ) );
#238 = ADVANCED_FACE ( 'NONE', ( #249 ), #367, .T. ) ;
#239 =( GEOMETRIC_REPRESENTATION_CONTEXT ( 3 ) GLOBAL_UNCERTAINTY_ASSIGNED_CONTEXT ( ( #50 ) ) GLOBAL_UNIT_ASSIGNED_CONTEXT ( ( #104, #184, #354 ) ) REPRESENTATION_CONTEXT ( 'NONE', 'WORKASPACE' ) );
#240 = UNCERTAINTY_MEASURE_WITH_UNIT (LENGTH_MEASURE( 1.000000000000000082E-05 ), #231, 'distance_accuracy_value', 'NONE');
#241 = SURFACE_SIDE_STYLE ('',( #17 ) ) ;
#242 = CARTESIAN_POINT ( 'NONE',  ( 1.224646799147353256E-15, 50.00000000000000000, 10.00000000000000000 ) ) ;
#243 = ORIENTED_EDGE ( 'NONE', *, *, #107, .T. ) ;
#244 = FACE_OUTER_BOUND ( 'NONE', #274, .T. ) ;
#245 = EDGE_LOOP ( 'NONE', ( #284, #305, #141, #115 ) ) ;
#246 = AXIS2_PLACEMENT_3D ( 'NONE', #67, #172, #226 ) ;
#247 = MECHANICAL_DESIGN_GEOMETRIC_PRESENTATION_REPRESENTATION (  '', ( #199 ), #292 ) ;
#248 = ORIENTED_EDGE ( 'NONE', *, *, #15, .F. ) ;
#249 = FACE_OUTER_BOUND ( 'NONE', #245, .T. ) ;
#250 = PRODUCT_DEFINITION ( 'UNKNOWN', '', #262, #16 ) ;
#251 = CARTESIAN_POINT ( 'NONE',  ( 0.000000000000000000, 50.00000000000000000, 0.000000000000000000 ) ) ;
#252 = DIRECTION ( 'NONE',  ( 1.000000000000000000, 0.000000000000000000, -1.224646799147353207E-16 ) ) ;
#253 = FILL_AREA_STYLE_COLOUR ( '', #42 ) ;
#254 = CIRCLE ( 'NONE', #167, 1.000000000000000888 ) ;
#255 = CIRCLE ( 'NONE', #81, 1.000000000000000888 ) ;
#256 = CARTESIAN_POINT ( 'NONE',  ( 0.000000000000000000, 0.000000000000000000, 0.000000000000000000 ) ) ;
#257 = DIRECTION ( 'NONE',  ( -1.252807796048505441E-16, 1.000000000000000000, -0.000000000000000000 ) ) ;
#258 = EDGE_LOOP ( 'NONE', ( #18, #169, #175, #40 ) ) ;
#259 =( NAMED_UNIT ( * ) PLANE_ANGLE_UNIT ( ) SI_UNIT ( $, .RADIAN. ) );
#260 = DIRECTION ( 'NONE',  ( 1.252807796048505441E-16, -1.000000000000000000, 0.000000000000000000 ) ) ;
#261 = CARTESIAN_POINT ( 'NONE',  ( 4.987329993433318819E-15, 50.00000000000000000, 0.000000000000000000 ) ) ;
#262 = PRODUCT_DEFINITION_FORMATION_WITH_SPECIFIED_SOURCE ( 'ANY', '', #14, .NOT_KNOWN. ) ;
#263 = AXIS2_PLACEMENT_3D ( 'NONE', #256, #222, #339 ) ;
#264 =( LENGTH_UNIT ( ) NAMED_UNIT ( * ) SI_UNIT ( .MILLI., .METRE. ) );
#265 = CARTESIAN_POINT ( 'NONE',  ( 10.00000000000000355, 50.00000000000000000, 1.224646799147353848E-15 ) ) ;
#266 = CYLINDRICAL_SURFACE ( 'NONE', #263, 10.00000000000000178 ) ;
#267 = EDGE_CURVE ( 'NONE', #178, #93, #108, .T. ) ;
#268 = VECTOR ( 'NONE', #69, 1000.000000000000000 ) ;
#269 =( NAMED_UNIT ( * ) SI_UNIT ( $, .STERADIAN. ) SOLID_ANGLE_UNIT ( ) );
#270 = EDGE_CURVE ( 'NONE', #362, #106, #121, .T. ) ;
#271 = CLOSED_SHELL ( 'NONE', ( #66, #220, #73, #126, #150, #301 ) ) ;
#272 = DIRECTION ( 'NONE',  ( -0.000000000000000000, -1.000000000000000000, -0.000000000000000000 ) ) ;
#273 = ORIENTED_EDGE ( 'NONE', *, *, #318, .F. ) ;
#274 = EDGE_LOOP ( 'NONE', ( #302, #329, #171, #286 ) ) ;
#275 = AXIS2_PLACEMENT_3D ( 'NONE', #261, #7, #287 ) ;
#276 = DIRECTION ( 'NONE',  ( 0.000000000000000000, 0.000000000000000000, -1.000000000000000000 ) ) ;
#277 = CARTESIAN_POINT ( 'NONE',  ( 0.000000000000000000, 0.000000000000000000, -10.00000000000000178 ) ) ;
#278 = ORIENTED_EDGE ( 'NONE', *, *, #296, .F. ) ;
#279 =( NAMED_UNIT ( * ) SI_UNIT ( $, .STERADIAN. ) SOLID_ANGLE_UNIT ( ) );
#280 = DIRECTION ( 'NONE',  ( -1.000000000000000000, 0.000000000000000000, 0.000000000000000000 ) ) ;
#281 = PLANE ( 'NONE',  #63 ) ;
#282 = FILL_AREA_STYLE_COLOUR ( '', #6 ) ;
#283 = CARTESIAN_POINT ( 'NONE',  ( 9.999999999999994671, 124.9999999999999858, 1.224646799147353256E-15 ) ) ;
#284 = ORIENTED_EDGE ( 'NONE', *, *, #316, .F. ) ;
#285 = FILL_AREA_STYLE_COLOUR ( '', #155 ) ;
#286 = ORIENTED_EDGE ( 'NONE', *, *, #267, .F. ) ;
#287 = DIRECTION ( 'NONE',  ( -1.000000000000000000, 0.000000000000000000, 0.000000000000000000 ) ) ;
#288 = TOROIDAL_SURFACE ( 'NONE', #345, 9.000000000000001776, 1.000000000000000444 ) ;
#289 = EDGE_CURVE ( 'NONE', #3, #362, #116, .T. ) ;
#290 = CARTESIAN_POINT ( 'NONE',  ( 4.987329993433318819E-15, 50.00000000000000000, 0.000000000000000000 ) ) ;
#291 = CIRCLE ( 'NONE', #351, 9.000000000000001776 ) ;
#292 =( GEOMETRIC_REPRESENTATION_CONTEXT ( 3 ) GLOBAL_UNCERTAINTY_ASSIGNED_CONTEXT ( ( #210 ) ) GLOBAL_UNIT_ASSIGNED_CONTEXT ( ( #204, #102, #174 ) ) REPRESENTATION_CONTEXT ( 'NONE', 'WORKASPACE' ) );
#293 = ADVANCED_FACE ( 'NONE', ( #170 ), #314, .T. ) ;
#294 = UNCERTAINTY_MEASURE_WITH_UNIT (LENGTH_MEASURE( 1.000000000000000082E-05 ), #328, 'distance_accuracy_value', 'NONE');
#295 =( GEOMETRIC_REPRESENTATION_CONTEXT ( 3 ) GLOBAL_UNCERTAINTY_ASSIGNED_CONTEXT ( ( #10 ) ) GLOBAL_UNIT_ASSIGNED_CONTEXT ( ( #315, #38, #100 ) ) REPRESENTATION_CONTEXT ( 'NONE', 'WORKASPACE' ) );
#296 = EDGE_CURVE ( 'NONE', #332, #93, #336, .T. ) ;
#297 = SURFACE_SIDE_STYLE ('',( #79 ) ) ;
#298 = DIRECTION ( 'NONE',  ( -0.000000000000000000, -1.000000000000000000, -0.000000000000000000 ) ) ;
#299 = FILL_AREA_STYLE_COLOUR ( '', #148 ) ;
#300 = ORIENTED_EDGE ( 'NONE', *, *, #230, .F. ) ;
#301 = ADVANCED_FACE ( 'NONE', ( #91 ), #223, .T. ) ;
#302 = ORIENTED_EDGE ( 'NONE', *, *, #203, .F. ) ;
#303 = MECHANICAL_DESIGN_GEOMETRIC_PRESENTATION_REPRESENTATION (  '', ( #22 ), #350 ) ;
#304 =( GEOMETRIC_REPRESENTATION_CONTEXT ( 3 ) GLOBAL_UNCERTAINTY_ASSIGNED_CONTEXT ( ( #353 ) ) GLOBAL_UNIT_ASSIGNED_CONTEXT ( ( #35, #195, #279 ) ) REPRESENTATION_CONTEXT ( 'NONE', 'WORKASPACE' ) );
#305 = ORIENTED_EDGE ( 'NONE', *, *, #209, .T. ) ;
#306 = DIRECTION ( 'NONE',  ( 0.000000000000000000, 0.000000000000000000, -1.000000000000000000 ) ) ;
#307 = DIRECTION ( 'NONE',  ( -1.224646799147353454E-16, 0.000000000000000000, -1.000000000000000000 ) ) ;
#308 = PLANE ( 'NONE',  #13 ) ;
#309 = AXIS2_PLACEMENT_3D ( 'NONE', #290, #44, #330 ) ;
#310 = AXIS2_PLACEMENT_3D ( 'NONE', #29, #64, #347 ) ;
#311 = DIRECTION ( 'NONE',  ( -0.000000000000000000, -1.000000000000000000, -0.000000000000000000 ) ) ;
#312 = DIRECTION ( 'NONE',  ( 0.000000000000000000, 0.000000000000000000, -1.000000000000000000 ) ) ;
#313 = COLOUR_RGB ( '',1.000000000000000000, 0.000000000000000000, 0.000000000000000000 ) ;
#314 = CYLINDRICAL_SURFACE ( 'NONE', #310, 10.00000000000000000 ) ;
#315 =( LENGTH_UNIT ( ) NAMED_UNIT ( * ) SI_UNIT ( .MILLI., .METRE. ) );
#316 = EDGE_CURVE ( 'NONE', #207, #106, #119, .T. ) ;
#317 = CARTESIAN_POINT ( 'NONE',  ( -10.00000000000001066, 124.9999999999999858, 0.000000000000000000 ) ) ;
#318 = EDGE_CURVE ( 'NONE', #178, #218, #254, .T. ) ;
#319 = FILL_AREA_STYLE ('',( #133 ) ) ;
#320 = EDGE_CURVE ( 'NONE', #93, #178, #324, .T. ) ;
#321 = PRODUCT_CONTEXT ( 'NONE', #157, 'mechanical' ) ;
#322 = FILL_AREA_STYLE ('',( #214 ) ) ;
#323 = ORIENTED_EDGE ( 'NONE', *, *, #320, .T. ) ;
#324 = CIRCLE ( 'NONE', #228, 10.00000000000000178 ) ;
#325 = CYLINDRICAL_SURFACE ( 'NONE', #200, 10.00000000000000178 ) ;
#326 = EDGE_LOOP ( 'NONE', ( #83, #359 ) ) ;
#327 = EDGE_CURVE ( 'NONE', #144, #332, #41, .T. ) ;
#328 =( LENGTH_UNIT ( ) NAMED_UNIT ( * ) SI_UNIT ( .MILLI., .METRE. ) );
#329 = ORIENTED_EDGE ( 'NONE', *, *, #327, .T. ) ;
#330 = DIRECTION ( 'NONE',  ( -1.000000000000000000, 0.000000000000000000, 0.000000000000000000 ) ) ;
#331 = FILL_AREA_STYLE ('',( #299 ) ) ;
#332 = VERTEX_POINT ( 'NONE', #34 ) ;
#333 = MECHANICAL_DESIGN_GEOMETRIC_PRESENTATION_REPRESENTATION (  '', ( #342 ), #239 ) ;
#334 = MECHANICAL_DESIGN_GEOMETRIC_PRESENTATION_REPRESENTATION (  '', ( #137 ), #76 ) ;
#335 = DIRECTION ( 'NONE',  ( -1.252807796048505441E-16, 1.000000000000000000, -0.000000000000000000 ) ) ;
#336 = LINE ( 'NONE', #277, #268 ) ;
#337 = SURFACE_STYLE_USAGE ( .BOTH. , #75 ) ;
#338 =( LENGTH_UNIT ( ) NAMED_UNIT ( * ) SI_UNIT ( .MILLI., .METRE. ) );
#339 = DIRECTION ( 'NONE',  ( 0.000000000000000000, 0.000000000000000000, -1.000000000000000000 ) ) ;
#340 = MANIFOLD_SOLID_BREP ( 'Revolve - Cutting Edge', #271 ) ;
#341 = SURFACE_STYLE_USAGE ( .BOTH. , #343 ) ;
#342 = STYLED_ITEM ( 'NONE', ( #94 ), #340 ) ;
#343 = SURFACE_SIDE_STYLE ('',( #117 ) ) ;
#344 = FACE_OUTER_BOUND ( 'NONE', #365, .T. ) ;
#345 = AXIS2_PLACEMENT_3D ( 'NONE', #112, #86, #55 ) ;
#346 = APPLICATION_CONTEXT ( 'automotive_design' ) ;
#347 = DIRECTION ( 'NONE',  ( -1.000000000000000000, 0.000000000000000000, 0.000000000000000000 ) ) ;
#348 = DIRECTION ( 'NONE',  ( 0.000000000000000000, -1.000000000000000000, -0.000000000000000000 ) ) ;
#349 = PLANE ( 'NONE',  #160 ) ;
#350 =( GEOMETRIC_REPRESENTATION_CONTEXT ( 3 ) GLOBAL_UNCERTAINTY_ASSIGNED_CONTEXT ( ( #294 ) ) GLOBAL_UNIT_ASSIGNED_CONTEXT ( ( #328, #84, #188 ) ) REPRESENTATION_CONTEXT ( 'NONE', 'WORKASPACE' ) );
#351 = AXIS2_PLACEMENT_3D ( 'NONE', #24, #164, #140 ) ;
#352 = MECHANICAL_DESIGN_GEOMETRIC_PRESENTATION_REPRESENTATION (  '', ( #183 ), #23 ) ;
#353 = UNCERTAINTY_MEASURE_WITH_UNIT (LENGTH_MEASURE( 1.000000000000000082E-05 ), #35, 'distance_accuracy_value', 'NONE');
#354 =( NAMED_UNIT ( * ) SI_UNIT ( $, .STERADIAN. ) SOLID_ANGLE_UNIT ( ) );
#355 = VECTOR ( 'NONE', #257, 1000.000000000000000 ) ;
#356 = DIRECTION ( 'NONE',  ( -1.000000000000000000, 0.000000000000000000, 0.000000000000000000 ) ) ;
#357 = UNCERTAINTY_MEASURE_WITH_UNIT (LENGTH_MEASURE( 1.000000000000000082E-05 ), #338, 'distance_accuracy_value', 'NONE');
#358 = PRESENTATION_STYLE_ASSIGNMENT (( #19 ) ) ;
#359 = ORIENTED_EDGE ( 'NONE', *, *, #216, .T. ) ;
#360 = AXIS2_PLACEMENT_3D ( 'NONE', #151, #335, #280 ) ;
#361 = CLOSED_SHELL ( 'NONE', ( #293, #156, #238, #77 ) ) ;
#362 = VERTEX_POINT ( 'NONE', #317 ) ;
#363 = DIRECTION ( 'NONE',  ( 0.000000000000000000, -0.000000000000000000, 1.000000000000000000 ) ) ;
#364 = DIRECTION ( 'NONE',  ( -1.000000000000000000, -1.252807796048505441E-16, 0.000000000000000000 ) ) ;
#365 = EDGE_LOOP ( 'NONE', ( #193, #65 ) ) ;
#366 = CIRCLE ( 'NONE', #309, 9.999999999999996447 ) ;
#367 = CYLINDRICAL_SURFACE ( 'NONE', #360, 10.00000000000000000 ) ;
#368 = SURFACE_STYLE_FILL_AREA ( #202 ) ;
#369 = DIRECTION ( 'NONE',  ( -1.252807796048505441E-16, 1.000000000000000000, -0.000000000000000000 ) ) ;
#370 = FACE_OUTER_BOUND ( 'NONE', #87, .T. ) ;
ENDSEC;
END-ISO-10303-21;
