ISO-10303-21;
HEADER;
FILE_DESCRIPTION (( 'STEP AP214' ),
    '1' );
FILE_NAME ('49451.STEP',
    '2023-06-30T22:04:10',
    ( '' ),
    ( '' ),
    'SwSTEP 2.0',
    'SolidWorks 2023',
    '' );
FILE_SCHEMA (( 'AUTOMOTIVE_DESIGN' ));
ENDSEC;

DATA;
#1 = CARTESIAN_POINT ( 'NONE',  ( 0.000000000000000000, 0.5000000000000000000, 0.000000000000000000 ) ) ;
#2 = PRESENTATION_LAYER_ASSIGNMENT (  '', '', ( #50 ) ) ;
#3 = LINE ( 'NONE', #369, #216 ) ;
#4 = UNCERTAINTY_MEASURE_WITH_UNIT (LENGTH_MEASURE( 1.000000000000000082E-05 ), #85, 'distance_accuracy_value', 'NONE');
#5 = SURFACE_STYLE_FILL_AREA ( #265 ) ;
#6 = FILL_AREA_STYLE ('',( #70 ) ) ;
#7 = CIRCLE ( 'NONE', #34, 0.4999999999999997780 ) ;
#8 = SURFACE_STYLE_FILL_AREA ( #271 ) ;
#9 = EDGE_CURVE ( 'NONE', #312, #314, #60, .T. ) ;
#10 = SURFACE_STYLE_FILL_AREA ( #73 ) ;
#11 = DIMENSIONAL_EXPONENTS ( 1.000000000000000000, 0.000000000000000000, 0.000000000000000000, 0.000000000000000000, 0.000000000000000000, 0.000000000000000000, 0.000000000000000000 ) ;
#12 = AXIS2_PLACEMENT_3D ( 'NONE', #267, #114, #174 ) ;
#13 = PRESENTATION_LAYER_ASSIGNMENT (  '', '', ( #134 ) ) ;
#14 = DIRECTION ( 'NONE',  ( -1.000000000000000000, -1.224646799147353207E-16, 0.000000000000000000 ) ) ;
#15 = CARTESIAN_POINT ( 'NONE',  ( 0.4999999999999998335, 2.000000000000000000, 6.123233995736764803E-17 ) ) ;
#16 = CARTESIAN_POINT ( 'NONE',  ( -0.4999999999999998335, 5.000000000000000000, 0.000000000000000000 ) ) ;
#17 = VERTEX_POINT ( 'NONE', #263 ) ;
#18 = EDGE_CURVE ( 'NONE', #231, #17, #337, .T. ) ;
#19 = CYLINDRICAL_SURFACE ( 'NONE', #68, 0.4999999999999998335 ) ;
#20 = FILL_AREA_STYLE ('',( #240 ) ) ;
#21 = APPLICATION_CONTEXT ( 'automotive_design' ) ;
#22 = ORIENTED_EDGE ( 'NONE', *, *, #9, .F. ) ;
#23 =( CONVERSION_BASED_UNIT ( 'INCH', #118 ) LENGTH_UNIT ( ) NAMED_UNIT ( #11 ) );
#24 = ORIENTED_EDGE ( 'NONE', *, *, #331, .F. ) ;
#25 = MECHANICAL_DESIGN_GEOMETRIC_PRESENTATION_REPRESENTATION (  '', ( #321 ), #49 ) ;
#26 = VECTOR ( 'NONE', #46, 39.37007874015748143 ) ;
#27 = CARTESIAN_POINT ( 'NONE',  ( -0.5000000000000001110, 5.000000000000000000, 0.000000000000000000 ) ) ;
#28 = ORIENTED_EDGE ( 'NONE', *, *, #56, .F. ) ;
#29 = CARTESIAN_POINT ( 'NONE',  ( 0.000000000000000000, 0.5000000000000000000, 0.000000000000000000 ) ) ;
#30 = CARTESIAN_POINT ( 'NONE',  ( 2.449293598294706907E-16, 2.000000000000000000, 0.000000000000000000 ) ) ;
#31 =( NAMED_UNIT ( * ) PLANE_ANGLE_UNIT ( ) SI_UNIT ( $, .RADIAN. ) );
#32 = CYLINDRICAL_SURFACE ( 'NONE', #170, 0.4999999999999998335 ) ;
#33 = EDGE_CURVE ( 'NONE', #234, #116, #356, .T. ) ;
#34 = AXIS2_PLACEMENT_3D ( 'NONE', #121, #158, #98 ) ;
#35 =( NAMED_UNIT ( * ) SI_UNIT ( $, .STERADIAN. ) SOLID_ANGLE_UNIT ( ) );
#36 = ADVANCED_FACE ( 'NONE', ( #180 ), #339, .T. ) ;
#37 =( GEOMETRIC_REPRESENTATION_CONTEXT ( 3 ) GLOBAL_UNCERTAINTY_ASSIGNED_CONTEXT ( ( #202 ) ) GLOBAL_UNIT_ASSIGNED_CONTEXT ( ( #252, #214, #351 ) ) REPRESENTATION_CONTEXT ( 'NONE', 'WORKASPACE' ) );
#38 = DIRECTION ( 'NONE',  ( 1.000000000000000000, 0.000000000000000000, 0.000000000000000000 ) ) ;
#39 = DIMENSIONAL_EXPONENTS ( 1.000000000000000000, 0.000000000000000000, 0.000000000000000000, 0.000000000000000000, 0.000000000000000000, 0.000000000000000000, 0.000000000000000000 ) ;
#40 = FACE_OUTER_BOUND ( 'NONE', #366, .T. ) ;
#41 =( CONVERSION_BASED_UNIT ( 'INCH', #193 ) LENGTH_UNIT ( ) NAMED_UNIT ( #69 ) );
#42 = EDGE_CURVE ( 'NONE', #314, #312, #274, .T. ) ;
#43 =( GEOMETRIC_REPRESENTATION_CONTEXT ( 3 ) GLOBAL_UNCERTAINTY_ASSIGNED_CONTEXT ( ( #192 ) ) GLOBAL_UNIT_ASSIGNED_CONTEXT ( ( #262, #31, #35 ) ) REPRESENTATION_CONTEXT ( 'NONE', 'WORKASPACE' ) );
#44 = DIRECTION ( 'NONE',  ( 0.000000000000000000, 0.000000000000000000, -1.000000000000000000 ) ) ;
#45 =( LENGTH_UNIT ( ) NAMED_UNIT ( * ) SI_UNIT ( $, .METRE. ) );
#46 = DIRECTION ( 'NONE',  ( -0.000000000000000000, -1.000000000000000000, -0.000000000000000000 ) ) ;
#47 = SURFACE_STYLE_FILL_AREA ( #199 ) ;
#48 = SHAPE_DEFINITION_REPRESENTATION ( #306, #79 ) ;
#49 =( GEOMETRIC_REPRESENTATION_CONTEXT ( 3 ) GLOBAL_UNCERTAINTY_ASSIGNED_CONTEXT ( ( #103 ) ) GLOBAL_UNIT_ASSIGNED_CONTEXT ( ( #102, #72, #232 ) ) REPRESENTATION_CONTEXT ( 'NONE', 'WORKASPACE' ) );
#50 = STYLED_ITEM ( 'NONE', ( #93 ), #213 ) ;
#51 = SURFACE_SIDE_STYLE ('',( #47 ) ) ;
#52 = ORIENTED_EDGE ( 'NONE', *, *, #18, .T. ) ;
#53 = SPHERICAL_SURFACE ( 'NONE', #239, 0.5000000000000000000 ) ;
#54 = CARTESIAN_POINT ( 'NONE',  ( 0.4999999999999997780, 5.000000000000000000, 0.000000000000000000 ) ) ;
#55 = ORIENTED_EDGE ( 'NONE', *, *, #113, .F. ) ;
#56 = EDGE_CURVE ( 'NONE', #234, #17, #242, .T. ) ;
#57 = DIRECTION ( 'NONE',  ( 1.000000000000000000, 0.000000000000000000, -1.224646799147353207E-16 ) ) ;
#58 = DIRECTION ( 'NONE',  ( -1.000000000000000000, 0.000000000000000000, 0.000000000000000000 ) ) ;
#59 = ORIENTED_EDGE ( 'NONE', *, *, #42, .T. ) ;
#60 = CIRCLE ( 'NONE', #254, 0.4999999999999999445 ) ;
#61 = CARTESIAN_POINT ( 'NONE',  ( 6.123233995736763571E-17, 2.000000000000000000, 0.4999999999999997780 ) ) ;
#62 =( NAMED_UNIT ( * ) PLANE_ANGLE_UNIT ( ) SI_UNIT ( $, .RADIAN. ) );
#63 = DIRECTION ( 'NONE',  ( 1.000000000000000000, 0.000000000000000000, 0.000000000000000000 ) ) ;
#64 = AXIS2_PLACEMENT_3D ( 'NONE', #90, #365, #57 ) ;
#65 = MECHANICAL_DESIGN_GEOMETRIC_PRESENTATION_REPRESENTATION (  '', ( #322 ), #163 ) ;
#66 = DIRECTION ( 'NONE',  ( -0.000000000000000000, -1.000000000000000000, -0.000000000000000000 ) ) ;
#67 = CIRCLE ( 'NONE', #310, 0.5000000000000000000 ) ;
#68 = AXIS2_PLACEMENT_3D ( 'NONE', #143, #364, #112 ) ;
#69 = DIMENSIONAL_EXPONENTS ( 1.000000000000000000, 0.000000000000000000, 0.000000000000000000, 0.000000000000000000, 0.000000000000000000, 0.000000000000000000, 0.000000000000000000 ) ;
#70 = FILL_AREA_STYLE_COLOUR ( '', #332 ) ;
#71 = CARTESIAN_POINT ( 'NONE',  ( 0.000000000000000000, 2.000000000000000000, 0.000000000000000000 ) ) ;
#72 =( NAMED_UNIT ( * ) PLANE_ANGLE_UNIT ( ) SI_UNIT ( $, .RADIAN. ) );
#73 = FILL_AREA_STYLE ('',( #333 ) ) ;
#74 = ORIENTED_EDGE ( 'NONE', *, *, #113, .T. ) ;
#75 = APPLICATION_PROTOCOL_DEFINITION ( 'draft international standard', 'automotive_design', 1998, #315 ) ;
#76 = PRESENTATION_LAYER_ASSIGNMENT (  '', '', ( #175 ) ) ;
#77 = VERTEX_POINT ( 'NONE', #61 ) ;
#78 = FACE_OUTER_BOUND ( 'NONE', #341, .T. ) ;
#79 = ADVANCED_BREP_SHAPE_REPRESENTATION ( '49451', ( #164, #276, #107 ), #270 ) ;
#80 = ORIENTED_EDGE ( 'NONE', *, *, #220, .T. ) ;
#81 = FILL_AREA_STYLE_COLOUR ( '', #247 ) ;
#82 = DIRECTION ( 'NONE',  ( 1.224646799147353207E-16, -1.000000000000000000, 0.000000000000000000 ) ) ;
#83 = DIRECTION ( 'NONE',  ( -1.224646799147353207E-16, 1.000000000000000000, -0.000000000000000000 ) ) ;
#84 = ORIENTED_EDGE ( 'NONE', *, *, #183, .T. ) ;
#85 =( CONVERSION_BASED_UNIT ( 'INCH', #342 ) LENGTH_UNIT ( ) NAMED_UNIT ( #353 ) );
#86 = CARTESIAN_POINT ( 'NONE',  ( 6.123233995736766036E-17, 0.5000000000000000000, 0.5000000000000000000 ) ) ;
#87 = ORIENTED_EDGE ( 'NONE', *, *, #9, .T. ) ;
#88 =( GEOMETRIC_REPRESENTATION_CONTEXT ( 3 ) GLOBAL_UNCERTAINTY_ASSIGNED_CONTEXT ( ( #257 ) ) GLOBAL_UNIT_ASSIGNED_CONTEXT ( ( #23, #362, #169 ) ) REPRESENTATION_CONTEXT ( 'NONE', 'WORKASPACE' ) );
#89 = PRESENTATION_LAYER_ASSIGNMENT (  '', '', ( #322 ) ) ;
#90 = CARTESIAN_POINT ( 'NONE',  ( -6.123233995736766036E-17, 0.5000000000000000000, 0.000000000000000000 ) ) ;
#91 = LENGTH_MEASURE_WITH_UNIT ( LENGTH_MEASURE( 0.02539999999999999897 ), #343 );
#92 = PRODUCT_DEFINITION_CONTEXT ( 'detailed design', #21, 'design' ) ;
#93 = PRESENTATION_STYLE_ASSIGNMENT (( #235 ) ) ;
#94 =( CONVERSION_BASED_UNIT ( 'INCH', #91 ) LENGTH_UNIT ( ) NAMED_UNIT ( #219 ) );
#95 = AXIS2_PLACEMENT_3D ( 'NONE', #275, #248, #14 ) ;
#96 = PRODUCT ( '49451', '49451', '', ( #273 ) ) ;
#97 = PRESENTATION_STYLE_ASSIGNMENT (( #224 ) ) ;
#98 = DIRECTION ( 'NONE',  ( 0.000000000000000000, 0.000000000000000000, -1.000000000000000000 ) ) ;
#99 = DIMENSIONAL_EXPONENTS ( 1.000000000000000000, 0.000000000000000000, 0.000000000000000000, 0.000000000000000000, 0.000000000000000000, 0.000000000000000000, 0.000000000000000000 ) ;
#100 = AXIS2_PLACEMENT_3D ( 'NONE', #29, #294, #313 ) ;
#101 = CIRCLE ( 'NONE', #282, 0.5000000000000000000 ) ;
#102 =( CONVERSION_BASED_UNIT ( 'INCH', #328 ) LENGTH_UNIT ( ) NAMED_UNIT ( #104 ) );
#103 = UNCERTAINTY_MEASURE_WITH_UNIT (LENGTH_MEASURE( 1.000000000000000082E-05 ), #102, 'distance_accuracy_value', 'NONE');
#104 = DIMENSIONAL_EXPONENTS ( 1.000000000000000000, 0.000000000000000000, 0.000000000000000000, 0.000000000000000000, 0.000000000000000000, 0.000000000000000000, 0.000000000000000000 ) ;
#105 =( NAMED_UNIT ( * ) SI_UNIT ( $, .STERADIAN. ) SOLID_ANGLE_UNIT ( ) );
#106 = SURFACE_SIDE_STYLE ('',( #10 ) ) ;
#107 = AXIS2_PLACEMENT_3D ( 'NONE', #197, #250, #336 ) ;
#108 = PRODUCT_DEFINITION ( 'UNKNOWN', '', #128, #92 ) ;
#109 = SURFACE_STYLE_USAGE ( .BOTH. , #51 ) ;
#110 = UNCERTAINTY_MEASURE_WITH_UNIT (LENGTH_MEASURE( 1.000000000000000082E-05 ), #324, 'distance_accuracy_value', 'NONE');
#111 = EDGE_LOOP ( 'NONE', ( #84, #52, #28, #147 ) ) ;
#112 = DIRECTION ( 'NONE',  ( 0.000000000000000000, 0.000000000000000000, -1.000000000000000000 ) ) ;
#113 = EDGE_CURVE ( 'NONE', #334, #314, #3, .T. ) ;
#114 = DIRECTION ( 'NONE',  ( -1.224646799147353207E-16, 1.000000000000000000, -0.000000000000000000 ) ) ;
#115 = COLOUR_RGB ( '',0.7921568627450980005, 0.8196078431372548767, 0.9333333333333333481 ) ;
#116 = VERTEX_POINT ( 'NONE', #86 ) ;
#117 = AXIS2_PLACEMENT_3D ( 'NONE', #302, #210, #146 ) ;
#118 = LENGTH_MEASURE_WITH_UNIT ( LENGTH_MEASURE( 0.02539999999999999897 ), #287 );
#119 = ORIENTED_EDGE ( 'NONE', *, *, #335, .T. ) ;
#120 = DIRECTION ( 'NONE',  ( -1.224646799147353207E-16, 1.000000000000000000, -0.000000000000000000 ) ) ;
#121 = CARTESIAN_POINT ( 'NONE',  ( 0.000000000000000000, 2.000000000000000000, 0.000000000000000000 ) ) ;
#122 = VERTEX_POINT ( 'NONE', #229 ) ;
#123 =( NAMED_UNIT ( * ) SI_UNIT ( $, .STERADIAN. ) SOLID_ANGLE_UNIT ( ) );
#124 = PRESENTATION_STYLE_ASSIGNMENT (( #291 ) ) ;
#125 = DIRECTION ( 'NONE',  ( -0.000000000000000000, -1.000000000000000000, -0.000000000000000000 ) ) ;
#126 = PRESENTATION_LAYER_ASSIGNMENT (  '', '', ( #280 ) ) ;
#127 = DIRECTION ( 'NONE',  ( -1.224646799147353207E-16, 1.000000000000000000, -0.000000000000000000 ) ) ;
#128 = PRODUCT_DEFINITION_FORMATION_WITH_SPECIFIED_SOURCE ( 'ANY', '', #96, .NOT_KNOWN. ) ;
#129 = DIRECTION ( 'NONE',  ( 1.000000000000000000, 1.224646799147353207E-16, 0.000000000000000000 ) ) ;
#130 = ADVANCED_FACE ( 'NONE', ( #78 ), #233, .F. ) ;
#131 = MECHANICAL_DESIGN_GEOMETRIC_PRESENTATION_REPRESENTATION (  '', ( #134 ), #37 ) ;
#132 = LENGTH_MEASURE_WITH_UNIT ( LENGTH_MEASURE( 0.02539999999999999897 ), #136 );
#133 = CLOSED_SHELL ( 'NONE', ( #372, #196, #256, #189, #213 ) ) ;
#134 = STYLED_ITEM ( 'NONE', ( #358 ), #276 ) ;
#135 = DIRECTION ( 'NONE',  ( -1.224646799147353207E-16, 1.000000000000000000, -0.000000000000000000 ) ) ;
#136 =( LENGTH_UNIT ( ) NAMED_UNIT ( * ) SI_UNIT ( $, .METRE. ) );
#137 = DIMENSIONAL_EXPONENTS ( 1.000000000000000000, 0.000000000000000000, 0.000000000000000000, 0.000000000000000000, 0.000000000000000000, 0.000000000000000000, 0.000000000000000000 ) ;
#138 = LINE ( 'NONE', #251, #26 ) ;
#139 =( LENGTH_UNIT ( ) NAMED_UNIT ( * ) SI_UNIT ( $, .METRE. ) );
#140 = FACE_OUTER_BOUND ( 'NONE', #111, .T. ) ;
#141 = DIRECTION ( 'NONE',  ( 0.000000000000000000, 0.000000000000000000, -1.000000000000000000 ) ) ;
#142 = ORIENTED_EDGE ( 'NONE', *, *, #153, .T. ) ;
#143 = CARTESIAN_POINT ( 'NONE',  ( 0.000000000000000000, 0.000000000000000000, 0.000000000000000000 ) ) ;
#144 = SURFACE_STYLE_USAGE ( .BOTH. , #204 ) ;
#145 = ORIENTED_EDGE ( 'NONE', *, *, #320, .T. ) ;
#146 = DIRECTION ( 'NONE',  ( -1.000000000000000000, 0.000000000000000000, 0.000000000000000000 ) ) ;
#147 = ORIENTED_EDGE ( 'NONE', *, *, #33, .T. ) ;
#148 =( GEOMETRIC_REPRESENTATION_CONTEXT ( 3 ) GLOBAL_UNCERTAINTY_ASSIGNED_CONTEXT ( ( #166 ) ) GLOBAL_UNIT_ASSIGNED_CONTEXT ( ( #94, #62, #371 ) ) REPRESENTATION_CONTEXT ( 'NONE', 'WORKASPACE' ) );
#149 = DIRECTION ( 'NONE',  ( 0.000000000000000000, 0.000000000000000000, -1.000000000000000000 ) ) ;
#150 = CARTESIAN_POINT ( 'NONE',  ( 0.4999999999999998335, 5.000000000000000000, 6.123233995736764803E-17 ) ) ;
#151 = VERTEX_POINT ( 'NONE', #292 ) ;
#152 = SURFACE_STYLE_FILL_AREA ( #346 ) ;
#153 = EDGE_CURVE ( 'NONE', #231, #261, #67, .T. ) ;
#154 = FACE_OUTER_BOUND ( 'NONE', #373, .T. ) ;
#155 = DIRECTION ( 'NONE',  ( 0.000000000000000000, 0.000000000000000000, -1.000000000000000000 ) ) ;
#156 = PRESENTATION_STYLE_ASSIGNMENT (( #144 ) ) ;
#157 =( LENGTH_UNIT ( ) NAMED_UNIT ( * ) SI_UNIT ( $, .METRE. ) );
#158 = DIRECTION ( 'NONE',  ( -0.000000000000000000, -1.000000000000000000, -0.000000000000000000 ) ) ;
#159 = FACE_OUTER_BOUND ( 'NONE', #171, .T. ) ;
#160 = PRESENTATION_LAYER_ASSIGNMENT (  '', '', ( #184 ) ) ;
#161 = DIRECTION ( 'NONE',  ( 0.000000000000000000, -0.000000000000000000, 1.000000000000000000 ) ) ;
#162 = MECHANICAL_DESIGN_GEOMETRIC_PRESENTATION_REPRESENTATION (  '', ( #175 ), #88 ) ;
#163 =( GEOMETRIC_REPRESENTATION_CONTEXT ( 3 ) GLOBAL_UNCERTAINTY_ASSIGNED_CONTEXT ( ( #4 ) ) GLOBAL_UNIT_ASSIGNED_CONTEXT ( ( #85, #178, #123 ) ) REPRESENTATION_CONTEXT ( 'NONE', 'WORKASPACE' ) );
#164 = MANIFOLD_SOLID_BREP ( 'Revolve - Cutting Edge', #133 ) ;
#165 = DIRECTION ( 'NONE',  ( -1.224646799147353207E-16, 1.000000000000000000, -0.000000000000000000 ) ) ;
#166 = UNCERTAINTY_MEASURE_WITH_UNIT (LENGTH_MEASURE( 1.000000000000000082E-05 ), #94, 'distance_accuracy_value', 'NONE');
#167 = DIRECTION ( 'NONE',  ( -0.000000000000000000, -1.000000000000000000, -0.000000000000000000 ) ) ;
#168 =( LENGTH_UNIT ( ) NAMED_UNIT ( * ) SI_UNIT ( $, .METRE. ) );
#169 =( NAMED_UNIT ( * ) SI_UNIT ( $, .STERADIAN. ) SOLID_ANGLE_UNIT ( ) );
#170 = AXIS2_PLACEMENT_3D ( 'NONE', #185, #66, #155 ) ;
#171 = EDGE_LOOP ( 'NONE', ( #264, #345 ) ) ;
#172 = CARTESIAN_POINT ( 'NONE',  ( -1.224646799147353207E-16, 5.000000000000000000, 0.000000000000000000 ) ) ;
#173 = ORIENTED_EDGE ( 'NONE', *, *, #279, .F. ) ;
#174 = DIRECTION ( 'NONE',  ( -1.000000000000000000, 0.000000000000000000, 0.000000000000000000 ) ) ;
#175 = STYLED_ITEM ( 'NONE', ( #253 ), #189 ) ;
#176 = ORIENTED_EDGE ( 'NONE', *, *, #354, .T. ) ;
#177 =( GEOMETRIC_REPRESENTATION_CONTEXT ( 3 ) GLOBAL_UNCERTAINTY_ASSIGNED_CONTEXT ( ( #110 ) ) GLOBAL_UNIT_ASSIGNED_CONTEXT ( ( #324, #269, #194 ) ) REPRESENTATION_CONTEXT ( 'NONE', 'WORKASPACE' ) );
#178 =( NAMED_UNIT ( * ) PLANE_ANGLE_UNIT ( ) SI_UNIT ( $, .RADIAN. ) );
#179 = CARTESIAN_POINT ( 'NONE',  ( -0.5000000000000000000, 0.5000000000000000000, 6.123233995736764803E-17 ) ) ;
#180 = FACE_OUTER_BOUND ( 'NONE', #363, .T. ) ;
#181 = CARTESIAN_POINT ( 'NONE',  ( -6.123233995736766036E-17, 0.5000000000000000000, 0.000000000000000000 ) ) ;
#182 = CARTESIAN_POINT ( 'NONE',  ( 0.000000000000000000, 0.5000000000000000000, 0.000000000000000000 ) ) ;
#183 = EDGE_CURVE ( 'NONE', #116, #231, #187, .T. ) ;
#184 = STYLED_ITEM ( 'NONE', ( #97 ), #256 ) ;
#185 = CARTESIAN_POINT ( 'NONE',  ( 0.000000000000000000, 0.000000000000000000, 0.000000000000000000 ) ) ;
#186 = SURFACE_SIDE_STYLE ('',( #304 ) ) ;
#187 = CIRCLE ( 'NONE', #281, 0.5000000000000000000 ) ;
#188 = COLOUR_RGB ( '',1.000000000000000000, 0.000000000000000000, 0.000000000000000000 ) ;
#189 = ADVANCED_FACE ( 'NONE', ( #309 ), #19, .T. ) ;
#190 = LENGTH_MEASURE_WITH_UNIT ( LENGTH_MEASURE( 0.02539999999999999897 ), #323 );
#191 = SURFACE_SIDE_STYLE ('',( #8 ) ) ;
#192 = UNCERTAINTY_MEASURE_WITH_UNIT (LENGTH_MEASURE( 1.000000000000000082E-05 ), #262, 'distance_accuracy_value', 'NONE');
#193 = LENGTH_MEASURE_WITH_UNIT ( LENGTH_MEASURE( 0.02539999999999999897 ), #45 );
#194 =( NAMED_UNIT ( * ) SI_UNIT ( $, .STERADIAN. ) SOLID_ANGLE_UNIT ( ) );
#195 = DIRECTION ( 'NONE',  ( -0.000000000000000000, -1.000000000000000000, -0.000000000000000000 ) ) ;
#196 = ADVANCED_FACE ( 'NONE', ( #307 ), #32, .T. ) ;
#197 = CARTESIAN_POINT ( 'NONE',  ( 0.000000000000000000, 0.000000000000000000, 0.000000000000000000 ) ) ;
#198 = PRESENTATION_STYLE_ASSIGNMENT (( #226 ) ) ;
#199 = FILL_AREA_STYLE ('',( #81 ) ) ;
#200 =( NAMED_UNIT ( * ) PLANE_ANGLE_UNIT ( ) SI_UNIT ( $, .RADIAN. ) );
#201 = ORIENTED_EDGE ( 'NONE', *, *, #56, .T. ) ;
#202 = UNCERTAINTY_MEASURE_WITH_UNIT (LENGTH_MEASURE( 1.000000000000000082E-05 ), #252, 'distance_accuracy_value', 'NONE');
#203 = CLOSED_SHELL ( 'NONE', ( #245, #327, #36, #130 ) ) ;
#204 = SURFACE_SIDE_STYLE ('',( #350 ) ) ;
#205 = EDGE_LOOP ( 'NONE', ( #176, #119, #340, #259, #24 ) ) ;
#206 = ORIENTED_EDGE ( 'NONE', *, *, #361, .T. ) ;
#207 = CARTESIAN_POINT ( 'NONE',  ( -6.123233995736766036E-17, 0.5000000000000000000, 0.000000000000000000 ) ) ;
#208 = CARTESIAN_POINT ( 'NONE',  ( 0.000000000000000000, 0.5000000000000000000, 0.000000000000000000 ) ) ;
#209 = UNCERTAINTY_MEASURE_WITH_UNIT (LENGTH_MEASURE( 1.000000000000000082E-05 ), #41, 'distance_accuracy_value', 'NONE');
#210 = DIRECTION ( 'NONE',  ( -1.224646799147353207E-16, 1.000000000000000000, -0.000000000000000000 ) ) ;
#211 = ORIENTED_EDGE ( 'NONE', *, *, #18, .F. ) ;
#212 = LENGTH_MEASURE_WITH_UNIT ( LENGTH_MEASURE( 0.02539999999999999897 ), #157 );
#213 = ADVANCED_FACE ( 'NONE', ( #298 ), #349, .T. ) ;
#214 =( NAMED_UNIT ( * ) PLANE_ANGLE_UNIT ( ) SI_UNIT ( $, .RADIAN. ) );
#215 = DIRECTION ( 'NONE',  ( 0.000000000000000000, 0.000000000000000000, 1.000000000000000000 ) ) ;
#216 = VECTOR ( 'NONE', #288, 39.37007874015748143 ) ;
#217 = FILL_AREA_STYLE_COLOUR ( '', #300 ) ;
#218 = COLOUR_RGB ( '',1.000000000000000000, 0.000000000000000000, 0.000000000000000000 ) ;
#219 = DIMENSIONAL_EXPONENTS ( 1.000000000000000000, 0.000000000000000000, 0.000000000000000000, 0.000000000000000000, 0.000000000000000000, 0.000000000000000000, 0.000000000000000000 ) ;
#220 = EDGE_CURVE ( 'NONE', #261, #234, #101, .T. ) ;
#221 = DIRECTION ( 'NONE',  ( 0.000000000000000000, 0.000000000000000000, 1.000000000000000000 ) ) ;
#222 = DIRECTION ( 'NONE',  ( 0.000000000000000000, 1.000000000000000000, 0.000000000000000000 ) ) ;
#223 = CARTESIAN_POINT ( 'NONE',  ( 0.000000000000000000, 0.5000000000000000000, -0.5000000000000000000 ) ) ;
#224 = SURFACE_STYLE_USAGE ( .BOTH. , #186 ) ;
#225 = CARTESIAN_POINT ( 'NONE',  ( 6.123233995736764803E-17, 0.000000000000000000, 0.4999999999999998335 ) ) ;
#226 = SURFACE_STYLE_USAGE ( .BOTH. , #106 ) ;
#227 = AXIS2_PLACEMENT_3D ( 'NONE', #260, #284, #236 ) ;
#228 = ORIENTED_EDGE ( 'NONE', *, *, #183, .F. ) ;
#229 = CARTESIAN_POINT ( 'NONE',  ( -0.4999999999999993339, 2.000000000000000000, 0.000000000000000000 ) ) ;
#230 = AXIS2_PLACEMENT_3D ( 'NONE', #30, #83, #58 ) ;
#231 = VERTEX_POINT ( 'NONE', #179 ) ;
#232 =( NAMED_UNIT ( * ) SI_UNIT ( $, .STERADIAN. ) SOLID_ANGLE_UNIT ( ) );
#233 = PLANE ( 'NONE',  #348 ) ;
#234 = VERTEX_POINT ( 'NONE', #241 ) ;
#235 = SURFACE_STYLE_USAGE ( .BOTH. , #352 ) ;
#236 = DIRECTION ( 'NONE',  ( -1.000000000000000000, 0.000000000000000000, 0.000000000000000000 ) ) ;
#237 = ORIENTED_EDGE ( 'NONE', *, *, #361, .F. ) ;
#238 = FILL_AREA_STYLE_COLOUR ( '', #218 ) ;
#239 = AXIS2_PLACEMENT_3D ( 'NONE', #207, #221, #38 ) ;
#240 = FILL_AREA_STYLE_COLOUR ( '', #115 ) ;
#241 = CARTESIAN_POINT ( 'NONE',  ( 0.5000000000000000000, 0.5000000000000000000, 0.000000000000000000 ) ) ;
#242 = CIRCLE ( 'NONE', #227, 0.5000000000000000000 ) ;
#243 = CARTESIAN_POINT ( 'NONE',  ( 0.000000000000000000, 2.000000000000000000, 0.000000000000000000 ) ) ;
#244 = MECHANICAL_DESIGN_GEOMETRIC_PRESENTATION_REPRESENTATION (  '', ( #184 ), #177 ) ;
#245 = ADVANCED_FACE ( 'NONE', ( #154 ), #355, .T. ) ;
#246 = FILL_AREA_STYLE_COLOUR ( '', #326 ) ;
#247 = COLOUR_RGB ( '',1.000000000000000000, 0.000000000000000000, 0.000000000000000000 ) ;
#248 = DIRECTION ( 'NONE',  ( -1.224646799147353207E-16, 1.000000000000000000, 0.000000000000000000 ) ) ;
#249 = VECTOR ( 'NONE', #167, 39.37007874015748143 ) ;
#250 = DIRECTION ( 'NONE',  ( 0.000000000000000000, 0.000000000000000000, 1.000000000000000000 ) ) ;
#251 = CARTESIAN_POINT ( 'NONE',  ( 0.000000000000000000, 0.000000000000000000, -0.4999999999999998335 ) ) ;
#252 =( CONVERSION_BASED_UNIT ( 'INCH', #190 ) LENGTH_UNIT ( ) NAMED_UNIT ( #39 ) );
#253 = PRESENTATION_STYLE_ASSIGNMENT (( #109 ) ) ;
#254 = AXIS2_PLACEMENT_3D ( 'NONE', #303, #135, #316 ) ;
#255 = CIRCLE ( 'NONE', #230, 0.4999999999999996114 ) ;
#256 = ADVANCED_FACE ( 'NONE', ( #159 ), #301, .T. ) ;
#257 = UNCERTAINTY_MEASURE_WITH_UNIT (LENGTH_MEASURE( 1.000000000000000082E-05 ), #23, 'distance_accuracy_value', 'NONE');
#258 = ORIENTED_EDGE ( 'NONE', *, *, #299, .T. ) ;
#259 = ORIENTED_EDGE ( 'NONE', *, *, #220, .F. ) ;
#260 = CARTESIAN_POINT ( 'NONE',  ( -6.123233995736766036E-17, 0.5000000000000000000, 0.000000000000000000 ) ) ;
#261 = VERTEX_POINT ( 'NONE', #223 ) ;
#262 =( CONVERSION_BASED_UNIT ( 'INCH', #212 ) LENGTH_UNIT ( ) NAMED_UNIT ( #99 ) );
#263 = CARTESIAN_POINT ( 'NONE',  ( -3.061616997868383018E-17, 0.000000000000000000, 0.000000000000000000 ) ) ;
#264 = ORIENTED_EDGE ( 'NONE', *, *, #354, .F. ) ;
#265 = FILL_AREA_STYLE ('',( #217 ) ) ;
#266 = CARTESIAN_POINT ( 'NONE',  ( -1.224646799147353207E-16, 5.000000000000000000, 0.000000000000000000 ) ) ;
#267 = CARTESIAN_POINT ( 'NONE',  ( -1.224646799147353207E-16, 5.000000000000000000, 0.000000000000000000 ) ) ;
#268 = DIRECTION ( 'NONE',  ( 0.000000000000000000, 0.000000000000000000, -1.000000000000000000 ) ) ;
#269 =( NAMED_UNIT ( * ) PLANE_ANGLE_UNIT ( ) SI_UNIT ( $, .RADIAN. ) );
#270 =( GEOMETRIC_REPRESENTATION_CONTEXT ( 3 ) GLOBAL_UNCERTAINTY_ASSIGNED_CONTEXT ( ( #209 ) ) GLOBAL_UNIT_ASSIGNED_CONTEXT ( ( #41, #200, #105 ) ) REPRESENTATION_CONTEXT ( 'NONE', 'WORKASPACE' ) );
#271 = FILL_AREA_STYLE ('',( #246 ) ) ;
#272 = PLANE ( 'NONE',  #95 ) ;
#273 = PRODUCT_CONTEXT ( 'NONE', #315, 'mechanical' ) ;
#274 = CIRCLE ( 'NONE', #12, 0.4999999999999999445 ) ;
#275 = CARTESIAN_POINT ( 'NONE',  ( 2.449293598294706414E-16, 2.000000000000000000, 0.000000000000000000 ) ) ;
#276 = MANIFOLD_SOLID_BREP ( 'Revolve - Tool Body (Straight Shanked)', #203 ) ;
#277 = LINE ( 'NONE', #16, #357 ) ;
#278 = ORIENTED_EDGE ( 'NONE', *, *, #279, .T. ) ;
#279 = EDGE_CURVE ( 'NONE', #122, #334, #368, .T. ) ;
#280 = STYLED_ITEM ( 'NONE', ( #124 ), #196 ) ;
#281 = AXIS2_PLACEMENT_3D ( 'NONE', #208, #367, #141 ) ;
#282 = AXIS2_PLACEMENT_3D ( 'NONE', #182, #293, #268 ) ;
#283 = EDGE_LOOP ( 'NONE', ( #211, #142, #80, #201 ) ) ;
#284 = DIRECTION ( 'NONE',  ( 0.000000000000000000, 0.000000000000000000, -1.000000000000000000 ) ) ;
#285 = ORIENTED_EDGE ( 'NONE', *, *, #299, .F. ) ;
#286 = ORIENTED_EDGE ( 'NONE', *, *, #335, .F. ) ;
#287 =( LENGTH_UNIT ( ) NAMED_UNIT ( * ) SI_UNIT ( $, .METRE. ) );
#288 = DIRECTION ( 'NONE',  ( -1.224646799147353207E-16, 1.000000000000000000, -0.000000000000000000 ) ) ;
#289 = AXIS2_PLACEMENT_3D ( 'NONE', #243, #222, #161 ) ;
#290 = ORIENTED_EDGE ( 'NONE', *, *, #153, .F. ) ;
#291 = SURFACE_STYLE_USAGE ( .BOTH. , #297 ) ;
#292 = CARTESIAN_POINT ( 'NONE',  ( 0.000000000000000000, 2.000000000000000000, -0.4999999999999997780 ) ) ;
#293 = DIRECTION ( 'NONE',  ( -0.000000000000000000, -1.000000000000000000, -0.000000000000000000 ) ) ;
#294 = DIRECTION ( 'NONE',  ( -0.000000000000000000, -1.000000000000000000, -0.000000000000000000 ) ) ;
#295 = DIRECTION ( 'NONE',  ( -1.000000000000000000, 0.000000000000000000, 0.000000000000000000 ) ) ;
#296 = CIRCLE ( 'NONE', #305, 0.4999999999999997780 ) ;
#297 = SURFACE_SIDE_STYLE ('',( #5 ) ) ;
#298 = FACE_OUTER_BOUND ( 'NONE', #283, .T. ) ;
#299 = EDGE_CURVE ( 'NONE', #334, #122, #255, .T. ) ;
#300 = COLOUR_RGB ( '',1.000000000000000000, 0.000000000000000000, 0.000000000000000000 ) ;
#301 = PLANE ( 'NONE',  #289 ) ;
#302 = CARTESIAN_POINT ( 'NONE',  ( 2.449293598294706907E-16, 2.000000000000000000, 0.000000000000000000 ) ) ;
#303 = CARTESIAN_POINT ( 'NONE',  ( -1.224646799147353207E-16, 5.000000000000000000, 0.000000000000000000 ) ) ;
#304 = SURFACE_STYLE_FILL_AREA ( #6 ) ;
#305 = AXIS2_PLACEMENT_3D ( 'NONE', #71, #195, #44 ) ;
#306 = PRODUCT_DEFINITION_SHAPE ( 'NONE', 'NONE',  #108 ) ;
#307 = FACE_OUTER_BOUND ( 'NONE', #205, .T. ) ;
#308 = ORIENTED_EDGE ( 'NONE', *, *, #331, .T. ) ;
#309 = FACE_OUTER_BOUND ( 'NONE', #370, .T. ) ;
#310 = AXIS2_PLACEMENT_3D ( 'NONE', #1, #125, #149 ) ;
#311 = AXIS2_PLACEMENT_3D ( 'NONE', #266, #127, #295 ) ;
#312 = VERTEX_POINT ( 'NONE', #27 ) ;
#313 = DIRECTION ( 'NONE',  ( 0.000000000000000000, 0.000000000000000000, -1.000000000000000000 ) ) ;
#314 = VERTEX_POINT ( 'NONE', #150 ) ;
#315 = APPLICATION_CONTEXT ( 'automotive_design' ) ;
#316 = DIRECTION ( 'NONE',  ( -1.000000000000000000, 0.000000000000000000, 0.000000000000000000 ) ) ;
#317 = ORIENTED_EDGE ( 'NONE', *, *, #42, .F. ) ;
#318 = PRESENTATION_LAYER_ASSIGNMENT (  '', '', ( #321 ) ) ;
#319 = MECHANICAL_DESIGN_GEOMETRIC_PRESENTATION_REPRESENTATION (  '', ( #50 ), #43 ) ;
#320 = EDGE_CURVE ( 'NONE', #77, #151, #7, .T. ) ;
#321 = STYLED_ITEM ( 'NONE', ( #156 ), #164 ) ;
#322 = STYLED_ITEM ( 'NONE', ( #198 ), #372 ) ;
#323 =( LENGTH_UNIT ( ) NAMED_UNIT ( * ) SI_UNIT ( $, .METRE. ) );
#324 =( CONVERSION_BASED_UNIT ( 'INCH', #132 ) LENGTH_UNIT ( ) NAMED_UNIT ( #137 ) );
#325 = MECHANICAL_DESIGN_GEOMETRIC_PRESENTATION_REPRESENTATION (  '', ( #280 ), #148 ) ;
#326 = COLOUR_RGB ( '',0.7921568627450980005, 0.8196078431372548767, 0.9333333333333333481 ) ;
#327 = ADVANCED_FACE ( 'NONE', ( #40 ), #272, .F. ) ;
#328 = LENGTH_MEASURE_WITH_UNIT ( LENGTH_MEASURE( 0.02539999999999999897 ), #139 );
#329 = APPLICATION_PROTOCOL_DEFINITION ( 'draft international standard', 'automotive_design', 1998, #21 ) ;
#330 = AXIS2_PLACEMENT_3D ( 'NONE', #172, #120, #344 ) ;
#331 = EDGE_CURVE ( 'NONE', #151, #261, #138, .T. ) ;
#332 = COLOUR_RGB ( '',1.000000000000000000, 0.000000000000000000, 0.000000000000000000 ) ;
#333 = FILL_AREA_STYLE_COLOUR ( '', #188 ) ;
#334 = VERTEX_POINT ( 'NONE', #15 ) ;
#335 = EDGE_CURVE ( 'NONE', #77, #116, #360, .T. ) ;
#336 = DIRECTION ( 'NONE',  ( 1.000000000000000000, 0.000000000000000000, 0.000000000000000000 ) ) ;
#337 = CIRCLE ( 'NONE', #64, 0.5000000000000000000 ) ;
#338 = AXIS2_PLACEMENT_3D ( 'NONE', #181, #215, #63 ) ;
#339 = CYLINDRICAL_SURFACE ( 'NONE', #330, 0.4999999999999997224 ) ;
#340 = ORIENTED_EDGE ( 'NONE', *, *, #33, .F. ) ;
#341 = EDGE_LOOP ( 'NONE', ( #87, #59 ) ) ;
#342 = LENGTH_MEASURE_WITH_UNIT ( LENGTH_MEASURE( 0.02539999999999999897 ), #168 );
#343 =( LENGTH_UNIT ( ) NAMED_UNIT ( * ) SI_UNIT ( $, .METRE. ) );
#344 = DIRECTION ( 'NONE',  ( -1.000000000000000000, 0.000000000000000000, 0.000000000000000000 ) ) ;
#345 = ORIENTED_EDGE ( 'NONE', *, *, #320, .F. ) ;
#346 = FILL_AREA_STYLE ('',( #238 ) ) ;
#347 = PRODUCT_RELATED_PRODUCT_CATEGORY ( 'part', '', ( #96 ) ) ;
#348 = AXIS2_PLACEMENT_3D ( 'NONE', #54, #82, #129 ) ;
#349 = SPHERICAL_SURFACE ( 'NONE', #338, 0.5000000000000000000 ) ;
#350 = SURFACE_STYLE_FILL_AREA ( #20 ) ;
#351 =( NAMED_UNIT ( * ) SI_UNIT ( $, .STERADIAN. ) SOLID_ANGLE_UNIT ( ) );
#352 = SURFACE_SIDE_STYLE ('',( #152 ) ) ;
#353 = DIMENSIONAL_EXPONENTS ( 1.000000000000000000, 0.000000000000000000, 0.000000000000000000, 0.000000000000000000, 0.000000000000000000, 0.000000000000000000, 0.000000000000000000 ) ;
#354 = EDGE_CURVE ( 'NONE', #151, #77, #296, .T. ) ;
#355 = CYLINDRICAL_SURFACE ( 'NONE', #311, 0.4999999999999997224 ) ;
#356 = CIRCLE ( 'NONE', #100, 0.5000000000000000000 ) ;
#357 = VECTOR ( 'NONE', #165, 39.37007874015748143 ) ;
#358 = PRESENTATION_STYLE_ASSIGNMENT (( #359 ) ) ;
#359 = SURFACE_STYLE_USAGE ( .BOTH. , #191 ) ;
#360 = LINE ( 'NONE', #225, #249 ) ;
#361 = EDGE_CURVE ( 'NONE', #122, #312, #277, .T. ) ;
#362 =( NAMED_UNIT ( * ) PLANE_ANGLE_UNIT ( ) SI_UNIT ( $, .RADIAN. ) );
#363 = EDGE_LOOP ( 'NONE', ( #55, #258, #206, #317 ) ) ;
#364 = DIRECTION ( 'NONE',  ( -0.000000000000000000, -1.000000000000000000, -0.000000000000000000 ) ) ;
#365 = DIRECTION ( 'NONE',  ( 1.224646799147353207E-16, -0.000000000000000000, 1.000000000000000000 ) ) ;
#366 = EDGE_LOOP ( 'NONE', ( #173, #285 ) ) ;
#367 = DIRECTION ( 'NONE',  ( -0.000000000000000000, -1.000000000000000000, -0.000000000000000000 ) ) ;
#368 = CIRCLE ( 'NONE', #117, 0.4999999999999996114 ) ;
#369 = CARTESIAN_POINT ( 'NONE',  ( 0.4999999999999996114, 5.000000000000000000, 6.123233995736763571E-17 ) ) ;
#370 = EDGE_LOOP ( 'NONE', ( #286, #145, #308, #290, #228 ) ) ;
#371 =( NAMED_UNIT ( * ) SI_UNIT ( $, .STERADIAN. ) SOLID_ANGLE_UNIT ( ) );
#372 = ADVANCED_FACE ( 'NONE', ( #140 ), #53, .T. ) ;
#373 = EDGE_LOOP ( 'NONE', ( #278, #74, #22, #237 ) ) ;
ENDSEC;
END-ISO-10303-21;
