ISO-10303-21;
HEADER;
FILE_DESCRIPTION (( 'STEP AP214' ),
    '1' );
FILE_NAME ('26332.STEP',
    '2023-06-22T17:41:07',
    ( '' ),
    ( '' ),
    'SwSTEP 2.0',
    'SolidWorks 2023',
    '' );
FILE_SCHEMA (( 'AUTOMOTIVE_DESIGN' ));
ENDSEC;

DATA;
#1 = DIRECTION ( 'NONE',  ( -0.000000000000000000, -1.000000000000000000, -0.000000000000000000 ) ) ;
#2 = CIRCLE ( 'NONE', #179, 0.3125000000000000555 ) ;
#3 = EDGE_LOOP ( 'NONE', ( #211, #139 ) ) ;
#4 = ORIENTED_EDGE ( 'NONE', *, *, #86, .F. ) ;
#5 = VERTEX_POINT ( 'NONE', #212 ) ;
#6 = VECTOR ( 'NONE', #300, 39.37007874015748143 ) ;
#7 = STYLED_ITEM ( 'NONE', ( #246 ), #307 ) ;
#8 = FACE_OUTER_BOUND ( 'NONE', #240, .T. ) ;
#9 = SURFACE_STYLE_USAGE ( .BOTH. , #250 ) ;
#10 = AXIS2_PLACEMENT_3D ( 'NONE', #248, #24, #223 ) ;
#11 =( GEOMETRIC_REPRESENTATION_CONTEXT ( 3 ) GLOBAL_UNCERTAINTY_ASSIGNED_CONTEXT ( ( #303 ) ) GLOBAL_UNIT_ASSIGNED_CONTEXT ( ( #59, #102, #153 ) ) REPRESENTATION_CONTEXT ( 'NONE', 'WORKASPACE' ) );
#12 =( CONVERSION_BASED_UNIT ( 'INCH', #232 ) LENGTH_UNIT ( ) NAMED_UNIT ( #66 ) );
#13 = EDGE_CURVE ( 'NONE', #164, #244, #275, .T. ) ;
#14 = EDGE_CURVE ( 'NONE', #217, #244, #114, .T. ) ;
#15 = PRESENTATION_LAYER_ASSIGNMENT (  '', '', ( #28 ) ) ;
#16 =( LENGTH_UNIT ( ) NAMED_UNIT ( * ) SI_UNIT ( $, .METRE. ) );
#17 = ORIENTED_EDGE ( 'NONE', *, *, #204, .T. ) ;
#18 = LENGTH_MEASURE_WITH_UNIT ( LENGTH_MEASURE( 0.02539999999999999897 ), #16 );
#19 = ORIENTED_EDGE ( 'NONE', *, *, #207, .T. ) ;
#20 = STYLED_ITEM ( 'NONE', ( #113 ), #199 ) ;
#21 = CARTESIAN_POINT ( 'NONE',  ( 1.516480271171051896E-32, 1.625000000000000000, 0.000000000000000000 ) ) ;
#22 = DIRECTION ( 'NONE',  ( 2.578203787678638882E-17, -1.000000000000000000, 0.000000000000000000 ) ) ;
#23 = MECHANICAL_DESIGN_GEOMETRIC_PRESENTATION_REPRESENTATION (  '', ( #205 ), #11 ) ;
#24 = DIRECTION ( 'NONE',  ( -0.000000000000000000, -1.000000000000000000, -0.000000000000000000 ) ) ;
#25 = FILL_AREA_STYLE ('',( #294 ) ) ;
#26 = DIRECTION ( 'NONE',  ( 0.000000000000000000, 0.000000000000000000, -1.000000000000000000 ) ) ;
#27 = LENGTH_MEASURE_WITH_UNIT ( LENGTH_MEASURE( 0.02539999999999999897 ), #180 );
#28 = STYLED_ITEM ( 'NONE', ( #65 ), #143 ) ;
#29 = MECHANICAL_DESIGN_GEOMETRIC_PRESENTATION_REPRESENTATION (  '', ( #76 ), #285 ) ;
#30 = CARTESIAN_POINT ( 'NONE',  ( 0.000000000000000000, 1.625000000000000000, 0.000000000000000000 ) ) ;
#31 = LINE ( 'NONE', #262, #170 ) ;
#32 = ADVANCED_BREP_SHAPE_REPRESENTATION ( '26332', ( #257, #143, #144 ), #51 ) ;
#33 = DIRECTION ( 'NONE',  ( -2.578203787678638882E-17, 1.000000000000000000, -0.000000000000000000 ) ) ;
#34 = PRODUCT_DEFINITION ( 'UNKNOWN', '', #125, #190 ) ;
#35 = DIRECTION ( 'NONE',  ( -2.578203787678638882E-17, 1.000000000000000000, -0.000000000000000000 ) ) ;
#36 = DIRECTION ( 'NONE',  ( 0.000000000000000000, 0.000000000000000000, 1.000000000000000000 ) ) ;
#37 = DIRECTION ( 'NONE',  ( 0.000000000000000000, 0.000000000000000000, -1.000000000000000000 ) ) ;
#38 = AXIS2_PLACEMENT_3D ( 'NONE', #222, #98, #277 ) ;
#39 =( CONVERSION_BASED_UNIT ( 'INCH', #85 ) LENGTH_UNIT ( ) NAMED_UNIT ( #64 ) );
#40 = LINE ( 'NONE', #132, #203 ) ;
#41 = SURFACE_STYLE_USAGE ( .BOTH. , #287 ) ;
#42 = PRODUCT_CONTEXT ( 'NONE', #105, 'mechanical' ) ;
#43 = ORIENTED_EDGE ( 'NONE', *, *, #116, .T. ) ;
#44 = AXIS2_PLACEMENT_3D ( 'NONE', #256, #33, #249 ) ;
#45 = DIRECTION ( 'NONE',  ( -2.578203787678638882E-17, 1.000000000000000000, -0.000000000000000000 ) ) ;
#46 = ORIENTED_EDGE ( 'NONE', *, *, #13, .T. ) ;
#47 = CARTESIAN_POINT ( 'NONE',  ( 0.000000000000000000, 0.000000000000000000, 0.000000000000000000 ) ) ;
#48 = FILL_AREA_STYLE ('',( #95 ) ) ;
#49 = EDGE_LOOP ( 'NONE', ( #142, #169, #193, #69 ) ) ;
#50 =( NAMED_UNIT ( * ) SI_UNIT ( $, .STERADIAN. ) SOLID_ANGLE_UNIT ( ) );
#51 =( GEOMETRIC_REPRESENTATION_CONTEXT ( 3 ) GLOBAL_UNCERTAINTY_ASSIGNED_CONTEXT ( ( #106 ) ) GLOBAL_UNIT_ASSIGNED_CONTEXT ( ( #273, #104, #175 ) ) REPRESENTATION_CONTEXT ( 'NONE', 'WORKASPACE' ) );
#52 = CARTESIAN_POINT ( 'NONE',  ( 0.3125000000000000000, 4.000000000000000000, 3.827021247335478926E-17 ) ) ;
#53 = STYLED_ITEM ( 'NONE', ( #291 ), #264 ) ;
#54 = EDGE_CURVE ( 'NONE', #269, #77, #136, .T. ) ;
#55 = FILL_AREA_STYLE ('',( #267 ) ) ;
#56 =( CONVERSION_BASED_UNIT ( 'INCH', #18 ) LENGTH_UNIT ( ) NAMED_UNIT ( #185 ) );
#57 =( LENGTH_UNIT ( ) NAMED_UNIT ( * ) SI_UNIT ( $, .METRE. ) );
#58 = CLOSED_SHELL ( 'NONE', ( #307, #152, #199, #264 ) ) ;
#59 =( CONVERSION_BASED_UNIT ( 'INCH', #27 ) LENGTH_UNIT ( ) NAMED_UNIT ( #109 ) );
#60 = CARTESIAN_POINT ( 'NONE',  ( 0.000000000000000000, 1.625000000000000000, -0.3125000000000000000 ) ) ;
#61 = ADVANCED_FACE ( 'NONE', ( #111 ), #254, .T. ) ;
#62 = EDGE_CURVE ( 'NONE', #117, #269, #31, .T. ) ;
#63 = CARTESIAN_POINT ( 'NONE',  ( 0.000000000000000000, 1.625000000000000000, 0.000000000000000000 ) ) ;
#64 = DIMENSIONAL_EXPONENTS ( 1.000000000000000000, 0.000000000000000000, 0.000000000000000000, 0.000000000000000000, 0.000000000000000000, 0.000000000000000000, 0.000000000000000000 ) ;
#65 = PRESENTATION_STYLE_ASSIGNMENT (( #41 ) ) ;
#66 = DIMENSIONAL_EXPONENTS ( 1.000000000000000000, 0.000000000000000000, 0.000000000000000000, 0.000000000000000000, 0.000000000000000000, 0.000000000000000000, 0.000000000000000000 ) ;
#67 = ORIENTED_EDGE ( 'NONE', *, *, #14, .T. ) ;
#68 = SURFACE_STYLE_USAGE ( .BOTH. , #173 ) ;
#69 = ORIENTED_EDGE ( 'NONE', *, *, #207, .F. ) ;
#70 = PRESENTATION_STYLE_ASSIGNMENT (( #68 ) ) ;
#71 = EDGE_CURVE ( 'NONE', #292, #77, #40, .T. ) ;
#72 = FACE_OUTER_BOUND ( 'NONE', #87, .T. ) ;
#73 = ORIENTED_EDGE ( 'NONE', *, *, #54, .T. ) ;
#74 = CARTESIAN_POINT ( 'NONE',  ( -0.3125000000000001665, 4.000000000000000000, 0.000000000000000000 ) ) ;
#75 = CLOSED_SHELL ( 'NONE', ( #103, #148, #61, #228 ) ) ;
#76 = STYLED_ITEM ( 'NONE', ( #70 ), #257 ) ;
#77 = VERTEX_POINT ( 'NONE', #52 ) ;
#78 = SURFACE_STYLE_USAGE ( .BOTH. , #141 ) ;
#79 = CARTESIAN_POINT ( 'NONE',  ( -0.3125000000000000000, 1.625000000000000000, 0.000000000000000000 ) ) ;
#80 = APPLICATION_CONTEXT ( 'automotive_design' ) ;
#81 =( CONVERSION_BASED_UNIT ( 'INCH', #149 ) LENGTH_UNIT ( ) NAMED_UNIT ( #162 ) );
#82 = SURFACE_SIDE_STYLE ('',( #154 ) ) ;
#83 = DIRECTION ( 'NONE',  ( -2.578203787678638882E-17, 1.000000000000000000, -0.000000000000000000 ) ) ;
#84 = AXIS2_PLACEMENT_3D ( 'NONE', #218, #22, #293 ) ;
#85 = LENGTH_MEASURE_WITH_UNIT ( LENGTH_MEASURE( 0.02539999999999999897 ), #134 );
#86 = EDGE_CURVE ( 'NONE', #244, #217, #309, .T. ) ;
#87 = EDGE_LOOP ( 'NONE', ( #297, #195, #238, #146 ) ) ;
#88 = CARTESIAN_POINT ( 'NONE',  ( 0.000000000000000000, 0.000000000000000000, 0.000000000000000000 ) ) ;
#89 = CARTESIAN_POINT ( 'NONE',  ( 1.516480271171051896E-32, 1.625000000000000000, 0.000000000000000000 ) ) ;
#90 = CIRCLE ( 'NONE', #115, 0.3125000000000000000 ) ;
#91 = DIRECTION ( 'NONE',  ( -1.000000000000000000, 0.000000000000000000, 0.000000000000000000 ) ) ;
#92 = EDGE_LOOP ( 'NONE', ( #73, #19 ) ) ;
#93 =( NAMED_UNIT ( * ) PLANE_ANGLE_UNIT ( ) SI_UNIT ( $, .RADIAN. ) );
#94 = ORIENTED_EDGE ( 'NONE', *, *, #116, .F. ) ;
#95 = FILL_AREA_STYLE_COLOUR ( '', #189 ) ;
#96 =( GEOMETRIC_REPRESENTATION_CONTEXT ( 3 ) GLOBAL_UNCERTAINTY_ASSIGNED_CONTEXT ( ( #99 ) ) GLOBAL_UNIT_ASSIGNED_CONTEXT ( ( #12, #161, #234 ) ) REPRESENTATION_CONTEXT ( 'NONE', 'WORKASPACE' ) );
#97 = CYLINDRICAL_SURFACE ( 'NONE', #305, 0.3125000000000000000 ) ;
#98 = DIRECTION ( 'NONE',  ( -2.578203787678638882E-17, 1.000000000000000000, 0.000000000000000000 ) ) ;
#99 = UNCERTAINTY_MEASURE_WITH_UNIT (LENGTH_MEASURE( 1.000000000000000082E-05 ), #12, 'distance_accuracy_value', 'NONE');
#100 = AXIS2_PLACEMENT_3D ( 'NONE', #145, #1, #192 ) ;
#101 = AXIS2_PLACEMENT_3D ( 'NONE', #88, #172, #119 ) ;
#102 =( NAMED_UNIT ( * ) PLANE_ANGLE_UNIT ( ) SI_UNIT ( $, .RADIAN. ) );
#103 = ADVANCED_FACE ( 'NONE', ( #72 ), #210, .T. ) ;
#104 =( NAMED_UNIT ( * ) PLANE_ANGLE_UNIT ( ) SI_UNIT ( $, .RADIAN. ) );
#105 = APPLICATION_CONTEXT ( 'automotive_design' ) ;
#106 = UNCERTAINTY_MEASURE_WITH_UNIT (LENGTH_MEASURE( 1.000000000000000082E-05 ), #273, 'distance_accuracy_value', 'NONE');
#107 = APPLICATION_PROTOCOL_DEFINITION ( 'draft international standard', 'automotive_design', 1998, #105 ) ;
#108 = FILL_AREA_STYLE ('',( #191 ) ) ;
#109 = DIMENSIONAL_EXPONENTS ( 1.000000000000000000, 0.000000000000000000, 0.000000000000000000, 0.000000000000000000, 0.000000000000000000, 0.000000000000000000, 0.000000000000000000 ) ;
#110 = CARTESIAN_POINT ( 'NONE',  ( -6.123233995736766036E-17, 4.000000000000000000, 0.000000000000000000 ) ) ;
#111 = FACE_OUTER_BOUND ( 'NONE', #49, .T. ) ;
#112 =( NAMED_UNIT ( * ) PLANE_ANGLE_UNIT ( ) SI_UNIT ( $, .RADIAN. ) );
#113 = PRESENTATION_STYLE_ASSIGNMENT (( #251 ) ) ;
#114 = CIRCLE ( 'NONE', #284, 0.3125000000000000000 ) ;
#115 = AXIS2_PLACEMENT_3D ( 'NONE', #63, #155, #258 ) ;
#116 = EDGE_CURVE ( 'NONE', #5, #217, #174, .T. ) ;
#117 = VERTEX_POINT ( 'NONE', #79 ) ;
#118 =( LENGTH_UNIT ( ) NAMED_UNIT ( * ) SI_UNIT ( $, .METRE. ) );
#119 = DIRECTION ( 'NONE',  ( 0.000000000000000000, 0.000000000000000000, -1.000000000000000000 ) ) ;
#120 = PRESENTATION_LAYER_ASSIGNMENT (  '', '', ( #53 ) ) ;
#121 = EDGE_LOOP ( 'NONE', ( #168, #295 ) ) ;
#122 = CARTESIAN_POINT ( 'NONE',  ( 0.000000000000000000, 0.000000000000000000, -0.3125000000000000000 ) ) ;
#123 = FACE_OUTER_BOUND ( 'NONE', #137, .T. ) ;
#124 =( GEOMETRIC_REPRESENTATION_CONTEXT ( 3 ) GLOBAL_UNCERTAINTY_ASSIGNED_CONTEXT ( ( #158 ) ) GLOBAL_UNIT_ASSIGNED_CONTEXT ( ( #81, #252, #224 ) ) REPRESENTATION_CONTEXT ( 'NONE', 'WORKASPACE' ) );
#125 = PRODUCT_DEFINITION_FORMATION_WITH_SPECIFIED_SOURCE ( 'ANY', '', #259, .NOT_KNOWN. ) ;
#126 = DIMENSIONAL_EXPONENTS ( 1.000000000000000000, 0.000000000000000000, 0.000000000000000000, 0.000000000000000000, 0.000000000000000000, 0.000000000000000000, 0.000000000000000000 ) ;
#127 = AXIS2_PLACEMENT_3D ( 'NONE', #176, #187, #206 ) ;
#128 = CIRCLE ( 'NONE', #221, 0.3125000000000000000 ) ;
#129 = UNCERTAINTY_MEASURE_WITH_UNIT (LENGTH_MEASURE( 1.000000000000000082E-05 ), #39, 'distance_accuracy_value', 'NONE');
#130 = DIRECTION ( 'NONE',  ( 1.000000000000000000, 0.000000000000000000, 0.000000000000000000 ) ) ;
#131 = SURFACE_STYLE_FILL_AREA ( #108 ) ;
#132 = CARTESIAN_POINT ( 'NONE',  ( 0.3124999999999999445, 4.000000000000000000, 3.827021247335478926E-17 ) ) ;
#133 = PRODUCT_DEFINITION_SHAPE ( 'NONE', 'NONE',  #34 ) ;
#134 =( LENGTH_UNIT ( ) NAMED_UNIT ( * ) SI_UNIT ( $, .METRE. ) );
#135 = DIRECTION ( 'NONE',  ( -0.000000000000000000, -1.000000000000000000, -0.000000000000000000 ) ) ;
#136 = CIRCLE ( 'NONE', #127, 0.3125000000000000555 ) ;
#137 = EDGE_LOOP ( 'NONE', ( #215, #67 ) ) ;
#138 =( GEOMETRIC_REPRESENTATION_CONTEXT ( 3 ) GLOBAL_UNCERTAINTY_ASSIGNED_CONTEXT ( ( #230 ) ) GLOBAL_UNIT_ASSIGNED_CONTEXT ( ( #56, #243, #236 ) ) REPRESENTATION_CONTEXT ( 'NONE', 'WORKASPACE' ) );
#139 = ORIENTED_EDGE ( 'NONE', *, *, #298, .F. ) ;
#140 = FACE_OUTER_BOUND ( 'NONE', #92, .T. ) ;
#141 = SURFACE_SIDE_STYLE ('',( #239 ) ) ;
#142 = ORIENTED_EDGE ( 'NONE', *, *, #71, .F. ) ;
#143 = MANIFOLD_SOLID_BREP ( 'Revolve - Tool Body (Straight Shanked)', #75 ) ;
#144 = AXIS2_PLACEMENT_3D ( 'NONE', #159, #36, #130 ) ;
#145 = CARTESIAN_POINT ( 'NONE',  ( 0.000000000000000000, 0.000000000000000000, 0.000000000000000000 ) ) ;
#146 = ORIENTED_EDGE ( 'NONE', *, *, #62, .F. ) ;
#147 = CARTESIAN_POINT ( 'NONE',  ( 0.3125000000000000000, 1.625000000000000000, 3.827021247335478926E-17 ) ) ;
#148 = ADVANCED_FACE ( 'NONE', ( #302 ), #178, .F. ) ;
#149 = LENGTH_MEASURE_WITH_UNIT ( LENGTH_MEASURE( 0.02539999999999999897 ), #57 );
#150 = PLANE ( 'NONE',  #188 ) ;
#151 = UNCERTAINTY_MEASURE_WITH_UNIT (LENGTH_MEASURE( 1.000000000000000082E-05 ), #194, 'distance_accuracy_value', 'NONE');
#152 = ADVANCED_FACE ( 'NONE', ( #202 ), #150, .T. ) ;
#153 =( NAMED_UNIT ( * ) SI_UNIT ( $, .STERADIAN. ) SOLID_ANGLE_UNIT ( ) );
#154 = SURFACE_STYLE_FILL_AREA ( #181 ) ;
#155 = DIRECTION ( 'NONE',  ( -0.000000000000000000, -1.000000000000000000, -0.000000000000000000 ) ) ;
#156 = DIRECTION ( 'NONE',  ( 0.000000000000000000, 0.000000000000000000, -1.000000000000000000 ) ) ;
#157 = DIRECTION ( 'NONE',  ( -1.000000000000000000, 0.000000000000000000, 0.000000000000000000 ) ) ;
#158 = UNCERTAINTY_MEASURE_WITH_UNIT (LENGTH_MEASURE( 1.000000000000000082E-05 ), #81, 'distance_accuracy_value', 'NONE');
#159 = CARTESIAN_POINT ( 'NONE',  ( 0.000000000000000000, 0.000000000000000000, 0.000000000000000000 ) ) ;
#160 = EDGE_CURVE ( 'NONE', #5, #164, #225, .T. ) ;
#161 =( NAMED_UNIT ( * ) PLANE_ANGLE_UNIT ( ) SI_UNIT ( $, .RADIAN. ) );
#162 = DIMENSIONAL_EXPONENTS ( 1.000000000000000000, 0.000000000000000000, 0.000000000000000000, 0.000000000000000000, 0.000000000000000000, 0.000000000000000000, 0.000000000000000000 ) ;
#163 = COLOUR_RGB ( '',1.000000000000000000, 0.000000000000000000, 0.000000000000000000 ) ;
#164 = VERTEX_POINT ( 'NONE', #60 ) ;
#165 = CARTESIAN_POINT ( 'NONE',  ( 0.000000000000000000, 0.000000000000000000, -0.3125000000000000000 ) ) ;
#166 = CYLINDRICAL_SURFACE ( 'NONE', #227, 0.3125000000000000000 ) ;
#167 = LENGTH_MEASURE_WITH_UNIT ( LENGTH_MEASURE( 0.02539999999999999897 ), #214 );
#168 = ORIENTED_EDGE ( 'NONE', *, *, #204, .F. ) ;
#169 = ORIENTED_EDGE ( 'NONE', *, *, #298, .T. ) ;
#170 = VECTOR ( 'NONE', #288, 39.37007874015748143 ) ;
#171 = COLOUR_RGB ( '',0.7921568627450980005, 0.8196078431372548767, 0.9333333333333333481 ) ;
#172 = DIRECTION ( 'NONE',  ( 0.000000000000000000, -1.000000000000000000, -0.000000000000000000 ) ) ;
#173 = SURFACE_SIDE_STYLE ('',( #271 ) ) ;
#174 = LINE ( 'NONE', #276, #6 ) ;
#175 =( NAMED_UNIT ( * ) SI_UNIT ( $, .STERADIAN. ) SOLID_ANGLE_UNIT ( ) );
#176 = CARTESIAN_POINT ( 'NONE',  ( -6.123233995736766036E-17, 4.000000000000000000, 0.000000000000000000 ) ) ;
#177 = SURFACE_STYLE_FILL_AREA ( #299 ) ;
#178 = PLANE ( 'NONE',  #38 ) ;
#179 = AXIS2_PLACEMENT_3D ( 'NONE', #110, #35, #306 ) ;
#180 =( LENGTH_UNIT ( ) NAMED_UNIT ( * ) SI_UNIT ( $, .METRE. ) );
#181 = FILL_AREA_STYLE ('',( #301 ) ) ;
#182 = MECHANICAL_DESIGN_GEOMETRIC_PRESENTATION_REPRESENTATION (  '', ( #28 ), #265 ) ;
#183 = PRESENTATION_LAYER_ASSIGNMENT (  '', '', ( #7 ) ) ;
#184 = DIRECTION ( 'NONE',  ( -0.000000000000000000, -1.000000000000000000, -0.000000000000000000 ) ) ;
#185 = DIMENSIONAL_EXPONENTS ( 1.000000000000000000, 0.000000000000000000, 0.000000000000000000, 0.000000000000000000, 0.000000000000000000, 0.000000000000000000, 0.000000000000000000 ) ;
#186 = CARTESIAN_POINT ( 'NONE',  ( 3.827021247335478926E-17, 0.000000000000000000, 0.3125000000000000000 ) ) ;
#187 = DIRECTION ( 'NONE',  ( -2.578203787678638882E-17, 1.000000000000000000, -0.000000000000000000 ) ) ;
#188 = AXIS2_PLACEMENT_3D ( 'NONE', #30, #229, #280 ) ;
#189 = COLOUR_RGB ( '',1.000000000000000000, 0.000000000000000000, 0.000000000000000000 ) ;
#190 = PRODUCT_DEFINITION_CONTEXT ( 'detailed design', #80, 'design' ) ;
#191 = FILL_AREA_STYLE_COLOUR ( '', #219 ) ;
#192 = DIRECTION ( 'NONE',  ( 0.000000000000000000, 0.000000000000000000, -1.000000000000000000 ) ) ;
#193 = ORIENTED_EDGE ( 'NONE', *, *, #62, .T. ) ;
#194 =( CONVERSION_BASED_UNIT ( 'INCH', #213 ) LENGTH_UNIT ( ) NAMED_UNIT ( #126 ) );
#195 = ORIENTED_EDGE ( 'NONE', *, *, #71, .T. ) ;
#196 = FACE_OUTER_BOUND ( 'NONE', #235, .T. ) ;
#197 = PLANE ( 'NONE',  #101 ) ;
#198 = ORIENTED_EDGE ( 'NONE', *, *, #14, .F. ) ;
#199 = ADVANCED_FACE ( 'NONE', ( #8 ), #97, .T. ) ;
#200 = ORIENTED_EDGE ( 'NONE', *, *, #160, .T. ) ;
#201 = FILL_AREA_STYLE_COLOUR ( '', #272 ) ;
#202 = FACE_OUTER_BOUND ( 'NONE', #121, .T. ) ;
#203 = VECTOR ( 'NONE', #231, 39.37007874015748143 ) ;
#204 = EDGE_CURVE ( 'NONE', #164, #5, #90, .T. ) ;
#205 = STYLED_ITEM ( 'NONE', ( #220 ), #152 ) ;
#206 = DIRECTION ( 'NONE',  ( -1.000000000000000000, 0.000000000000000000, 0.000000000000000000 ) ) ;
#207 = EDGE_CURVE ( 'NONE', #77, #269, #2, .T. ) ;
#208 = CARTESIAN_POINT ( 'NONE',  ( -6.123233995736766036E-17, 4.000000000000000000, 0.000000000000000000 ) ) ;
#209 = MECHANICAL_DESIGN_GEOMETRIC_PRESENTATION_REPRESENTATION (  '', ( #7 ), #124 ) ;
#210 = CYLINDRICAL_SURFACE ( 'NONE', #44, 0.3125000000000000000 ) ;
#211 = ORIENTED_EDGE ( 'NONE', *, *, #282, .F. ) ;
#212 = CARTESIAN_POINT ( 'NONE',  ( 3.827021247335478926E-17, 1.625000000000000000, 0.3125000000000000000 ) ) ;
#213 = LENGTH_MEASURE_WITH_UNIT ( LENGTH_MEASURE( 0.02539999999999999897 ), #118 );
#214 =( LENGTH_UNIT ( ) NAMED_UNIT ( * ) SI_UNIT ( $, .METRE. ) );
#215 = ORIENTED_EDGE ( 'NONE', *, *, #86, .T. ) ;
#216 = MECHANICAL_DESIGN_GEOMETRIC_PRESENTATION_REPRESENTATION (  '', ( #20 ), #96 ) ;
#217 = VERTEX_POINT ( 'NONE', #186 ) ;
#218 = CARTESIAN_POINT ( 'NONE',  ( 0.3125000000000000000, 4.000000000000000000, 0.000000000000000000 ) ) ;
#219 = COLOUR_RGB ( '',0.7921568627450980005, 0.8196078431372548767, 0.9333333333333333481 ) ;
#220 = PRESENTATION_STYLE_ASSIGNMENT (( #255 ) ) ;
#221 = AXIS2_PLACEMENT_3D ( 'NONE', #89, #45, #91 ) ;
#222 = CARTESIAN_POINT ( 'NONE',  ( 1.038614807937575041E-34, 1.625000000000000000, 0.000000000000000000 ) ) ;
#223 = DIRECTION ( 'NONE',  ( 0.000000000000000000, 0.000000000000000000, -1.000000000000000000 ) ) ;
#224 =( NAMED_UNIT ( * ) SI_UNIT ( $, .STERADIAN. ) SOLID_ANGLE_UNIT ( ) );
#225 = CIRCLE ( 'NONE', #10, 0.3125000000000000000 ) ;
#226 = PRESENTATION_LAYER_ASSIGNMENT (  '', '', ( #20 ) ) ;
#227 = AXIS2_PLACEMENT_3D ( 'NONE', #281, #135, #37 ) ;
#228 = ADVANCED_FACE ( 'NONE', ( #140 ), #245, .F. ) ;
#229 = DIRECTION ( 'NONE',  ( 0.000000000000000000, 1.000000000000000000, 0.000000000000000000 ) ) ;
#230 = UNCERTAINTY_MEASURE_WITH_UNIT (LENGTH_MEASURE( 1.000000000000000082E-05 ), #56, 'distance_accuracy_value', 'NONE');
#231 = DIRECTION ( 'NONE',  ( -2.578203787678638882E-17, 1.000000000000000000, -0.000000000000000000 ) ) ;
#232 = LENGTH_MEASURE_WITH_UNIT ( LENGTH_MEASURE( 0.02539999999999999897 ), #289 );
#233 = SHAPE_DEFINITION_REPRESENTATION ( #133, #32 ) ;
#234 =( NAMED_UNIT ( * ) SI_UNIT ( $, .STERADIAN. ) SOLID_ANGLE_UNIT ( ) );
#235 = EDGE_LOOP ( 'NONE', ( #17, #43, #4, #266 ) ) ;
#236 =( NAMED_UNIT ( * ) SI_UNIT ( $, .STERADIAN. ) SOLID_ANGLE_UNIT ( ) );
#237 = PRODUCT_RELATED_PRODUCT_CATEGORY ( 'part', '', ( #259 ) ) ;
#238 = ORIENTED_EDGE ( 'NONE', *, *, #54, .F. ) ;
#239 = SURFACE_STYLE_FILL_AREA ( #48 ) ;
#240 = EDGE_LOOP ( 'NONE', ( #94, #200, #46, #198 ) ) ;
#241 = PRESENTATION_LAYER_ASSIGNMENT (  '', '', ( #205 ) ) ;
#242 = MECHANICAL_DESIGN_GEOMETRIC_PRESENTATION_REPRESENTATION (  '', ( #53 ), #138 ) ;
#243 =( NAMED_UNIT ( * ) PLANE_ANGLE_UNIT ( ) SI_UNIT ( $, .RADIAN. ) );
#244 = VERTEX_POINT ( 'NONE', #122 ) ;
#245 = PLANE ( 'NONE',  #84 ) ;
#246 = PRESENTATION_STYLE_ASSIGNMENT (( #9 ) ) ;
#247 = DIRECTION ( 'NONE',  ( -0.000000000000000000, -1.000000000000000000, -0.000000000000000000 ) ) ;
#248 = CARTESIAN_POINT ( 'NONE',  ( 0.000000000000000000, 1.625000000000000000, 0.000000000000000000 ) ) ;
#249 = DIRECTION ( 'NONE',  ( -1.000000000000000000, 0.000000000000000000, 0.000000000000000000 ) ) ;
#250 = SURFACE_SIDE_STYLE ('',( #283 ) ) ;
#251 = SURFACE_STYLE_USAGE ( .BOTH. , #279 ) ;
#252 =( NAMED_UNIT ( * ) PLANE_ANGLE_UNIT ( ) SI_UNIT ( $, .RADIAN. ) );
#253 = VECTOR ( 'NONE', #268, 39.37007874015748143 ) ;
#254 = CYLINDRICAL_SURFACE ( 'NONE', #304, 0.3125000000000000000 ) ;
#255 = SURFACE_STYLE_USAGE ( .BOTH. , #82 ) ;
#256 = CARTESIAN_POINT ( 'NONE',  ( -6.123233995736766036E-17, 4.000000000000000000, 0.000000000000000000 ) ) ;
#257 = MANIFOLD_SOLID_BREP ( 'Revolve - Cutting Edge', #58 ) ;
#258 = DIRECTION ( 'NONE',  ( 0.000000000000000000, 0.000000000000000000, -1.000000000000000000 ) ) ;
#259 = PRODUCT ( '26332', '26332', '', ( #42 ) ) ;
#260 = DIMENSIONAL_EXPONENTS ( 1.000000000000000000, 0.000000000000000000, 0.000000000000000000, 0.000000000000000000, 0.000000000000000000, 0.000000000000000000, 0.000000000000000000 ) ;
#261 = COLOUR_RGB ( '',1.000000000000000000, 0.000000000000000000, 0.000000000000000000 ) ;
#262 = CARTESIAN_POINT ( 'NONE',  ( -0.3125000000000000555, 4.000000000000000000, 0.000000000000000000 ) ) ;
#263 = APPLICATION_PROTOCOL_DEFINITION ( 'draft international standard', 'automotive_design', 1998, #80 ) ;
#264 = ADVANCED_FACE ( 'NONE', ( #123 ), #197, .T. ) ;
#265 =( GEOMETRIC_REPRESENTATION_CONTEXT ( 3 ) GLOBAL_UNCERTAINTY_ASSIGNED_CONTEXT ( ( #129 ) ) GLOBAL_UNIT_ASSIGNED_CONTEXT ( ( #39, #112, #270 ) ) REPRESENTATION_CONTEXT ( 'NONE', 'WORKASPACE' ) );
#266 = ORIENTED_EDGE ( 'NONE', *, *, #13, .F. ) ;
#267 = FILL_AREA_STYLE_COLOUR ( '', #171 ) ;
#268 = DIRECTION ( 'NONE',  ( -0.000000000000000000, -1.000000000000000000, -0.000000000000000000 ) ) ;
#269 = VERTEX_POINT ( 'NONE', #74 ) ;
#270 =( NAMED_UNIT ( * ) SI_UNIT ( $, .STERADIAN. ) SOLID_ANGLE_UNIT ( ) );
#271 = SURFACE_STYLE_FILL_AREA ( #55 ) ;
#272 = COLOUR_RGB ( '',1.000000000000000000, 0.000000000000000000, 0.000000000000000000 ) ;
#273 =( CONVERSION_BASED_UNIT ( 'INCH', #167 ) LENGTH_UNIT ( ) NAMED_UNIT ( #260 ) );
#274 = PRESENTATION_LAYER_ASSIGNMENT (  '', '', ( #76 ) ) ;
#275 = LINE ( 'NONE', #165, #253 ) ;
#276 = CARTESIAN_POINT ( 'NONE',  ( 3.827021247335478926E-17, 0.000000000000000000, 0.3125000000000000000 ) ) ;
#277 = DIRECTION ( 'NONE',  ( -1.000000000000000000, -2.578203787678638882E-17, 0.000000000000000000 ) ) ;
#278 = CIRCLE ( 'NONE', #296, 0.3125000000000000000 ) ;
#279 = SURFACE_SIDE_STYLE ('',( #177 ) ) ;
#280 = DIRECTION ( 'NONE',  ( 0.000000000000000000, -0.000000000000000000, 1.000000000000000000 ) ) ;
#281 = CARTESIAN_POINT ( 'NONE',  ( 0.000000000000000000, 0.000000000000000000, 0.000000000000000000 ) ) ;
#282 = EDGE_CURVE ( 'NONE', #117, #292, #278, .T. ) ;
#283 = SURFACE_STYLE_FILL_AREA ( #25 ) ;
#284 = AXIS2_PLACEMENT_3D ( 'NONE', #47, #247, #26 ) ;
#285 =( GEOMETRIC_REPRESENTATION_CONTEXT ( 3 ) GLOBAL_UNCERTAINTY_ASSIGNED_CONTEXT ( ( #151 ) ) GLOBAL_UNIT_ASSIGNED_CONTEXT ( ( #194, #93, #50 ) ) REPRESENTATION_CONTEXT ( 'NONE', 'WORKASPACE' ) );
#286 = CARTESIAN_POINT ( 'NONE',  ( 0.000000000000000000, 0.000000000000000000, 0.000000000000000000 ) ) ;
#287 = SURFACE_SIDE_STYLE ('',( #131 ) ) ;
#288 = DIRECTION ( 'NONE',  ( -2.578203787678638882E-17, 1.000000000000000000, -0.000000000000000000 ) ) ;
#289 =( LENGTH_UNIT ( ) NAMED_UNIT ( * ) SI_UNIT ( $, .METRE. ) );
#290 = DIRECTION ( 'NONE',  ( -2.578203787678638882E-17, 1.000000000000000000, -0.000000000000000000 ) ) ;
#291 = PRESENTATION_STYLE_ASSIGNMENT (( #78 ) ) ;
#292 = VERTEX_POINT ( 'NONE', #147 ) ;
#293 = DIRECTION ( 'NONE',  ( 1.000000000000000000, 2.578203787678638882E-17, 0.000000000000000000 ) ) ;
#294 = FILL_AREA_STYLE_COLOUR ( '', #261 ) ;
#295 = ORIENTED_EDGE ( 'NONE', *, *, #160, .F. ) ;
#296 = AXIS2_PLACEMENT_3D ( 'NONE', #21, #290, #308 ) ;
#297 = ORIENTED_EDGE ( 'NONE', *, *, #282, .T. ) ;
#298 = EDGE_CURVE ( 'NONE', #292, #117, #128, .T. ) ;
#299 = FILL_AREA_STYLE ('',( #201 ) ) ;
#300 = DIRECTION ( 'NONE',  ( -0.000000000000000000, -1.000000000000000000, -0.000000000000000000 ) ) ;
#301 = FILL_AREA_STYLE_COLOUR ( '', #163 ) ;
#302 = FACE_OUTER_BOUND ( 'NONE', #3, .T. ) ;
#303 = UNCERTAINTY_MEASURE_WITH_UNIT (LENGTH_MEASURE( 1.000000000000000082E-05 ), #59, 'distance_accuracy_value', 'NONE');
#304 = AXIS2_PLACEMENT_3D ( 'NONE', #208, #83, #157 ) ;
#305 = AXIS2_PLACEMENT_3D ( 'NONE', #286, #184, #156 ) ;
#306 = DIRECTION ( 'NONE',  ( -1.000000000000000000, 0.000000000000000000, 0.000000000000000000 ) ) ;
#307 = ADVANCED_FACE ( 'NONE', ( #196 ), #166, .T. ) ;
#308 = DIRECTION ( 'NONE',  ( -1.000000000000000000, 0.000000000000000000, 0.000000000000000000 ) ) ;
#309 = CIRCLE ( 'NONE', #100, 0.3125000000000000000 ) ;
ENDSEC;
END-ISO-10303-21;
