ISO-10303-21;
HEADER;
FILE_DESCRIPTION (( 'STEP AP214' ),
    '1' );
FILE_NAME ('23220.STEP',
    '2023-06-22T16:42:06',
    ( '' ),
    ( '' ),
    'SwSTEP 2.0',
    'SolidWorks 2023',
    '' );
FILE_SCHEMA (( 'AUTOMOTIVE_DESIGN' ));
ENDSEC;

DATA;
#1 = PRESENTATION_STYLE_ASSIGNMENT (( #257 ) ) ;
#2 = AXIS2_PLACEMENT_3D ( 'NONE', #211, #17, #282 ) ;
#3 = AXIS2_PLACEMENT_3D ( 'NONE', #79, #264, #150 ) ;
#4 = DIMENSIONAL_EXPONENTS ( 1.000000000000000000, 0.000000000000000000, 0.000000000000000000, 0.000000000000000000, 0.000000000000000000, 0.000000000000000000, 0.000000000000000000 ) ;
#5 = FILL_AREA_STYLE_COLOUR ( '', #89 ) ;
#6 =( LENGTH_UNIT ( ) NAMED_UNIT ( * ) SI_UNIT ( $, .METRE. ) );
#7 = DIMENSIONAL_EXPONENTS ( 1.000000000000000000, 0.000000000000000000, 0.000000000000000000, 0.000000000000000000, 0.000000000000000000, 0.000000000000000000, 0.000000000000000000 ) ;
#8 = CARTESIAN_POINT ( 'NONE',  ( 0.000000000000000000, 1.625000000000000000, -0.2500000000000000000 ) ) ;
#9 = ORIENTED_EDGE ( 'NONE', *, *, #108, .T. ) ;
#10 = DIRECTION ( 'NONE',  ( -1.000000000000000000, 0.000000000000000000, 0.000000000000000000 ) ) ;
#11 = AXIS2_PLACEMENT_3D ( 'NONE', #279, #307, #245 ) ;
#12 = CARTESIAN_POINT ( 'NONE',  ( 0.2500000000000000555, 4.000000000000000000, 3.061616997868384251E-17 ) ) ;
#13 = EDGE_CURVE ( 'NONE', #96, #205, #184, .T. ) ;
#14 = ORIENTED_EDGE ( 'NONE', *, *, #168, .T. ) ;
#15 = APPLICATION_CONTEXT ( 'automotive_design' ) ;
#16 = DIRECTION ( 'NONE',  ( 0.000000000000000000, 0.000000000000000000, -1.000000000000000000 ) ) ;
#17 = DIRECTION ( 'NONE',  ( 0.000000000000000000, -1.000000000000000000, -0.000000000000000000 ) ) ;
#18 = EDGE_LOOP ( 'NONE', ( #283, #69 ) ) ;
#19 = UNCERTAINTY_MEASURE_WITH_UNIT (LENGTH_MEASURE( 1.000000000000000082E-05 ), #141, 'distance_accuracy_value', 'NONE');
#20 = CARTESIAN_POINT ( 'NONE',  ( 0.000000000000000000, 1.625000000000000000, 0.000000000000000000 ) ) ;
#21 = MECHANICAL_DESIGN_GEOMETRIC_PRESENTATION_REPRESENTATION (  '', ( #80 ), #191 ) ;
#22 = CARTESIAN_POINT ( 'NONE',  ( -1.224646799147352714E-16, 4.000000000000000000, 0.000000000000000000 ) ) ;
#23 = ADVANCED_FACE ( 'NONE', ( #299 ), #260, .F. ) ;
#24 =( NAMED_UNIT ( * ) PLANE_ANGLE_UNIT ( ) SI_UNIT ( $, .RADIAN. ) );
#25 = DIRECTION ( 'NONE',  ( 1.000000000000000000, 0.000000000000000000, 0.000000000000000000 ) ) ;
#26 = VECTOR ( 'NONE', #210, 39.37007874015748143 ) ;
#27 = DIRECTION ( 'NONE',  ( 0.000000000000000000, 0.000000000000000000, 1.000000000000000000 ) ) ;
#28 = LENGTH_MEASURE_WITH_UNIT ( LENGTH_MEASURE( 0.02539999999999999897 ), #111 );
#29 = FILL_AREA_STYLE ('',( #152 ) ) ;
#30 = CARTESIAN_POINT ( 'NONE',  ( -1.224646799147352714E-16, 4.000000000000000000, 0.000000000000000000 ) ) ;
#31 = ORIENTED_EDGE ( 'NONE', *, *, #123, .T. ) ;
#32 = SURFACE_SIDE_STYLE ('',( #251 ) ) ;
#33 = ORIENTED_EDGE ( 'NONE', *, *, #303, .F. ) ;
#34 = EDGE_CURVE ( 'NONE', #133, #205, #220, .T. ) ;
#35 = DIRECTION ( 'NONE',  ( -0.000000000000000000, -1.000000000000000000, -0.000000000000000000 ) ) ;
#36 = ORIENTED_EDGE ( 'NONE', *, *, #265, .F. ) ;
#37 =( LENGTH_UNIT ( ) NAMED_UNIT ( * ) SI_UNIT ( $, .METRE. ) );
#38 = FACE_OUTER_BOUND ( 'NONE', #94, .T. ) ;
#39 = COLOUR_RGB ( '',0.7921568627450980005, 0.8196078431372548767, 0.9333333333333333481 ) ;
#40 = AXIS2_PLACEMENT_3D ( 'NONE', #297, #296, #64 ) ;
#41 = ORIENTED_EDGE ( 'NONE', *, *, #230, .F. ) ;
#42 = ORIENTED_EDGE ( 'NONE', *, *, #78, .F. ) ;
#43 = MANIFOLD_SOLID_BREP ( 'Revolve - Cutting Edge', #105 ) ;
#44 =( NAMED_UNIT ( * ) PLANE_ANGLE_UNIT ( ) SI_UNIT ( $, .RADIAN. ) );
#45 = ADVANCED_FACE ( 'NONE', ( #162 ), #218, .F. ) ;
#46 = VECTOR ( 'NONE', #266, 39.37007874015748143 ) ;
#47 =( NAMED_UNIT ( * ) SI_UNIT ( $, .STERADIAN. ) SOLID_ANGLE_UNIT ( ) );
#48 = DIRECTION ( 'NONE',  ( -1.000000000000000000, 0.000000000000000000, 0.000000000000000000 ) ) ;
#49 = STYLED_ITEM ( 'NONE', ( #298 ), #117 ) ;
#50 =( GEOMETRIC_REPRESENTATION_CONTEXT ( 3 ) GLOBAL_UNCERTAINTY_ASSIGNED_CONTEXT ( ( #154 ) ) GLOBAL_UNIT_ASSIGNED_CONTEXT ( ( #195, #44, #294 ) ) REPRESENTATION_CONTEXT ( 'NONE', 'WORKASPACE' ) );
#51 = SURFACE_STYLE_USAGE ( .BOTH. , #285 ) ;
#52 = FILL_AREA_STYLE_COLOUR ( '', #196 ) ;
#53 = AXIS2_PLACEMENT_3D ( 'NONE', #301, #151, #48 ) ;
#54 = DIRECTION ( 'NONE',  ( -0.000000000000000000, -1.000000000000000000, -0.000000000000000000 ) ) ;
#55 = PRESENTATION_STYLE_ASSIGNMENT (( #235 ) ) ;
#56 = DIMENSIONAL_EXPONENTS ( 1.000000000000000000, 0.000000000000000000, 0.000000000000000000, 0.000000000000000000, 0.000000000000000000, 0.000000000000000000, 0.000000000000000000 ) ;
#57 = DIRECTION ( 'NONE',  ( -5.156407575357275299E-17, 1.000000000000000000, -0.000000000000000000 ) ) ;
#58 = PRESENTATION_STYLE_ASSIGNMENT (( #253 ) ) ;
#59 = DIRECTION ( 'NONE',  ( -0.000000000000000000, -1.000000000000000000, -0.000000000000000000 ) ) ;
#60 = CIRCLE ( 'NONE', #200, 0.2500000000000000000 ) ;
#61 = FILL_AREA_STYLE ('',( #233 ) ) ;
#62 =( NAMED_UNIT ( * ) PLANE_ANGLE_UNIT ( ) SI_UNIT ( $, .RADIAN. ) );
#63 = ORIENTED_EDGE ( 'NONE', *, *, #98, .T. ) ;
#64 = DIRECTION ( 'NONE',  ( 0.000000000000000000, 0.000000000000000000, -1.000000000000000000 ) ) ;
#65 = VERTEX_POINT ( 'NONE', #157 ) ;
#66 = SURFACE_STYLE_USAGE ( .BOTH. , #140 ) ;
#67 = FACE_OUTER_BOUND ( 'NONE', #239, .T. ) ;
#68 = ORIENTED_EDGE ( 'NONE', *, *, #34, .F. ) ;
#69 = ORIENTED_EDGE ( 'NONE', *, *, #123, .F. ) ;
#70 = LENGTH_MEASURE_WITH_UNIT ( LENGTH_MEASURE( 0.02539999999999999897 ), #276 );
#71 = PRODUCT_RELATED_PRODUCT_CATEGORY ( 'part', '', ( #119 ) ) ;
#72 = DIRECTION ( 'NONE',  ( -1.000000000000000000, 0.000000000000000000, 0.000000000000000000 ) ) ;
#73 = LENGTH_MEASURE_WITH_UNIT ( LENGTH_MEASURE( 0.02539999999999999897 ), #93 );
#74 = ORIENTED_EDGE ( 'NONE', *, *, #34, .T. ) ;
#75 = FILL_AREA_STYLE_COLOUR ( '', #174 ) ;
#76 = PRESENTATION_LAYER_ASSIGNMENT (  '', '', ( #142 ) ) ;
#77 = ADVANCED_FACE ( 'NONE', ( #248 ), #252, .T. ) ;
#78 = EDGE_CURVE ( 'NONE', #234, #212, #130, .T. ) ;
#79 = CARTESIAN_POINT ( 'NONE',  ( -1.224646799147352714E-16, 4.000000000000000000, 0.000000000000000000 ) ) ;
#80 = STYLED_ITEM ( 'NONE', ( #58 ), #145 ) ;
#81 = DIRECTION ( 'NONE',  ( -0.000000000000000000, -1.000000000000000000, -0.000000000000000000 ) ) ;
#82 = AXIS2_PLACEMENT_3D ( 'NONE', #232, #309, #153 ) ;
#83 = UNCERTAINTY_MEASURE_WITH_UNIT (LENGTH_MEASURE( 1.000000000000000082E-05 ), #189, 'distance_accuracy_value', 'NONE');
#84 = DIMENSIONAL_EXPONENTS ( 1.000000000000000000, 0.000000000000000000, 0.000000000000000000, 0.000000000000000000, 0.000000000000000000, 0.000000000000000000, 0.000000000000000000 ) ;
#85 = DIMENSIONAL_EXPONENTS ( 1.000000000000000000, 0.000000000000000000, 0.000000000000000000, 0.000000000000000000, 0.000000000000000000, 0.000000000000000000, 0.000000000000000000 ) ;
#86 = SURFACE_SIDE_STYLE ('',( #134 ) ) ;
#87 =( CONVERSION_BASED_UNIT ( 'INCH', #209 ) LENGTH_UNIT ( ) NAMED_UNIT ( #85 ) );
#88 = DIRECTION ( 'NONE',  ( 0.000000000000000000, 1.000000000000000000, 0.000000000000000000 ) ) ;
#89 = COLOUR_RGB ( '',1.000000000000000000, 0.000000000000000000, 0.000000000000000000 ) ;
#90 = DIRECTION ( 'NONE',  ( -0.000000000000000000, -1.000000000000000000, -0.000000000000000000 ) ) ;
#91 = ORIENTED_EDGE ( 'NONE', *, *, #156, .F. ) ;
#92 = CARTESIAN_POINT ( 'NONE',  ( -1.224646799147352714E-16, 4.000000000000000000, 0.000000000000000000 ) ) ;
#93 =( LENGTH_UNIT ( ) NAMED_UNIT ( * ) SI_UNIT ( $, .METRE. ) );
#94 = EDGE_LOOP ( 'NONE', ( #112, #31, #14, #275 ) ) ;
#95 = UNCERTAINTY_MEASURE_WITH_UNIT (LENGTH_MEASURE( 1.000000000000000082E-05 ), #274, 'distance_accuracy_value', 'NONE');
#96 = VERTEX_POINT ( 'NONE', #146 ) ;
#97 = CARTESIAN_POINT ( 'NONE',  ( -0.2500000000000002220, 4.000000000000000000, 0.000000000000000000 ) ) ;
#98 = EDGE_CURVE ( 'NONE', #167, #96, #259, .T. ) ;
#99 = LINE ( 'NONE', #97, #46 ) ;
#100 = PRESENTATION_LAYER_ASSIGNMENT (  '', '', ( #80 ) ) ;
#101 = DIRECTION ( 'NONE',  ( -1.000000000000000000, 0.000000000000000000, 0.000000000000000000 ) ) ;
#102 = UNCERTAINTY_MEASURE_WITH_UNIT (LENGTH_MEASURE( 1.000000000000000082E-05 ), #278, 'distance_accuracy_value', 'NONE');
#103 = SURFACE_STYLE_FILL_AREA ( #120 ) ;
#104 = FACE_OUTER_BOUND ( 'NONE', #185, .T. ) ;
#105 = CLOSED_SHELL ( 'NONE', ( #269, #202, #225, #117 ) ) ;
#106 = CARTESIAN_POINT ( 'NONE',  ( 0.000000000000000000, 0.000000000000000000, 0.000000000000000000 ) ) ;
#107 = FILL_AREA_STYLE ('',( #52 ) ) ;
#108 = EDGE_CURVE ( 'NONE', #205, #133, #308, .T. ) ;
#109 = AXIS2_PLACEMENT_3D ( 'NONE', #148, #242, #121 ) ;
#110 = CIRCLE ( 'NONE', #263, 0.2500000000000000000 ) ;
#111 =( LENGTH_UNIT ( ) NAMED_UNIT ( * ) SI_UNIT ( $, .METRE. ) );
#112 = ORIENTED_EDGE ( 'NONE', *, *, #13, .F. ) ;
#113 = LINE ( 'NONE', #158, #201 ) ;
#114 = LINE ( 'NONE', #291, #137 ) ;
#115 = CARTESIAN_POINT ( 'NONE',  ( 0.000000000000000000, 0.000000000000000000, -0.2500000000000000000 ) ) ;
#116 = ORIENTED_EDGE ( 'NONE', *, *, #156, .T. ) ;
#117 = ADVANCED_FACE ( 'NONE', ( #104 ), #238, .T. ) ;
#118 = AXIS2_PLACEMENT_3D ( 'NONE', #270, #88, #183 ) ;
#119 = PRODUCT ( '23220', '23220', '', ( #267 ) ) ;
#120 = FILL_AREA_STYLE ('',( #75 ) ) ;
#121 = DIRECTION ( 'NONE',  ( 0.000000000000000000, 0.000000000000000000, -1.000000000000000000 ) ) ;
#122 =( LENGTH_UNIT ( ) NAMED_UNIT ( * ) SI_UNIT ( $, .METRE. ) );
#123 = EDGE_CURVE ( 'NONE', #96, #167, #262, .T. ) ;
#124 = LENGTH_MEASURE_WITH_UNIT ( LENGTH_MEASURE( 0.02539999999999999897 ), #122 );
#125 = PRESENTATION_LAYER_ASSIGNMENT (  '', '', ( #286 ) ) ;
#126 = MECHANICAL_DESIGN_GEOMETRIC_PRESENTATION_REPRESENTATION (  '', ( #221 ), #50 ) ;
#127 = CARTESIAN_POINT ( 'NONE',  ( -0.2500000000000002776, 4.000000000000000000, 0.000000000000000000 ) ) ;
#128 = CARTESIAN_POINT ( 'NONE',  ( 0.000000000000000000, 1.625000000000000000, 0.000000000000000000 ) ) ;
#129 =( LENGTH_UNIT ( ) NAMED_UNIT ( * ) SI_UNIT ( $, .METRE. ) );
#130 = CIRCLE ( 'NONE', #177, 0.2500000000000000000 ) ;
#131 =( NAMED_UNIT ( * ) PLANE_ANGLE_UNIT ( ) SI_UNIT ( $, .RADIAN. ) );
#132 = CYLINDRICAL_SURFACE ( 'NONE', #207, 0.2500000000000000000 ) ;
#133 = VERTEX_POINT ( 'NONE', #127 ) ;
#134 = SURFACE_STYLE_FILL_AREA ( #204 ) ;
#135 = EDGE_LOOP ( 'NONE', ( #41, #169, #302, #36 ) ) ;
#136 =( GEOMETRIC_REPRESENTATION_CONTEXT ( 3 ) GLOBAL_UNCERTAINTY_ASSIGNED_CONTEXT ( ( #102 ) ) GLOBAL_UNIT_ASSIGNED_CONTEXT ( ( #278, #62, #139 ) ) REPRESENTATION_CONTEXT ( 'NONE', 'WORKASPACE' ) );
#137 = VECTOR ( 'NONE', #54, 39.37007874015748143 ) ;
#138 = ORIENTED_EDGE ( 'NONE', *, *, #265, .T. ) ;
#139 =( NAMED_UNIT ( * ) SI_UNIT ( $, .STERADIAN. ) SOLID_ANGLE_UNIT ( ) );
#140 = SURFACE_SIDE_STYLE ('',( #186 ) ) ;
#141 =( CONVERSION_BASED_UNIT ( 'INCH', #70 ) LENGTH_UNIT ( ) NAMED_UNIT ( #84 ) );
#142 = STYLED_ITEM ( 'NONE', ( #258 ), #43 ) ;
#143 = AXIS2_PLACEMENT_3D ( 'NONE', #247, #27, #25 ) ;
#144 = CARTESIAN_POINT ( 'NONE',  ( 3.032960542342103792E-32, 1.625000000000000000, 0.000000000000000000 ) ) ;
#145 = MANIFOLD_SOLID_BREP ( 'Revolve - Tool Body (Straight Shanked)', #170 ) ;
#146 = CARTESIAN_POINT ( 'NONE',  ( 0.2500000000000000555, 1.625000000000000000, 3.061616997868384251E-17 ) ) ;
#147 = MECHANICAL_DESIGN_GEOMETRIC_PRESENTATION_REPRESENTATION (  '', ( #49 ), #136 ) ;
#148 = CARTESIAN_POINT ( 'NONE',  ( 0.000000000000000000, 0.000000000000000000, 0.000000000000000000 ) ) ;
#149 = PRESENTATION_LAYER_ASSIGNMENT (  '', '', ( #197 ) ) ;
#150 = DIRECTION ( 'NONE',  ( -1.000000000000000000, 0.000000000000000000, 0.000000000000000000 ) ) ;
#151 = DIRECTION ( 'NONE',  ( -5.156407575357275299E-17, 1.000000000000000000, -0.000000000000000000 ) ) ;
#152 = FILL_AREA_STYLE_COLOUR ( '', #206 ) ;
#153 = DIRECTION ( 'NONE',  ( -1.000000000000000000, -5.156407575357275916E-17, 0.000000000000000000 ) ) ;
#154 = UNCERTAINTY_MEASURE_WITH_UNIT (LENGTH_MEASURE( 1.000000000000000082E-05 ), #195, 'distance_accuracy_value', 'NONE');
#155 = MECHANICAL_DESIGN_GEOMETRIC_PRESENTATION_REPRESENTATION (  '', ( #142 ), #249 ) ;
#156 = EDGE_CURVE ( 'NONE', #212, #234, #60, .T. ) ;
#157 = CARTESIAN_POINT ( 'NONE',  ( 3.061616997868383018E-17, 0.000000000000000000, 0.2500000000000000000 ) ) ;
#158 = CARTESIAN_POINT ( 'NONE',  ( 3.061616997868383018E-17, 0.000000000000000000, 0.2500000000000000000 ) ) ;
#159 = MECHANICAL_DESIGN_GEOMETRIC_PRESENTATION_REPRESENTATION (  '', ( #286 ), #244 ) ;
#160 = DIRECTION ( 'NONE',  ( 0.000000000000000000, 0.000000000000000000, -1.000000000000000000 ) ) ;
#161 = PRODUCT_DEFINITION_FORMATION_WITH_SPECIFIED_SOURCE ( 'ANY', '', #119, .NOT_KNOWN. ) ;
#162 = FACE_OUTER_BOUND ( 'NONE', #18, .T. ) ;
#163 = EDGE_CURVE ( 'NONE', #214, #65, #243, .T. ) ;
#164 = EDGE_LOOP ( 'NONE', ( #74, #9 ) ) ;
#165 = ADVANCED_BREP_SHAPE_REPRESENTATION ( '23220', ( #43, #145, #143 ), #240 ) ;
#166 = FACE_OUTER_BOUND ( 'NONE', #135, .T. ) ;
#167 = VERTEX_POINT ( 'NONE', #224 ) ;
#168 = EDGE_CURVE ( 'NONE', #167, #133, #99, .T. ) ;
#169 = ORIENTED_EDGE ( 'NONE', *, *, #78, .T. ) ;
#170 = CLOSED_SHELL ( 'NONE', ( #77, #45, #281, #23 ) ) ;
#171 = UNCERTAINTY_MEASURE_WITH_UNIT (LENGTH_MEASURE( 1.000000000000000082E-05 ), #87, 'distance_accuracy_value', 'NONE');
#172 = APPLICATION_CONTEXT ( 'automotive_design' ) ;
#173 = PRESENTATION_STYLE_ASSIGNMENT (( #51 ) ) ;
#174 = COLOUR_RGB ( '',1.000000000000000000, 0.000000000000000000, 0.000000000000000000 ) ;
#175 =( CONVERSION_BASED_UNIT ( 'INCH', #124 ) LENGTH_UNIT ( ) NAMED_UNIT ( #56 ) );
#176 = DIRECTION ( 'NONE',  ( -0.000000000000000000, -1.000000000000000000, -0.000000000000000000 ) ) ;
#177 = AXIS2_PLACEMENT_3D ( 'NONE', #20, #35, #16 ) ;
#178 = SURFACE_SIDE_STYLE ('',( #199 ) ) ;
#179 = FILL_AREA_STYLE ('',( #271 ) ) ;
#180 = DIMENSIONAL_EXPONENTS ( 1.000000000000000000, 0.000000000000000000, 0.000000000000000000, 0.000000000000000000, 0.000000000000000000, 0.000000000000000000, 0.000000000000000000 ) ;
#181 = PLANE ( 'NONE',  #118 ) ;
#182 =( NAMED_UNIT ( * ) SI_UNIT ( $, .STERADIAN. ) SOLID_ANGLE_UNIT ( ) );
#183 = DIRECTION ( 'NONE',  ( 0.000000000000000000, -0.000000000000000000, 1.000000000000000000 ) ) ;
#184 = LINE ( 'NONE', #192, #26 ) ;
#185 = EDGE_LOOP ( 'NONE', ( #256, #138 ) ) ;
#186 = SURFACE_STYLE_FILL_AREA ( #29 ) ;
#187 = CARTESIAN_POINT ( 'NONE',  ( 3.061616997868383018E-17, 1.625000000000000000, 0.2500000000000000000 ) ) ;
#188 = EDGE_LOOP ( 'NONE', ( #91, #42 ) ) ;
#189 =( CONVERSION_BASED_UNIT ( 'INCH', #300 ) LENGTH_UNIT ( ) NAMED_UNIT ( #7 ) );
#190 = CYLINDRICAL_SURFACE ( 'NONE', #250, 0.2500000000000000555 ) ;
#191 =( GEOMETRIC_REPRESENTATION_CONTEXT ( 3 ) GLOBAL_UNCERTAINTY_ASSIGNED_CONTEXT ( ( #19 ) ) GLOBAL_UNIT_ASSIGNED_CONTEXT ( ( #141, #284, #47 ) ) REPRESENTATION_CONTEXT ( 'NONE', 'WORKASPACE' ) );
#192 = CARTESIAN_POINT ( 'NONE',  ( 0.2499999999999999167, 4.000000000000000000, 3.061616997868383634E-17 ) ) ;
#193 = PRODUCT_DEFINITION_SHAPE ( 'NONE', 'NONE',  #273 ) ;
#194 = ORIENTED_EDGE ( 'NONE', *, *, #168, .F. ) ;
#195 =( CONVERSION_BASED_UNIT ( 'INCH', #254 ) LENGTH_UNIT ( ) NAMED_UNIT ( #180 ) );
#196 = COLOUR_RGB ( '',1.000000000000000000, 0.000000000000000000, 0.000000000000000000 ) ;
#197 = STYLED_ITEM ( 'NONE', ( #173 ), #202 ) ;
#198 = DIMENSIONAL_EXPONENTS ( 1.000000000000000000, 0.000000000000000000, 0.000000000000000000, 0.000000000000000000, 0.000000000000000000, 0.000000000000000000, 0.000000000000000000 ) ;
#199 = SURFACE_STYLE_FILL_AREA ( #107 ) ;
#200 = AXIS2_PLACEMENT_3D ( 'NONE', #128, #176, #287 ) ;
#201 = VECTOR ( 'NONE', #90, 39.37007874015748143 ) ;
#202 = ADVANCED_FACE ( 'NONE', ( #222 ), #181, .T. ) ;
#203 = CYLINDRICAL_SURFACE ( 'NONE', #40, 0.2500000000000000000 ) ;
#204 = FILL_AREA_STYLE ('',( #5 ) ) ;
#205 = VERTEX_POINT ( 'NONE', #12 ) ;
#206 = COLOUR_RGB ( '',0.7921568627450980005, 0.8196078431372548767, 0.9333333333333333481 ) ;
#207 = AXIS2_PLACEMENT_3D ( 'NONE', #106, #81, #306 ) ;
#208 = EDGE_LOOP ( 'NONE', ( #63, #237, #68, #194 ) ) ;
#209 = LENGTH_MEASURE_WITH_UNIT ( LENGTH_MEASURE( 0.02539999999999999897 ), #6 );
#210 = DIRECTION ( 'NONE',  ( -5.156407575357275916E-17, 1.000000000000000000, -0.000000000000000000 ) ) ;
#211 = CARTESIAN_POINT ( 'NONE',  ( 0.000000000000000000, 0.000000000000000000, 0.000000000000000000 ) ) ;
#212 = VERTEX_POINT ( 'NONE', #8 ) ;
#213 = UNCERTAINTY_MEASURE_WITH_UNIT (LENGTH_MEASURE( 1.000000000000000082E-05 ), #175, 'distance_accuracy_value', 'NONE');
#214 = VERTEX_POINT ( 'NONE', #115 ) ;
#215 =( NAMED_UNIT ( * ) PLANE_ANGLE_UNIT ( ) SI_UNIT ( $, .RADIAN. ) );
#216 = DIRECTION ( 'NONE',  ( -5.156407575357275299E-17, 1.000000000000000000, -0.000000000000000000 ) ) ;
#217 = PRODUCT_DEFINITION_CONTEXT ( 'detailed design', #172, 'design' ) ;
#218 = PLANE ( 'NONE',  #82 ) ;
#219 = DIRECTION ( 'NONE',  ( -5.156407575357275299E-17, 1.000000000000000000, -0.000000000000000000 ) ) ;
#220 = CIRCLE ( 'NONE', #289, 0.2500000000000001110 ) ;
#221 = STYLED_ITEM ( 'NONE', ( #1 ), #269 ) ;
#222 = FACE_OUTER_BOUND ( 'NONE', #188, .T. ) ;
#223 =( NAMED_UNIT ( * ) SI_UNIT ( $, .STERADIAN. ) SOLID_ANGLE_UNIT ( ) );
#224 = CARTESIAN_POINT ( 'NONE',  ( -0.2500000000000000000, 1.625000000000000000, 0.000000000000000000 ) ) ;
#225 = ADVANCED_FACE ( 'NONE', ( #166 ), #203, .T. ) ;
#226 = APPLICATION_PROTOCOL_DEFINITION ( 'draft international standard', 'automotive_design', 1998, #15 ) ;
#227 =( NAMED_UNIT ( * ) PLANE_ANGLE_UNIT ( ) SI_UNIT ( $, .RADIAN. ) );
#228 = SURFACE_STYLE_FILL_AREA ( #179 ) ;
#229 = DIRECTION ( 'NONE',  ( -5.156407575357275299E-17, 1.000000000000000000, -0.000000000000000000 ) ) ;
#230 = EDGE_CURVE ( 'NONE', #234, #65, #113, .T. ) ;
#231 = MECHANICAL_DESIGN_GEOMETRIC_PRESENTATION_REPRESENTATION (  '', ( #197 ), #255 ) ;
#232 = CARTESIAN_POINT ( 'NONE',  ( 3.323567385400236968E-34, 1.625000000000000000, 0.000000000000000000 ) ) ;
#233 = FILL_AREA_STYLE_COLOUR ( '', #290 ) ;
#234 = VERTEX_POINT ( 'NONE', #187 ) ;
#235 = SURFACE_STYLE_USAGE ( .BOTH. , #86 ) ;
#236 = AXIS2_PLACEMENT_3D ( 'NONE', #30, #229, #72 ) ;
#237 = ORIENTED_EDGE ( 'NONE', *, *, #13, .T. ) ;
#238 = PLANE ( 'NONE',  #2 ) ;
#239 = EDGE_LOOP ( 'NONE', ( #116, #261, #305, #33 ) ) ;
#240 =( GEOMETRIC_REPRESENTATION_CONTEXT ( 3 ) GLOBAL_UNCERTAINTY_ASSIGNED_CONTEXT ( ( #171 ) ) GLOBAL_UNIT_ASSIGNED_CONTEXT ( ( #87, #227, #182 ) ) REPRESENTATION_CONTEXT ( 'NONE', 'WORKASPACE' ) );
#241 = DIRECTION ( 'NONE',  ( -1.000000000000000000, 0.000000000000000000, 0.000000000000000000 ) ) ;
#242 = DIRECTION ( 'NONE',  ( -0.000000000000000000, -1.000000000000000000, -0.000000000000000000 ) ) ;
#243 = CIRCLE ( 'NONE', #109, 0.2500000000000000000 ) ;
#244 =( GEOMETRIC_REPRESENTATION_CONTEXT ( 3 ) GLOBAL_UNCERTAINTY_ASSIGNED_CONTEXT ( ( #95 ) ) GLOBAL_UNIT_ASSIGNED_CONTEXT ( ( #274, #131, #292 ) ) REPRESENTATION_CONTEXT ( 'NONE', 'WORKASPACE' ) );
#245 = DIRECTION ( 'NONE',  ( 1.000000000000000000, 5.156407575357275916E-17, 0.000000000000000000 ) ) ;
#246 =( NAMED_UNIT ( * ) SI_UNIT ( $, .STERADIAN. ) SOLID_ANGLE_UNIT ( ) );
#247 = CARTESIAN_POINT ( 'NONE',  ( 0.000000000000000000, 0.000000000000000000, 0.000000000000000000 ) ) ;
#248 = FACE_OUTER_BOUND ( 'NONE', #208, .T. ) ;
#249 =( GEOMETRIC_REPRESENTATION_CONTEXT ( 3 ) GLOBAL_UNCERTAINTY_ASSIGNED_CONTEXT ( ( #83 ) ) GLOBAL_UNIT_ASSIGNED_CONTEXT ( ( #189, #215, #223 ) ) REPRESENTATION_CONTEXT ( 'NONE', 'WORKASPACE' ) );
#250 = AXIS2_PLACEMENT_3D ( 'NONE', #92, #57, #10 ) ;
#251 = SURFACE_STYLE_FILL_AREA ( #61 ) ;
#252 = CYLINDRICAL_SURFACE ( 'NONE', #236, 0.2500000000000000555 ) ;
#253 = SURFACE_STYLE_USAGE ( .BOTH. , #295 ) ;
#254 = LENGTH_MEASURE_WITH_UNIT ( LENGTH_MEASURE( 0.02539999999999999897 ), #129 );
#255 =( GEOMETRIC_REPRESENTATION_CONTEXT ( 3 ) GLOBAL_UNCERTAINTY_ASSIGNED_CONTEXT ( ( #213 ) ) GLOBAL_UNIT_ASSIGNED_CONTEXT ( ( #175, #24, #246 ) ) REPRESENTATION_CONTEXT ( 'NONE', 'WORKASPACE' ) );
#256 = ORIENTED_EDGE ( 'NONE', *, *, #163, .T. ) ;
#257 = SURFACE_STYLE_USAGE ( .BOTH. , #32 ) ;
#258 = PRESENTATION_STYLE_ASSIGNMENT (( #66 ) ) ;
#259 = CIRCLE ( 'NONE', #304, 0.2500000000000000000 ) ;
#260 = PLANE ( 'NONE',  #11 ) ;
#261 = ORIENTED_EDGE ( 'NONE', *, *, #230, .T. ) ;
#262 = CIRCLE ( 'NONE', #53, 0.2500000000000000000 ) ;
#263 = AXIS2_PLACEMENT_3D ( 'NONE', #277, #59, #160 ) ;
#264 = DIRECTION ( 'NONE',  ( -5.156407575357275299E-17, 1.000000000000000000, -0.000000000000000000 ) ) ;
#265 = EDGE_CURVE ( 'NONE', #65, #214, #110, .T. ) ;
#266 = DIRECTION ( 'NONE',  ( -5.156407575357275916E-17, 1.000000000000000000, -0.000000000000000000 ) ) ;
#267 = PRODUCT_CONTEXT ( 'NONE', #15, 'mechanical' ) ;
#268 = SHAPE_DEFINITION_REPRESENTATION ( #193, #165 ) ;
#269 = ADVANCED_FACE ( 'NONE', ( #67 ), #132, .T. ) ;
#270 = CARTESIAN_POINT ( 'NONE',  ( 0.000000000000000000, 1.625000000000000000, 0.000000000000000000 ) ) ;
#271 = FILL_AREA_STYLE_COLOUR ( '', #39 ) ;
#272 = PRESENTATION_LAYER_ASSIGNMENT (  '', '', ( #221 ) ) ;
#273 = PRODUCT_DEFINITION ( 'UNKNOWN', '', #161, #217 ) ;
#274 =( CONVERSION_BASED_UNIT ( 'INCH', #28 ) LENGTH_UNIT ( ) NAMED_UNIT ( #198 ) );
#275 = ORIENTED_EDGE ( 'NONE', *, *, #108, .F. ) ;
#276 =( LENGTH_UNIT ( ) NAMED_UNIT ( * ) SI_UNIT ( $, .METRE. ) );
#277 = CARTESIAN_POINT ( 'NONE',  ( 0.000000000000000000, 0.000000000000000000, 0.000000000000000000 ) ) ;
#278 =( CONVERSION_BASED_UNIT ( 'INCH', #73 ) LENGTH_UNIT ( ) NAMED_UNIT ( #4 ) );
#279 = CARTESIAN_POINT ( 'NONE',  ( 0.2500000000000000000, 4.000000000000000000, 0.000000000000000000 ) ) ;
#280 = PRESENTATION_LAYER_ASSIGNMENT (  '', '', ( #49 ) ) ;
#281 = ADVANCED_FACE ( 'NONE', ( #38 ), #190, .T. ) ;
#282 = DIRECTION ( 'NONE',  ( 0.000000000000000000, 0.000000000000000000, -1.000000000000000000 ) ) ;
#283 = ORIENTED_EDGE ( 'NONE', *, *, #98, .F. ) ;
#284 =( NAMED_UNIT ( * ) PLANE_ANGLE_UNIT ( ) SI_UNIT ( $, .RADIAN. ) );
#285 = SURFACE_SIDE_STYLE ('',( #103 ) ) ;
#286 = STYLED_ITEM ( 'NONE', ( #55 ), #225 ) ;
#287 = DIRECTION ( 'NONE',  ( 0.000000000000000000, 0.000000000000000000, -1.000000000000000000 ) ) ;
#288 = APPLICATION_PROTOCOL_DEFINITION ( 'draft international standard', 'automotive_design', 1998, #172 ) ;
#289 = AXIS2_PLACEMENT_3D ( 'NONE', #22, #216, #241 ) ;
#290 = COLOUR_RGB ( '',1.000000000000000000, 0.000000000000000000, 0.000000000000000000 ) ;
#291 = CARTESIAN_POINT ( 'NONE',  ( 0.000000000000000000, 0.000000000000000000, -0.2500000000000000000 ) ) ;
#292 =( NAMED_UNIT ( * ) SI_UNIT ( $, .STERADIAN. ) SOLID_ANGLE_UNIT ( ) );
#293 = SURFACE_STYLE_USAGE ( .BOTH. , #178 ) ;
#294 =( NAMED_UNIT ( * ) SI_UNIT ( $, .STERADIAN. ) SOLID_ANGLE_UNIT ( ) );
#295 = SURFACE_SIDE_STYLE ('',( #228 ) ) ;
#296 = DIRECTION ( 'NONE',  ( -0.000000000000000000, -1.000000000000000000, -0.000000000000000000 ) ) ;
#297 = CARTESIAN_POINT ( 'NONE',  ( 0.000000000000000000, 0.000000000000000000, 0.000000000000000000 ) ) ;
#298 = PRESENTATION_STYLE_ASSIGNMENT (( #293 ) ) ;
#299 = FACE_OUTER_BOUND ( 'NONE', #164, .T. ) ;
#300 = LENGTH_MEASURE_WITH_UNIT ( LENGTH_MEASURE( 0.02539999999999999897 ), #37 );
#301 = CARTESIAN_POINT ( 'NONE',  ( 3.032960542342103792E-32, 1.625000000000000000, 0.000000000000000000 ) ) ;
#302 = ORIENTED_EDGE ( 'NONE', *, *, #303, .T. ) ;
#303 = EDGE_CURVE ( 'NONE', #212, #214, #114, .T. ) ;
#304 = AXIS2_PLACEMENT_3D ( 'NONE', #144, #219, #101 ) ;
#305 = ORIENTED_EDGE ( 'NONE', *, *, #163, .F. ) ;
#306 = DIRECTION ( 'NONE',  ( 0.000000000000000000, 0.000000000000000000, -1.000000000000000000 ) ) ;
#307 = DIRECTION ( 'NONE',  ( 5.156407575357275916E-17, -1.000000000000000000, 0.000000000000000000 ) ) ;
#308 = CIRCLE ( 'NONE', #3, 0.2500000000000001110 ) ;
#309 = DIRECTION ( 'NONE',  ( -5.156407575357275916E-17, 1.000000000000000000, 0.000000000000000000 ) ) ;
ENDSEC;
END-ISO-10303-21;
