ISO-10303-21;
HEADER;
FILE_DESCRIPTION (( 'STEP AP214' ),
    '1' );
FILE_NAME ('48396.STEP',
    '2023-06-22T21:32:51',
    ( '' ),
    ( '' ),
    'SwSTEP 2.0',
    'SolidWorks 2023',
    '' );
FILE_SCHEMA (( 'AUTOMOTIVE_DESIGN' ));
ENDSEC;

DATA;
#1 = MECHANICAL_DESIGN_GEOMETRIC_PRESENTATION_REPRESENTATION (  '', ( #229 ), #256 ) ;
#2 = AXIS2_PLACEMENT_3D ( 'NONE', #8, #216, #145 ) ;
#3 = UNCERTAINTY_MEASURE_WITH_UNIT (LENGTH_MEASURE( 1.000000000000000082E-05 ), #211, 'distance_accuracy_value', 'NONE');
#4 =( NAMED_UNIT ( * ) SI_UNIT ( $, .STERADIAN. ) SOLID_ANGLE_UNIT ( ) );
#5 = DIRECTION ( 'NONE',  ( 0.000000000000000000, 1.000000000000000000, 0.000000000000000000 ) ) ;
#6 =( GEOMETRIC_REPRESENTATION_CONTEXT ( 3 ) GLOBAL_UNCERTAINTY_ASSIGNED_CONTEXT ( ( #3 ) ) GLOBAL_UNIT_ASSIGNED_CONTEXT ( ( #211, #87, #136 ) ) REPRESENTATION_CONTEXT ( 'NONE', 'WORKASPACE' ) );
#7 = CARTESIAN_POINT ( 'NONE',  ( 0.000000000000000000, 1.250000000000000000, -0.2499999999999999722 ) ) ;
#8 = CARTESIAN_POINT ( 'NONE',  ( 0.000000000000000000, 0.000000000000000000, 0.000000000000000000 ) ) ;
#9 = PRESENTATION_STYLE_ASSIGNMENT (( #35 ) ) ;
#10 = PRESENTATION_STYLE_ASSIGNMENT (( #61 ) ) ;
#11 = EDGE_CURVE ( 'NONE', #299, #56, #224, .T. ) ;
#12 = CARTESIAN_POINT ( 'NONE',  ( 0.000000000000000000, 0.000000000000000000, -0.2500000000000000000 ) ) ;
#13 = AXIS2_PLACEMENT_3D ( 'NONE', #100, #154, #205 ) ;
#14 =( NAMED_UNIT ( * ) PLANE_ANGLE_UNIT ( ) SI_UNIT ( $, .RADIAN. ) );
#15 = SURFACE_SIDE_STYLE ('',( #115 ) ) ;
#16 = ADVANCED_BREP_SHAPE_REPRESENTATION ( '48396', ( #239, #127, #30 ), #85 ) ;
#17 = ORIENTED_EDGE ( 'NONE', *, *, #285, .T. ) ;
#18 = FACE_OUTER_BOUND ( 'NONE', #123, .T. ) ;
#19 = ORIENTED_EDGE ( 'NONE', *, *, #37, .F. ) ;
#20 = COLOUR_RGB ( '',1.000000000000000000, 0.000000000000000000, 0.000000000000000000 ) ;
#21 = DIRECTION ( 'NONE',  ( -0.000000000000000000, -1.000000000000000000, -0.000000000000000000 ) ) ;
#22 = CARTESIAN_POINT ( 'NONE',  ( 0.000000000000000000, 1.250000000000000000, 0.000000000000000000 ) ) ;
#23 = DIRECTION ( 'NONE',  ( 0.000000000000000000, 0.000000000000000000, -1.000000000000000000 ) ) ;
#24 = FACE_OUTER_BOUND ( 'NONE', #304, .T. ) ;
#25 = UNCERTAINTY_MEASURE_WITH_UNIT (LENGTH_MEASURE( 1.000000000000000082E-05 ), #162, 'distance_accuracy_value', 'NONE');
#26 = FACE_OUTER_BOUND ( 'NONE', #176, .T. ) ;
#27 = ADVANCED_FACE ( 'NONE', ( #98 ), #170, .T. ) ;
#28 = SURFACE_SIDE_STYLE ('',( #283 ) ) ;
#29 = AXIS2_PLACEMENT_3D ( 'NONE', #78, #225, #191 ) ;
#30 = AXIS2_PLACEMENT_3D ( 'NONE', #142, #164, #32 ) ;
#31 = SURFACE_STYLE_FILL_AREA ( #139 ) ;
#32 = DIRECTION ( 'NONE',  ( 1.000000000000000000, 0.000000000000000000, 0.000000000000000000 ) ) ;
#33 = DIRECTION ( 'NONE',  ( -1.000000000000000000, 0.000000000000000000, 0.000000000000000000 ) ) ;
#34 = ORIENTED_EDGE ( 'NONE', *, *, #105, .T. ) ;
#35 = SURFACE_STYLE_USAGE ( .BOTH. , #146 ) ;
#36 = VECTOR ( 'NONE', #198, 39.37007874015748143 ) ;
#37 = EDGE_CURVE ( 'NONE', #77, #101, #179, .T. ) ;
#38 = MECHANICAL_DESIGN_GEOMETRIC_PRESENTATION_REPRESENTATION (  '', ( #67 ), #80 ) ;
#39 = ORIENTED_EDGE ( 'NONE', *, *, #11, .F. ) ;
#40 = DIRECTION ( 'NONE',  ( 0.000000000000000000, 0.000000000000000000, -1.000000000000000000 ) ) ;
#41 = EDGE_LOOP ( 'NONE', ( #19, #252, #125, #276 ) ) ;
#42 = ORIENTED_EDGE ( 'NONE', *, *, #300, .F. ) ;
#43 = DIRECTION ( 'NONE',  ( 0.000000000000000000, 0.000000000000000000, -1.000000000000000000 ) ) ;
#44 = SURFACE_STYLE_FILL_AREA ( #306 ) ;
#45 = SURFACE_SIDE_STYLE ('',( #44 ) ) ;
#46 = PRESENTATION_LAYER_ASSIGNMENT (  '', '', ( #137 ) ) ;
#47 = EDGE_CURVE ( 'NONE', #91, #101, #210, .T. ) ;
#48 = DIRECTION ( 'NONE',  ( -0.000000000000000000, -1.000000000000000000, -0.000000000000000000 ) ) ;
#49 = ORIENTED_EDGE ( 'NONE', *, *, #261, .F. ) ;
#50 = DIRECTION ( 'NONE',  ( 3.498990854706726443E-17, -1.000000000000000000, 0.000000000000000000 ) ) ;
#51 = AXIS2_PLACEMENT_3D ( 'NONE', #207, #175, #126 ) ;
#52 = DIRECTION ( 'NONE',  ( -0.000000000000000000, -1.000000000000000000, -0.000000000000000000 ) ) ;
#53 = AXIS2_PLACEMENT_3D ( 'NONE', #273, #133, #23 ) ;
#54 = EDGE_CURVE ( 'NONE', #101, #91, #264, .T. ) ;
#55 = DIRECTION ( 'NONE',  ( -0.000000000000000000, -1.000000000000000000, -0.000000000000000000 ) ) ;
#56 = VERTEX_POINT ( 'NONE', #12 ) ;
#57 = FILL_AREA_STYLE_COLOUR ( '', #64 ) ;
#58 = ADVANCED_FACE ( 'NONE', ( #114 ), #272, .T. ) ;
#59 = ORIENTED_EDGE ( 'NONE', *, *, #47, .F. ) ;
#60 =( LENGTH_UNIT ( ) NAMED_UNIT ( * ) SI_UNIT ( $, .METRE. ) );
#61 = SURFACE_STYLE_USAGE ( .BOTH. , #15 ) ;
#62 = FILL_AREA_STYLE ('',( #274 ) ) ;
#63 = VERTEX_POINT ( 'NONE', #151 ) ;
#64 = COLOUR_RGB ( '',1.000000000000000000, 0.000000000000000000, 0.000000000000000000 ) ;
#65 = AXIS2_PLACEMENT_3D ( 'NONE', #284, #50, #160 ) ;
#66 = FACE_OUTER_BOUND ( 'NONE', #83, .T. ) ;
#67 = STYLED_ITEM ( 'NONE', ( #186 ), #239 ) ;
#68 = FACE_OUTER_BOUND ( 'NONE', #228, .T. ) ;
#69 = SURFACE_STYLE_USAGE ( .BOTH. , #28 ) ;
#70 = CARTESIAN_POINT ( 'NONE',  ( -0.2499999999999999722, 1.250000000000000000, 0.000000000000000000 ) ) ;
#71 = PRODUCT_DEFINITION_CONTEXT ( 'detailed design', #242, 'design' ) ;
#72 = LENGTH_MEASURE_WITH_UNIT ( LENGTH_MEASURE( 0.02539999999999999897 ), #309 );
#73 = STYLED_ITEM ( 'NONE', ( #10 ), #27 ) ;
#74 = CARTESIAN_POINT ( 'NONE',  ( 0.000000000000000000, 1.250000000000000000, 0.000000000000000000 ) ) ;
#75 = LINE ( 'NONE', #196, #287 ) ;
#76 = ORIENTED_EDGE ( 'NONE', *, *, #285, .F. ) ;
#77 = VERTEX_POINT ( 'NONE', #153 ) ;
#78 = CARTESIAN_POINT ( 'NONE',  ( 0.000000000000000000, 1.250000000000000000, 0.000000000000000000 ) ) ;
#79 = DIRECTION ( 'NONE',  ( -3.498990854706726443E-17, 1.000000000000000000, -0.000000000000000000 ) ) ;
#80 =( GEOMETRIC_REPRESENTATION_CONTEXT ( 3 ) GLOBAL_UNCERTAINTY_ASSIGNED_CONTEXT ( ( #25 ) ) GLOBAL_UNIT_ASSIGNED_CONTEXT ( ( #162, #289, #218 ) ) REPRESENTATION_CONTEXT ( 'NONE', 'WORKASPACE' ) );
#81 = DIMENSIONAL_EXPONENTS ( 1.000000000000000000, 0.000000000000000000, 0.000000000000000000, 0.000000000000000000, 0.000000000000000000, 0.000000000000000000, 0.000000000000000000 ) ;
#82 = DIRECTION ( 'NONE',  ( 0.000000000000000000, 0.000000000000000000, -1.000000000000000000 ) ) ;
#83 = EDGE_LOOP ( 'NONE', ( #244, #17 ) ) ;
#84 =( NAMED_UNIT ( * ) PLANE_ANGLE_UNIT ( ) SI_UNIT ( $, .RADIAN. ) );
#85 =( GEOMETRIC_REPRESENTATION_CONTEXT ( 3 ) GLOBAL_UNCERTAINTY_ASSIGNED_CONTEXT ( ( #185 ) ) GLOBAL_UNIT_ASSIGNED_CONTEXT ( ( #249, #297, #116 ) ) REPRESENTATION_CONTEXT ( 'NONE', 'WORKASPACE' ) );
#86 = ADVANCED_FACE ( 'NONE', ( #24 ), #124, .T. ) ;
#87 =( NAMED_UNIT ( * ) PLANE_ANGLE_UNIT ( ) SI_UNIT ( $, .RADIAN. ) );
#88 = AXIS2_PLACEMENT_3D ( 'NONE', #74, #52, #40 ) ;
#89 = PRODUCT_RELATED_PRODUCT_CATEGORY ( 'part', '', ( #171 ) ) ;
#90 =( NAMED_UNIT ( * ) PLANE_ANGLE_UNIT ( ) SI_UNIT ( $, .RADIAN. ) );
#91 = VERTEX_POINT ( 'NONE', #103 ) ;
#92 = CARTESIAN_POINT ( 'NONE',  ( 0.000000000000000000, 1.250000000000000000, 0.000000000000000000 ) ) ;
#93 = CIRCLE ( 'NONE', #128, 0.2499999999999999722 ) ;
#94 = DIRECTION ( 'NONE',  ( -3.498990854706726443E-17, 1.000000000000000000, -0.000000000000000000 ) ) ;
#95 = LENGTH_MEASURE_WITH_UNIT ( LENGTH_MEASURE( 0.02539999999999999897 ), #118 );
#96 = DIMENSIONAL_EXPONENTS ( 1.000000000000000000, 0.000000000000000000, 0.000000000000000000, 0.000000000000000000, 0.000000000000000000, 0.000000000000000000, 0.000000000000000000 ) ;
#97 = FILL_AREA_STYLE ('',( #57 ) ) ;
#98 = FACE_OUTER_BOUND ( 'NONE', #269, .T. ) ;
#99 = ORIENTED_EDGE ( 'NONE', *, *, #37, .T. ) ;
#100 = CARTESIAN_POINT ( 'NONE',  ( 1.530367125165163381E-34, 1.250000000000000000, 0.000000000000000000 ) ) ;
#101 = VERTEX_POINT ( 'NONE', #108 ) ;
#102 = PLANE ( 'NONE',  #161 ) ;
#103 = CARTESIAN_POINT ( 'NONE',  ( -0.2500000000000001665, 3.000000000000000444, 0.000000000000000000 ) ) ;
#104 =( CONVERSION_BASED_UNIT ( 'INCH', #202 ) LENGTH_UNIT ( ) NAMED_UNIT ( #81 ) );
#105 = EDGE_CURVE ( 'NONE', #212, #77, #294, .T. ) ;
#106 = UNCERTAINTY_MEASURE_WITH_UNIT (LENGTH_MEASURE( 1.000000000000000082E-05 ), #253, 'distance_accuracy_value', 'NONE');
#107 = CIRCLE ( 'NONE', #29, 0.2499999999999999722 ) ;
#108 = CARTESIAN_POINT ( 'NONE',  ( 0.2500000000000000555, 3.000000000000000444, 3.061616997868384251E-17 ) ) ;
#109 =( GEOMETRIC_REPRESENTATION_CONTEXT ( 3 ) GLOBAL_UNCERTAINTY_ASSIGNED_CONTEXT ( ( #209 ) ) GLOBAL_UNIT_ASSIGNED_CONTEXT ( ( #293, #147, #254 ) ) REPRESENTATION_CONTEXT ( 'NONE', 'WORKASPACE' ) );
#110 = MECHANICAL_DESIGN_GEOMETRIC_PRESENTATION_REPRESENTATION (  '', ( #259 ), #195 ) ;
#111 =( LENGTH_UNIT ( ) NAMED_UNIT ( * ) SI_UNIT ( $, .METRE. ) );
#112 = CARTESIAN_POINT ( 'NONE',  ( 0.000000000000000000, 0.000000000000000000, 0.000000000000000000 ) ) ;
#113 = CIRCLE ( 'NONE', #2, 0.2500000000000000000 ) ;
#114 = FACE_OUTER_BOUND ( 'NONE', #150, .T. ) ;
#115 = SURFACE_STYLE_FILL_AREA ( #97 ) ;
#116 =( NAMED_UNIT ( * ) SI_UNIT ( $, .STERADIAN. ) SOLID_ANGLE_UNIT ( ) );
#117 = DIRECTION ( 'NONE',  ( -1.000000000000000000, 0.000000000000000000, 0.000000000000000000 ) ) ;
#118 =( LENGTH_UNIT ( ) NAMED_UNIT ( * ) SI_UNIT ( $, .METRE. ) );
#119 = LENGTH_MEASURE_WITH_UNIT ( LENGTH_MEASURE( 0.02539999999999999897 ), #60 );
#120 = PRESENTATION_LAYER_ASSIGNMENT (  '', '', ( #259 ) ) ;
#121 = DIRECTION ( 'NONE',  ( -1.000000000000000000, 0.000000000000000000, 0.000000000000000000 ) ) ;
#122 = CARTESIAN_POINT ( 'NONE',  ( 0.000000000000000000, 0.000000000000000000, 0.000000000000000000 ) ) ;
#123 = EDGE_LOOP ( 'NONE', ( #266, #49 ) ) ;
#124 = CYLINDRICAL_SURFACE ( 'NONE', #51, 0.2500000000000000555 ) ;
#125 = ORIENTED_EDGE ( 'NONE', *, *, #300, .T. ) ;
#126 = DIRECTION ( 'NONE',  ( -1.000000000000000000, 0.000000000000000000, 0.000000000000000000 ) ) ;
#127 = MANIFOLD_SOLID_BREP ( 'Revolve - Tool Body (Straight Shanked)', #201 ) ;
#128 = AXIS2_PLACEMENT_3D ( 'NONE', #302, #21, #82 ) ;
#129 = DIRECTION ( 'NONE',  ( -3.498990854706726443E-17, 1.000000000000000000, -0.000000000000000000 ) ) ;
#130 = DIRECTION ( 'NONE',  ( -1.000000000000000000, 0.000000000000000000, 0.000000000000000000 ) ) ;
#131 = ADVANCED_FACE ( 'NONE', ( #18 ), #230, .F. ) ;
#132 = UNCERTAINTY_MEASURE_WITH_UNIT (LENGTH_MEASURE( 1.000000000000000082E-05 ), #155, 'distance_accuracy_value', 'NONE');
#133 = DIRECTION ( 'NONE',  ( -0.000000000000000000, -1.000000000000000000, -0.000000000000000000 ) ) ;
#134 = DIRECTION ( 'NONE',  ( 0.000000000000000000, -1.000000000000000000, -0.000000000000000000 ) ) ;
#135 = FILL_AREA_STYLE ('',( #280 ) ) ;
#136 =( NAMED_UNIT ( * ) SI_UNIT ( $, .STERADIAN. ) SOLID_ANGLE_UNIT ( ) );
#137 = STYLED_ITEM ( 'NONE', ( #232 ), #127 ) ;
#138 = LENGTH_MEASURE_WITH_UNIT ( LENGTH_MEASURE( 0.02539999999999999897 ), #111 );
#139 = FILL_AREA_STYLE ('',( #240 ) ) ;
#140 = DIMENSIONAL_EXPONENTS ( 1.000000000000000000, 0.000000000000000000, 0.000000000000000000, 0.000000000000000000, 0.000000000000000000, 0.000000000000000000, 0.000000000000000000 ) ;
#141 = CYLINDRICAL_SURFACE ( 'NONE', #277, 0.2500000000000000555 ) ;
#142 = CARTESIAN_POINT ( 'NONE',  ( 0.000000000000000000, 0.000000000000000000, 0.000000000000000000 ) ) ;
#143 = MECHANICAL_DESIGN_GEOMETRIC_PRESENTATION_REPRESENTATION (  '', ( #165 ), #6 ) ;
#144 = CARTESIAN_POINT ( 'NONE',  ( -6.123233995736772199E-17, 3.000000000000000444, 0.000000000000000000 ) ) ;
#145 = DIRECTION ( 'NONE',  ( 0.000000000000000000, 0.000000000000000000, -1.000000000000000000 ) ) ;
#146 = SURFACE_SIDE_STYLE ('',( #166 ) ) ;
#147 =( NAMED_UNIT ( * ) PLANE_ANGLE_UNIT ( ) SI_UNIT ( $, .RADIAN. ) );
#148 = FILL_AREA_STYLE ('',( #172 ) ) ;
#149 = LENGTH_MEASURE_WITH_UNIT ( LENGTH_MEASURE( 0.02539999999999999897 ), #199 );
#150 = EDGE_LOOP ( 'NONE', ( #271, #194, #226, #39 ) ) ;
#151 = CARTESIAN_POINT ( 'NONE',  ( 3.061616997868383018E-17, 0.000000000000000000, 0.2500000000000000000 ) ) ;
#152 = VECTOR ( 'NONE', #48, 39.37007874015748143 ) ;
#153 = CARTESIAN_POINT ( 'NONE',  ( 0.2499999999999999722, 1.250000000000000000, 3.061616997868383634E-17 ) ) ;
#154 = DIRECTION ( 'NONE',  ( -3.498990854706726443E-17, 1.000000000000000000, 0.000000000000000000 ) ) ;
#155 =( CONVERSION_BASED_UNIT ( 'INCH', #305 ) LENGTH_UNIT ( ) NAMED_UNIT ( #220 ) );
#156 = MECHANICAL_DESIGN_GEOMETRIC_PRESENTATION_REPRESENTATION (  '', ( #137 ), #188 ) ;
#157 = CARTESIAN_POINT ( 'NONE',  ( 0.000000000000000000, 0.000000000000000000, 0.000000000000000000 ) ) ;
#158 = EDGE_CURVE ( 'NONE', #257, #299, #93, .T. ) ;
#159 = UNCERTAINTY_MEASURE_WITH_UNIT (LENGTH_MEASURE( 1.000000000000000082E-05 ), #104, 'distance_accuracy_value', 'NONE');
#160 = DIRECTION ( 'NONE',  ( 1.000000000000000000, 3.498990854706726443E-17, 0.000000000000000000 ) ) ;
#161 = AXIS2_PLACEMENT_3D ( 'NONE', #157, #134, #184 ) ;
#162 =( CONVERSION_BASED_UNIT ( 'INCH', #72 ) LENGTH_UNIT ( ) NAMED_UNIT ( #163 ) );
#163 = DIMENSIONAL_EXPONENTS ( 1.000000000000000000, 0.000000000000000000, 0.000000000000000000, 0.000000000000000000, 0.000000000000000000, 0.000000000000000000, 0.000000000000000000 ) ;
#164 = DIRECTION ( 'NONE',  ( 0.000000000000000000, 0.000000000000000000, 1.000000000000000000 ) ) ;
#165 = STYLED_ITEM ( 'NONE', ( #308 ), #231 ) ;
#166 = SURFACE_STYLE_FILL_AREA ( #148 ) ;
#167 = ORIENTED_EDGE ( 'NONE', *, *, #47, .T. ) ;
#168 = FACE_OUTER_BOUND ( 'NONE', #41, .T. ) ;
#169 =( NAMED_UNIT ( * ) SI_UNIT ( $, .STERADIAN. ) SOLID_ANGLE_UNIT ( ) );
#170 = CYLINDRICAL_SURFACE ( 'NONE', #53, 0.2500000000000000000 ) ;
#171 = PRODUCT ( '48396', '48396', '', ( #247 ) ) ;
#172 = FILL_AREA_STYLE_COLOUR ( '', #20 ) ;
#173 = AXIS2_PLACEMENT_3D ( 'NONE', #92, #5, #189 ) ;
#174 = CARTESIAN_POINT ( 'NONE',  ( 0.000000000000000000, 0.000000000000000000, -0.2500000000000000000 ) ) ;
#175 = DIRECTION ( 'NONE',  ( -3.498990854706726443E-17, 1.000000000000000000, -0.000000000000000000 ) ) ;
#176 = EDGE_LOOP ( 'NONE', ( #250, #291 ) ) ;
#177 = SURFACE_STYLE_USAGE ( .BOTH. , #45 ) ;
#178 = PRESENTATION_LAYER_ASSIGNMENT (  '', '', ( #67 ) ) ;
#179 = LINE ( 'NONE', #190, #286 ) ;
#180 = SURFACE_SIDE_STYLE ('',( #263 ) ) ;
#181 = FILL_AREA_STYLE_COLOUR ( '', #203 ) ;
#182 = PRESENTATION_LAYER_ASSIGNMENT (  '', '', ( #229 ) ) ;
#183 = COLOUR_RGB ( '',1.000000000000000000, 0.000000000000000000, 0.000000000000000000 ) ;
#184 = DIRECTION ( 'NONE',  ( 0.000000000000000000, 0.000000000000000000, -1.000000000000000000 ) ) ;
#185 = UNCERTAINTY_MEASURE_WITH_UNIT (LENGTH_MEASURE( 1.000000000000000082E-05 ), #249, 'distance_accuracy_value', 'NONE');
#186 = PRESENTATION_STYLE_ASSIGNMENT (( #69 ) ) ;
#187 = AXIS2_PLACEMENT_3D ( 'NONE', #296, #79, #117 ) ;
#188 =( GEOMETRIC_REPRESENTATION_CONTEXT ( 3 ) GLOBAL_UNCERTAINTY_ASSIGNED_CONTEXT ( ( #159 ) ) GLOBAL_UNIT_ASSIGNED_CONTEXT ( ( #104, #84, #227 ) ) REPRESENTATION_CONTEXT ( 'NONE', 'WORKASPACE' ) );
#189 = DIRECTION ( 'NONE',  ( 0.000000000000000000, -0.000000000000000000, 1.000000000000000000 ) ) ;
#190 = CARTESIAN_POINT ( 'NONE',  ( 0.2499999999999999722, 3.000000000000000444, 3.061616997868383634E-17 ) ) ;
#191 = DIRECTION ( 'NONE',  ( -1.000000000000000000, 0.000000000000000000, 0.000000000000000000 ) ) ;
#192 = ADVANCED_FACE ( 'NONE', ( #66 ), #102, .T. ) ;
#193 = DIMENSIONAL_EXPONENTS ( 1.000000000000000000, 0.000000000000000000, 0.000000000000000000, 0.000000000000000000, 0.000000000000000000, 0.000000000000000000, 0.000000000000000000 ) ;
#194 = ORIENTED_EDGE ( 'NONE', *, *, #217, .T. ) ;
#195 =( GEOMETRIC_REPRESENTATION_CONTEXT ( 3 ) GLOBAL_UNCERTAINTY_ASSIGNED_CONTEXT ( ( #132 ) ) GLOBAL_UNIT_ASSIGNED_CONTEXT ( ( #155, #90, #4 ) ) REPRESENTATION_CONTEXT ( 'NONE', 'WORKASPACE' ) );
#196 = CARTESIAN_POINT ( 'NONE',  ( -0.2500000000000001110, 3.000000000000000444, 0.000000000000000000 ) ) ;
#197 = ADVANCED_FACE ( 'NONE', ( #68 ), #245, .F. ) ;
#198 = DIRECTION ( 'NONE',  ( -0.000000000000000000, -1.000000000000000000, -0.000000000000000000 ) ) ;
#199 =( LENGTH_UNIT ( ) NAMED_UNIT ( * ) SI_UNIT ( $, .METRE. ) );
#200 = ORIENTED_EDGE ( 'NONE', *, *, #11, .T. ) ;
#201 = CLOSED_SHELL ( 'NONE', ( #86, #131, #303, #197 ) ) ;
#202 = LENGTH_MEASURE_WITH_UNIT ( LENGTH_MEASURE( 0.02539999999999999897 ), #233 );
#203 = COLOUR_RGB ( '',0.7921568627450980005, 0.8196078431372548767, 0.9333333333333333481 ) ;
#204 = ORIENTED_EDGE ( 'NONE', *, *, #217, .F. ) ;
#205 = DIRECTION ( 'NONE',  ( -1.000000000000000000, -3.498990854706726443E-17, 0.000000000000000000 ) ) ;
#206 = COLOUR_RGB ( '',0.7921568627450980005, 0.8196078431372548767, 0.9333333333333333481 ) ;
#207 = CARTESIAN_POINT ( 'NONE',  ( -6.123233995736772199E-17, 3.000000000000000444, 0.000000000000000000 ) ) ;
#208 = LINE ( 'NONE', #237, #152 ) ;
#209 = UNCERTAINTY_MEASURE_WITH_UNIT (LENGTH_MEASURE( 1.000000000000000082E-05 ), #293, 'distance_accuracy_value', 'NONE');
#210 = CIRCLE ( 'NONE', #187, 0.2500000000000001110 ) ;
#211 =( CONVERSION_BASED_UNIT ( 'INCH', #138 ) LENGTH_UNIT ( ) NAMED_UNIT ( #140 ) );
#212 = VERTEX_POINT ( 'NONE', #70 ) ;
#213 = SURFACE_SIDE_STYLE ('',( #31 ) ) ;
#214 = DIMENSIONAL_EXPONENTS ( 1.000000000000000000, 0.000000000000000000, 0.000000000000000000, 0.000000000000000000, 0.000000000000000000, 0.000000000000000000, 0.000000000000000000 ) ;
#215 = PRESENTATION_LAYER_ASSIGNMENT (  '', '', ( #165 ) ) ;
#216 = DIRECTION ( 'NONE',  ( -0.000000000000000000, -1.000000000000000000, -0.000000000000000000 ) ) ;
#217 = EDGE_CURVE ( 'NONE', #257, #63, #208, .T. ) ;
#218 =( NAMED_UNIT ( * ) SI_UNIT ( $, .STERADIAN. ) SOLID_ANGLE_UNIT ( ) );
#219 = ORIENTED_EDGE ( 'NONE', *, *, #158, .T. ) ;
#220 = DIMENSIONAL_EXPONENTS ( 1.000000000000000000, 0.000000000000000000, 0.000000000000000000, 0.000000000000000000, 0.000000000000000000, 0.000000000000000000, 0.000000000000000000 ) ;
#221 = DIRECTION ( 'NONE',  ( -3.498990854706726443E-17, 1.000000000000000000, -0.000000000000000000 ) ) ;
#222 = APPLICATION_CONTEXT ( 'automotive_design' ) ;
#223 = CIRCLE ( 'NONE', #88, 0.2499999999999999722 ) ;
#224 = LINE ( 'NONE', #174, #36 ) ;
#225 = DIRECTION ( 'NONE',  ( -3.498990854706726443E-17, 1.000000000000000000, -0.000000000000000000 ) ) ;
#226 = ORIENTED_EDGE ( 'NONE', *, *, #262, .F. ) ;
#227 =( NAMED_UNIT ( * ) SI_UNIT ( $, .STERADIAN. ) SOLID_ANGLE_UNIT ( ) );
#228 = EDGE_LOOP ( 'NONE', ( #167, #298 ) ) ;
#229 = STYLED_ITEM ( 'NONE', ( #9 ), #58 ) ;
#230 = PLANE ( 'NONE',  #13 ) ;
#231 = ADVANCED_FACE ( 'NONE', ( #26 ), #246, .T. ) ;
#232 = PRESENTATION_STYLE_ASSIGNMENT (( #177 ) ) ;
#233 =( LENGTH_UNIT ( ) NAMED_UNIT ( * ) SI_UNIT ( $, .METRE. ) );
#234 = AXIS2_PLACEMENT_3D ( 'NONE', #144, #221, #33 ) ;
#235 = AXIS2_PLACEMENT_3D ( 'NONE', #122, #279, #43 ) ;
#236 = PRODUCT_DEFINITION ( 'UNKNOWN', '', #243, #71 ) ;
#237 = CARTESIAN_POINT ( 'NONE',  ( 3.061616997868383018E-17, 0.000000000000000000, 0.2500000000000000000 ) ) ;
#238 = SURFACE_STYLE_USAGE ( .BOTH. , #213 ) ;
#239 = MANIFOLD_SOLID_BREP ( 'Revolve - Cutting Edge', #281 ) ;
#240 = FILL_AREA_STYLE_COLOUR ( '', #282 ) ;
#241 = AXIS2_PLACEMENT_3D ( 'NONE', #112, #55, #251 ) ;
#242 = APPLICATION_CONTEXT ( 'automotive_design' ) ;
#243 = PRODUCT_DEFINITION_FORMATION_WITH_SPECIFIED_SOURCE ( 'ANY', '', #171, .NOT_KNOWN. ) ;
#244 = ORIENTED_EDGE ( 'NONE', *, *, #262, .T. ) ;
#245 = PLANE ( 'NONE',  #65 ) ;
#246 = PLANE ( 'NONE',  #173 ) ;
#247 = PRODUCT_CONTEXT ( 'NONE', #222, 'mechanical' ) ;
#248 = MECHANICAL_DESIGN_GEOMETRIC_PRESENTATION_REPRESENTATION (  '', ( #73 ), #109 ) ;
#249 =( CONVERSION_BASED_UNIT ( 'INCH', #149 ) LENGTH_UNIT ( ) NAMED_UNIT ( #96 ) );
#250 = ORIENTED_EDGE ( 'NONE', *, *, #275, .F. ) ;
#251 = DIRECTION ( 'NONE',  ( 0.000000000000000000, 0.000000000000000000, -1.000000000000000000 ) ) ;
#252 = ORIENTED_EDGE ( 'NONE', *, *, #261, .T. ) ;
#253 =( CONVERSION_BASED_UNIT ( 'INCH', #119 ) LENGTH_UNIT ( ) NAMED_UNIT ( #214 ) );
#254 =( NAMED_UNIT ( * ) SI_UNIT ( $, .STERADIAN. ) SOLID_ANGLE_UNIT ( ) );
#255 = PRESENTATION_LAYER_ASSIGNMENT (  '', '', ( #73 ) ) ;
#256 =( GEOMETRIC_REPRESENTATION_CONTEXT ( 3 ) GLOBAL_UNCERTAINTY_ASSIGNED_CONTEXT ( ( #106 ) ) GLOBAL_UNIT_ASSIGNED_CONTEXT ( ( #253, #14, #169 ) ) REPRESENTATION_CONTEXT ( 'NONE', 'WORKASPACE' ) );
#257 = VERTEX_POINT ( 'NONE', #288 ) ;
#258 = SURFACE_STYLE_USAGE ( .BOTH. , #180 ) ;
#259 = STYLED_ITEM ( 'NONE', ( #278 ), #192 ) ;
#260 =( LENGTH_UNIT ( ) NAMED_UNIT ( * ) SI_UNIT ( $, .METRE. ) );
#261 = EDGE_CURVE ( 'NONE', #77, #212, #107, .T. ) ;
#262 = EDGE_CURVE ( 'NONE', #56, #63, #265, .T. ) ;
#263 = SURFACE_STYLE_FILL_AREA ( #62 ) ;
#264 = CIRCLE ( 'NONE', #234, 0.2500000000000001110 ) ;
#265 = CIRCLE ( 'NONE', #241, 0.2500000000000000000 ) ;
#266 = ORIENTED_EDGE ( 'NONE', *, *, #105, .F. ) ;
#267 = APPLICATION_PROTOCOL_DEFINITION ( 'draft international standard', 'automotive_design', 1998, #222 ) ;
#268 = APPLICATION_PROTOCOL_DEFINITION ( 'draft international standard', 'automotive_design', 1998, #242 ) ;
#269 = EDGE_LOOP ( 'NONE', ( #204, #219, #200, #76 ) ) ;
#270 = CARTESIAN_POINT ( 'NONE',  ( -6.123233995736772199E-17, 3.000000000000000444, 0.000000000000000000 ) ) ;
#271 = ORIENTED_EDGE ( 'NONE', *, *, #275, .T. ) ;
#272 = CYLINDRICAL_SURFACE ( 'NONE', #235, 0.2500000000000000000 ) ;
#273 = CARTESIAN_POINT ( 'NONE',  ( 0.000000000000000000, 0.000000000000000000, 0.000000000000000000 ) ) ;
#274 = FILL_AREA_STYLE_COLOUR ( '', #183 ) ;
#275 = EDGE_CURVE ( 'NONE', #299, #257, #223, .T. ) ;
#276 = ORIENTED_EDGE ( 'NONE', *, *, #54, .F. ) ;
#277 = AXIS2_PLACEMENT_3D ( 'NONE', #270, #292, #121 ) ;
#278 = PRESENTATION_STYLE_ASSIGNMENT (( #258 ) ) ;
#279 = DIRECTION ( 'NONE',  ( -0.000000000000000000, -1.000000000000000000, -0.000000000000000000 ) ) ;
#280 = FILL_AREA_STYLE_COLOUR ( '', #206 ) ;
#281 = CLOSED_SHELL ( 'NONE', ( #58, #231, #27, #192 ) ) ;
#282 = COLOUR_RGB ( '',1.000000000000000000, 0.000000000000000000, 0.000000000000000000 ) ;
#283 = SURFACE_STYLE_FILL_AREA ( #135 ) ;
#284 = CARTESIAN_POINT ( 'NONE',  ( 0.2500000000000000555, 3.000000000000000444, 0.000000000000000000 ) ) ;
#285 = EDGE_CURVE ( 'NONE', #63, #56, #113, .T. ) ;
#286 = VECTOR ( 'NONE', #290, 39.37007874015748143 ) ;
#287 = VECTOR ( 'NONE', #94, 39.37007874015748143 ) ;
#288 = CARTESIAN_POINT ( 'NONE',  ( 3.061616997868382402E-17, 1.250000000000000000, 0.2499999999999999722 ) ) ;
#289 =( NAMED_UNIT ( * ) PLANE_ANGLE_UNIT ( ) SI_UNIT ( $, .RADIAN. ) );
#290 = DIRECTION ( 'NONE',  ( -3.498990854706726443E-17, 1.000000000000000000, -0.000000000000000000 ) ) ;
#291 = ORIENTED_EDGE ( 'NONE', *, *, #158, .F. ) ;
#292 = DIRECTION ( 'NONE',  ( -3.498990854706726443E-17, 1.000000000000000000, -0.000000000000000000 ) ) ;
#293 =( CONVERSION_BASED_UNIT ( 'INCH', #95 ) LENGTH_UNIT ( ) NAMED_UNIT ( #193 ) );
#294 = CIRCLE ( 'NONE', #301, 0.2499999999999999722 ) ;
#295 = SHAPE_DEFINITION_REPRESENTATION ( #307, #16 ) ;
#296 = CARTESIAN_POINT ( 'NONE',  ( -6.123233995736772199E-17, 3.000000000000000444, 0.000000000000000000 ) ) ;
#297 =( NAMED_UNIT ( * ) PLANE_ANGLE_UNIT ( ) SI_UNIT ( $, .RADIAN. ) );
#298 = ORIENTED_EDGE ( 'NONE', *, *, #54, .T. ) ;
#299 = VERTEX_POINT ( 'NONE', #7 ) ;
#300 = EDGE_CURVE ( 'NONE', #212, #91, #75, .T. ) ;
#301 = AXIS2_PLACEMENT_3D ( 'NONE', #22, #129, #130 ) ;
#302 = CARTESIAN_POINT ( 'NONE',  ( 0.000000000000000000, 1.250000000000000000, 0.000000000000000000 ) ) ;
#303 = ADVANCED_FACE ( 'NONE', ( #168 ), #141, .T. ) ;
#304 = EDGE_LOOP ( 'NONE', ( #34, #99, #59, #42 ) ) ;
#305 = LENGTH_MEASURE_WITH_UNIT ( LENGTH_MEASURE( 0.02539999999999999897 ), #260 );
#306 = FILL_AREA_STYLE ('',( #181 ) ) ;
#307 = PRODUCT_DEFINITION_SHAPE ( 'NONE', 'NONE',  #236 ) ;
#308 = PRESENTATION_STYLE_ASSIGNMENT (( #238 ) ) ;
#309 =( LENGTH_UNIT ( ) NAMED_UNIT ( * ) SI_UNIT ( $, .METRE. ) );
ENDSEC;
END-ISO-10303-21;
