ISO-10303-21;
HEADER;
FILE_DESCRIPTION (( 'STEP AP214' ),
    '1' );
FILE_NAME ('Micro_BEMM-040-3.STEP',
    '2021-09-03T13:24:16',
    ( '' ),
    ( '' ),
    'SwSTEP 2.0',
    'SolidWorks 2020',
    '' );
FILE_SCHEMA (( 'AUTOMOTIVE_DESIGN' ));
ENDSEC;

DATA;
#1 = CARTESIAN_POINT ( 'NONE',  ( 9.633226027589770864E-18, 0.0000000000000000000, 0.07866125999999999674 ) ) ;
#2 = DIRECTION ( 'NONE',  ( -0.0000000000000000000, -0.0000000000000000000, -1.000000000000000000 ) ) ;
#3 = EDGE_CURVE ( 'NONE', #79, #59, #14, .T. ) ;
#4 = PRESENTATION_STYLE_ASSIGNMENT (( #282 ) ) ;
#5 = VERTEX_POINT ( 'NONE', #41 ) ;
#6 = EDGE_LOOP ( 'NONE', ( #306, #298, #174, #61 ) ) ;
#7 = ADVANCED_FACE ( 'NONE', ( #212 ), #40, .T. ) ;
#8 = DIRECTION ( 'NONE',  ( 0.7071067811865502373, 8.659560562354966138E-17, -0.7071067811865446862 ) ) ;
#9 = AXIS2_PLACEMENT_3D ( 'NONE', #279, #203, #127 ) ;
#10 = EDGE_LOOP ( 'NONE', ( #179, #254, #157, #76 ) ) ;
#11 = CARTESIAN_POINT ( 'NONE',  ( 9.633226027589770864E-18, 0.0000000000000000000, 0.07866125999999999674 ) ) ;
#12 = ORIENTED_EDGE ( 'NONE', *, *, #115, .F. ) ;
#13 = EDGE_CURVE ( 'NONE', #287, #132, #187, .T. ) ;
#14 = CIRCLE ( 'NONE', #84, 0.07874000000000000443 ) ;
#15 = CARTESIAN_POINT ( 'NONE',  ( 0.07866125999999999674, 9.633226027589770864E-18, -9.633226027589770864E-18 ) ) ;
#16 = CARTESIAN_POINT ( 'NONE',  ( 0.0000000000000000000, 0.0000000000000000000, 0.0000000000000000000 ) ) ;
#17 = ORIENTED_EDGE ( 'NONE', *, *, #176, .T. ) ;
#18 = LINE ( 'NONE', #243, #241 ) ;
#19 = CONICAL_SURFACE ( 'NONE', #9, 0.06374000000000018540, 0.7853981633974522758 ) ;
#20 = DIRECTION ( 'NONE',  ( 1.224646799147353207E-16, 0.0000000000000000000, 1.000000000000000000 ) ) ;
#21 = CYLINDRICAL_SURFACE ( 'NONE', #86, 0.07874000000000000443 ) ;
#22 = EDGE_CURVE ( 'NONE', #53, #152, #215, .T. ) ;
#23 = CARTESIAN_POINT ( 'NONE',  ( 0.0000000000000000000, 0.0000000000000000000, 1.968503999999999809 ) ) ;
#24 = CARTESIAN_POINT ( 'NONE',  ( 9.633226027589770864E-18, 0.0000000000000000000, 0.07866125999999999674 ) ) ;
#25 = DIRECTION ( 'NONE',  ( 0.0000000000000000000, 0.0000000000000000000, 1.000000000000000000 ) ) ;
#26 = ADVANCED_FACE ( 'NONE', ( #296 ), #233, .T. ) ;
#27 = AXIS2_PLACEMENT_3D ( 'NONE', #16, #67, #188 ) ;
#28 = AXIS2_PLACEMENT_3D ( 'NONE', #229, #227, #54 ) ;
#29 = CARTESIAN_POINT ( 'NONE',  ( 0.0000000000000000000, 0.0000000000000000000, 1.968503999999999809 ) ) ;
#30 = EDGE_LOOP ( 'NONE', ( #85, #35, #151 ) ) ;
#31 = AXIS2_PLACEMENT_3D ( 'NONE', #89, #240, #295 ) ;
#32 = AXIS2_PLACEMENT_3D ( 'NONE', #148, #325, #218 ) ;
#33 = EDGE_LOOP ( 'NONE', ( #128, #263, #308 ) ) ;
#34 = DIRECTION ( 'NONE',  ( -0.1736481776669311639, 2.126576849575783008E-17, 0.9848077530122080203 ) ) ;
#35 = ORIENTED_EDGE ( 'NONE', *, *, #195, .T. ) ;
#36 = DIRECTION ( 'NONE',  ( -0.0000000000000000000, -0.0000000000000000000, -1.000000000000000000 ) ) ;
#37 = CIRCLE ( 'NONE', #278, 0.07874000000000000443 ) ;
#38 = LINE ( 'NONE', #139, #160 ) ;
#39 =( GEOMETRIC_REPRESENTATION_CONTEXT ( 3 ) GLOBAL_UNCERTAINTY_ASSIGNED_CONTEXT ( ( #319 ) ) GLOBAL_UNIT_ASSIGNED_CONTEXT ( ( #154, #106, #315 ) ) REPRESENTATION_CONTEXT ( 'NONE', 'WORKASPACE' ) );
#40 = CYLINDRICAL_SURFACE ( 'NONE', #27, 0.07866125999999999674 ) ;
#41 = CARTESIAN_POINT ( 'NONE',  ( -0.07873999999999992117, 0.0000000000000000000, 0.7091075567304767624 ) ) ;
#42 = CARTESIAN_POINT ( 'NONE',  ( 8.678594253305624695E-17, 0.0000000000000000000, 0.7086609999999999854 ) ) ;
#43 = DIRECTION ( 'NONE',  ( 1.224646799147353207E-16, 0.0000000000000000000, 1.000000000000000000 ) ) ;
#44 = SPHERICAL_SURFACE ( 'NONE', #135, 0.07866125999999999674 ) ;
#45 = EDGE_CURVE ( 'NONE', #255, #132, #164, .T. ) ;
#46 =( GEOMETRIC_REPRESENTATION_CONTEXT ( 3 ) GLOBAL_UNCERTAINTY_ASSIGNED_CONTEXT ( ( #111 ) ) GLOBAL_UNIT_ASSIGNED_CONTEXT ( ( #70, #94, #247 ) ) REPRESENTATION_CONTEXT ( 'NONE', 'WORKASPACE' ) );
#47 = CARTESIAN_POINT ( 'NONE',  ( -0.06374000000000018540, 0.0000000000000000000, 1.968503999999999809 ) ) ;
#48 = ADVANCED_BREP_SHAPE_REPRESENTATION ( 'Micro_BEMM-040-3', ( #180, #201 ), #185 ) ;
#49 = ADVANCED_FACE ( 'NONE', ( #292 ), #321, .T. ) ;
#50 = DIRECTION ( 'NONE',  ( 0.0000000000000000000, 0.0000000000000000000, -1.000000000000000000 ) ) ;
#51 =( LENGTH_UNIT ( ) NAMED_UNIT ( * ) SI_UNIT ( $, .METRE. ) );
#52 = DIRECTION ( 'NONE',  ( -1.000000000000000000, 0.0000000000000000000, 0.0000000000000000000 ) ) ;
#53 = VERTEX_POINT ( 'NONE', #66 ) ;
#54 = DIRECTION ( 'NONE',  ( -1.000000000000000000, 0.0000000000000000000, 0.0000000000000000000 ) ) ;
#55 = ORIENTED_EDGE ( 'NONE', *, *, #153, .T. ) ;
#56 = AXIS2_PLACEMENT_3D ( 'NONE', #42, #90, #264 ) ;
#57 = CONICAL_SURFACE ( 'NONE', #28, 0.06374000000000018540, 0.7853981633974522758 ) ;
#58 = CARTESIAN_POINT ( 'NONE',  ( 8.684062996011784961E-17, 0.0000000000000000000, 0.7091075567304767624 ) ) ;
#59 = VERTEX_POINT ( 'NONE', #163 ) ;
#60 = ADVANCED_FACE ( 'NONE', ( #265 ), #272, .T. ) ;
#61 = ORIENTED_EDGE ( 'NONE', *, *, #22, .F. ) ;
#62 = DIRECTION ( 'NONE',  ( -1.000000000000000000, 0.0000000000000000000, 1.224646799147352961E-16 ) ) ;
#63 = CARTESIAN_POINT ( 'NONE',  ( 0.0000000000000000000, 0.0000000000000000000, 1.968503999999999809 ) ) ;
#64 = EDGE_CURVE ( 'NONE', #287, #53, #206, .T. ) ;
#65 = ORIENTED_EDGE ( 'NONE', *, *, #297, .T. ) ;
#66 = CARTESIAN_POINT ( 'NONE',  ( 0.07866126000000008001, 0.0000000000000000000, 0.7086609999999999854 ) ) ;
#67 = DIRECTION ( 'NONE',  ( -1.224646799147353207E-16, -0.0000000000000000000, -1.000000000000000000 ) ) ;
#68 = MECHANICAL_DESIGN_GEOMETRIC_PRESENTATION_REPRESENTATION (  '', ( #137 ), #46 ) ;
#69 = DIRECTION ( 'NONE',  ( 1.000000000000000000, 0.0000000000000000000, 0.0000000000000000000 ) ) ;
#70 =( CONVERSION_BASED_UNIT ( 'INCH', #73 ) LENGTH_UNIT ( ) NAMED_UNIT ( #100 ) );
#71 = CARTESIAN_POINT ( 'NONE',  ( 1.444983904138465630E-17, 0.0000000000000000000, 0.0000000000000000000 ) ) ;
#72 = AXIS2_PLACEMENT_3D ( 'NONE', #11, #78, #156 ) ;
#73 = LENGTH_MEASURE_WITH_UNIT ( LENGTH_MEASURE( 0.02539999999999999897 ), #222 );
#74 = CARTESIAN_POINT ( 'NONE',  ( 8.678594253305624695E-17, 0.0000000000000000000, 0.7086609999999999854 ) ) ;
#75 = AXIS2_PLACEMENT_3D ( 'NONE', #23, #25, #274 ) ;
#76 = ORIENTED_EDGE ( 'NONE', *, *, #297, .F. ) ;
#77 = AXIS2_PLACEMENT_3D ( 'NONE', #58, #277, #310 ) ;
#78 = DIRECTION ( 'NONE',  ( 1.224646799147353207E-16, 1.000000000000000000, -0.0000000000000000000 ) ) ;
#79 = VERTEX_POINT ( 'NONE', #91 ) ;
#80 = APPLICATION_PROTOCOL_DEFINITION ( 'draft international standard', 'automotive_design', 1998, #112 ) ;
#81 = ORIENTED_EDGE ( 'NONE', *, *, #213, .T. ) ;
#82 = UNCERTAINTY_MEASURE_WITH_UNIT (LENGTH_MEASURE( 1.000000000000000082E-05 ), #307, 'distance_accuracy_value', 'NONE');
#83 = LINE ( 'NONE', #253, #143 ) ;
#84 = AXIS2_PLACEMENT_3D ( 'NONE', #214, #316, #182 ) ;
#85 = ORIENTED_EDGE ( 'NONE', *, *, #232, .F. ) ;
#86 = AXIS2_PLACEMENT_3D ( 'NONE', #29, #251, #52 ) ;
#87 = EDGE_LOOP ( 'NONE', ( #55, #17 ) ) ;
#88 = DIRECTION ( 'NONE',  ( 1.000000000000000000, 0.0000000000000000000, 0.0000000000000000000 ) ) ;
#89 = CARTESIAN_POINT ( 'NONE',  ( 9.633226027589770864E-18, 0.0000000000000000000, 0.07866125999999999674 ) ) ;
#90 = DIRECTION ( 'NONE',  ( -1.224646799147353207E-16, -0.0000000000000000000, -1.000000000000000000 ) ) ;
#91 = CARTESIAN_POINT ( 'NONE',  ( -0.07874000000000000443, 0.0000000000000000000, 1.953504000000000129 ) ) ;
#92 = AXIS2_PLACEMENT_3D ( 'NONE', #186, #20, #166 ) ;
#93 = SURFACE_STYLE_USAGE ( .BOTH. , #300 ) ;
#94 =( NAMED_UNIT ( * ) PLANE_ANGLE_UNIT ( ) SI_UNIT ( $, .RADIAN. ) );
#95 = DIRECTION ( 'NONE',  ( -1.000000000000000000, 0.0000000000000000000, 2.170579261049422102E-16 ) ) ;
#96 = COLOUR_RGB ( '',0.7921568627450980005, 0.8196078431372548767, 0.9333333333333333481 ) ;
#97 = EDGE_CURVE ( 'NONE', #59, #152, #18, .T. ) ;
#98 = CARTESIAN_POINT ( 'NONE',  ( -0.07866125999999989959, 9.638047462038014686E-18, 0.7086609999999999854 ) ) ;
#99 = EDGE_LOOP ( 'NONE', ( #158, #102, #313, #231 ) ) ;
#100 = DIMENSIONAL_EXPONENTS ( 1.000000000000000000, 0.0000000000000000000, 0.0000000000000000000, 0.0000000000000000000, 0.0000000000000000000, 0.0000000000000000000, 0.0000000000000000000 ) ;
#101 = CARTESIAN_POINT ( 'NONE',  ( 0.06374000000000018540, 7.805898697765251255E-18, 1.968503999999999809 ) ) ;
#102 = ORIENTED_EDGE ( 'NONE', *, *, #108, .T. ) ;
#103 = EDGE_CURVE ( 'NONE', #79, #5, #38, .T. ) ;
#104 = FILL_AREA_STYLE ('',( #131 ) ) ;
#105 = ORIENTED_EDGE ( 'NONE', *, *, #103, .F. ) ;
#106 =( NAMED_UNIT ( * ) PLANE_ANGLE_UNIT ( ) SI_UNIT ( $, .RADIAN. ) );
#107 = DIRECTION ( 'NONE',  ( 1.000000000000000000, 0.0000000000000000000, 0.0000000000000000000 ) ) ;
#108 = EDGE_CURVE ( 'NONE', #53, #255, #138, .T. ) ;
#109 = CARTESIAN_POINT ( 'NONE',  ( 8.684062996011784961E-17, 0.0000000000000000000, 0.7091075567304767624 ) ) ;
#110 = ORIENTED_EDGE ( 'NONE', *, *, #97, .F. ) ;
#111 = UNCERTAINTY_MEASURE_WITH_UNIT (LENGTH_MEASURE( 1.000000000000000082E-05 ), #70, 'distance_accuracy_value', 'NONE');
#112 = APPLICATION_CONTEXT ( 'automotive_design' ) ;
#113 = VERTEX_POINT ( 'NONE', #236 ) ;
#114 = DIRECTION ( 'NONE',  ( 0.1736481776669313581, 0.0000000000000000000, 0.9848077530122077983 ) ) ;
#115 = EDGE_CURVE ( 'NONE', #5, #152, #37, .T. ) ;
#116 = SURFACE_STYLE_FILL_AREA ( #324 ) ;
#117 = FILL_AREA_STYLE_COLOUR ( '', #189 ) ;
#118 = MECHANICAL_DESIGN_GEOMETRIC_PRESENTATION_REPRESENTATION (  '', ( #280 ), #39 ) ;
#119 = ADVANCED_FACE ( 'NONE', ( #314 ), #184, .T. ) ;
#120 = CARTESIAN_POINT ( 'NONE',  ( -0.07866125999999996898, 0.0000000000000000000, 0.07866126000000001062 ) ) ;
#121 = PRODUCT ( 'Micro_BEMM-040-3', 'Micro_BEMM-040-3', '', ( #181 ) ) ;
#122 = FACE_OUTER_BOUND ( 'NONE', #228, .T. ) ;
#123 = AXIS2_PLACEMENT_3D ( 'NONE', #24, #192, #301 ) ;
#124 = FACE_OUTER_BOUND ( 'NONE', #207, .T. ) ;
#125 = LENGTH_MEASURE_WITH_UNIT ( LENGTH_MEASURE( 0.02539999999999999897 ), #173 );
#126 = VERTEX_POINT ( 'NONE', #47 ) ;
#127 = DIRECTION ( 'NONE',  ( -1.000000000000000000, 0.0000000000000000000, 0.0000000000000000000 ) ) ;
#128 = ORIENTED_EDGE ( 'NONE', *, *, #195, .F. ) ;
#129 = PRODUCT_DEFINITION_SHAPE ( 'NONE', 'NONE',  #155 ) ;
#130 = ADVANCED_FACE ( 'NONE', ( #270 ), #149, .T. ) ;
#131 = FILL_AREA_STYLE_COLOUR ( '', #96 ) ;
#132 = VERTEX_POINT ( 'NONE', #120 ) ;
#133 = ORIENTED_EDGE ( 'NONE', *, *, #108, .F. ) ;
#134 = DIRECTION ( 'NONE',  ( -0.0000000000000000000, -0.0000000000000000000, -1.000000000000000000 ) ) ;
#135 = AXIS2_PLACEMENT_3D ( 'NONE', #221, #220, #303 ) ;
#136 = ADVANCED_FACE ( 'NONE', ( #271 ), #44, .T. ) ;
#137 = STYLED_ITEM ( 'NONE', ( #191 ), #180 ) ;
#138 = LINE ( 'NONE', #15, #141 ) ;
#139 = CARTESIAN_POINT ( 'NONE',  ( -0.07874000000000000443, 0.0000000000000000000, 1.968503999999999809 ) ) ;
#140 = DIRECTION ( 'NONE',  ( -1.224646799147353207E-16, -0.0000000000000000000, -1.000000000000000000 ) ) ;
#141 = VECTOR ( 'NONE', #161, 39.37007874015748143 ) ;
#142 = EDGE_CURVE ( 'NONE', #59, #79, #322, .T. ) ;
#143 = VECTOR ( 'NONE', #177, 39.37007874015748854 ) ;
#144 = ORIENTED_EDGE ( 'NONE', *, *, #97, .T. ) ;
#145 = DIRECTION ( 'NONE',  ( 0.0000000000000000000, 1.000000000000000000, 0.0000000000000000000 ) ) ;
#146 = DIRECTION ( 'NONE',  ( 1.000000000000000000, 0.0000000000000000000, 0.0000000000000000000 ) ) ;
#147 = CARTESIAN_POINT ( 'NONE',  ( 0.0000000000000000000, 0.0000000000000000000, 1.968503999999999809 ) ) ;
#148 = CARTESIAN_POINT ( 'NONE',  ( 0.0000000000000000000, 0.0000000000000000000, 1.968503999999999809 ) ) ;
#149 = CYLINDRICAL_SURFACE ( 'NONE', #172, 0.07874000000000000443 ) ;
#150 = AXIS2_PLACEMENT_3D ( 'NONE', #63, #239, #245 ) ;
#151 = ORIENTED_EDGE ( 'NONE', *, *, #209, .F. ) ;
#152 = VERTEX_POINT ( 'NONE', #275 ) ;
#153 = EDGE_CURVE ( 'NONE', #126, #113, #219, .T. ) ;
#154 =( CONVERSION_BASED_UNIT ( 'INCH', #284 ) LENGTH_UNIT ( ) NAMED_UNIT ( #199 ) );
#155 = PRODUCT_DEFINITION ( 'UNKNOWN', '', #223, #261 ) ;
#156 = DIRECTION ( 'NONE',  ( -1.000000000000000000, 1.224646799147352961E-16, 0.0000000000000000000 ) ) ;
#157 = ORIENTED_EDGE ( 'NONE', *, *, #3, .F. ) ;
#158 = ORIENTED_EDGE ( 'NONE', *, *, #64, .T. ) ;
#159 = EDGE_LOOP ( 'NONE', ( #200, #144, #12, #105 ) ) ;
#160 = VECTOR ( 'NONE', #134, 39.37007874015748143 ) ;
#161 = DIRECTION ( 'NONE',  ( -1.224646799147353207E-16, -0.0000000000000000000, -1.000000000000000000 ) ) ;
#162 = CARTESIAN_POINT ( 'NONE',  ( 0.0000000000000000000, 0.0000000000000000000, 0.0000000000000000000 ) ) ;
#163 = CARTESIAN_POINT ( 'NONE',  ( 0.07874000000000000443, 9.642868896486258509E-18, 1.953504000000000129 ) ) ;
#164 = CIRCLE ( 'NONE', #31, 0.07866125999999999674 ) ;
#165 = VECTOR ( 'NONE', #8, 39.37007874015748854 ) ;
#166 = DIRECTION ( 'NONE',  ( 1.000000000000000000, 0.0000000000000000000, 0.0000000000000000000 ) ) ;
#167 = SPHERICAL_SURFACE ( 'NONE', #237, 0.07866125999999999674 ) ;
#168 = ADVANCED_FACE ( 'NONE', ( #190 ), #167, .T. ) ;
#169 = CARTESIAN_POINT ( 'NONE',  ( 9.633226027589770864E-18, 0.0000000000000000000, 0.07866125999999999674 ) ) ;
#170 = CIRCLE ( 'NONE', #194, 0.07866125999999999674 ) ;
#171 = AXIS2_PLACEMENT_3D ( 'NONE', #193, #50, #146 ) ;
#172 = AXIS2_PLACEMENT_3D ( 'NONE', #147, #2, #248 ) ;
#173 =( LENGTH_UNIT ( ) NAMED_UNIT ( * ) SI_UNIT ( $, .METRE. ) );
#174 = ORIENTED_EDGE ( 'NONE', *, *, #115, .T. ) ;
#175 =( NAMED_UNIT ( * ) PLANE_ANGLE_UNIT ( ) SI_UNIT ( $, .RADIAN. ) );
#176 = EDGE_CURVE ( 'NONE', #113, #126, #250, .T. ) ;
#177 = DIRECTION ( 'NONE',  ( -0.7071067811865502373, 0.0000000000000000000, -0.7071067811865446862 ) ) ;
#178 = ORIENTED_EDGE ( 'NONE', *, *, #142, .T. ) ;
#179 = ORIENTED_EDGE ( 'NONE', *, *, #176, .F. ) ;
#180 = MANIFOLD_SOLID_BREP ( 'Fillet1', #267 ) ;
#181 = PRODUCT_CONTEXT ( 'NONE', #112, 'mechanical' ) ;
#182 = DIRECTION ( 'NONE',  ( 1.000000000000000000, 0.0000000000000000000, 0.0000000000000000000 ) ) ;
#183 = DIRECTION ( 'NONE',  ( 1.000000000000000000, 0.0000000000000000000, 0.0000000000000000000 ) ) ;
#184 = PLANE ( 'NONE',  #150 ) ;
#185 =( GEOMETRIC_REPRESENTATION_CONTEXT ( 3 ) GLOBAL_UNCERTAINTY_ASSIGNED_CONTEXT ( ( #82 ) ) GLOBAL_UNIT_ASSIGNED_CONTEXT ( ( #307, #175, #225 ) ) REPRESENTATION_CONTEXT ( 'NONE', 'WORKASPACE' ) );
#186 = CARTESIAN_POINT ( 'NONE',  ( 8.678594253305624695E-17, 0.0000000000000000000, 0.7086609999999999854 ) ) ;
#187 = LINE ( 'NONE', #318, #226 ) ;
#188 = DIRECTION ( 'NONE',  ( -1.000000000000000000, 0.0000000000000000000, 1.224646799147352961E-16 ) ) ;
#189 = COLOUR_RGB ( '',0.7921568627450980005, 0.8196078431372548767, 0.9333333333333333481 ) ;
#190 = FACE_OUTER_BOUND ( 'NONE', #30, .T. ) ;
#191 = PRESENTATION_STYLE_ASSIGNMENT (( #93 ) ) ;
#192 = DIRECTION ( 'NONE',  ( 0.0000000000000000000, -1.000000000000000000, 0.0000000000000000000 ) ) ;
#193 = CARTESIAN_POINT ( 'NONE',  ( 0.0000000000000000000, 0.0000000000000000000, 1.953504000000000129 ) ) ;
#194 = AXIS2_PLACEMENT_3D ( 'NONE', #1, #43, #95 ) ;
#195 = EDGE_CURVE ( 'NONE', #204, #255, #235, .T. ) ;
#196 = FACE_OUTER_BOUND ( 'NONE', #10, .T. ) ;
#197 = ORIENTED_EDGE ( 'NONE', *, *, #304, .F. ) ;
#198 = LINE ( 'NONE', #101, #165 ) ;
#199 = DIMENSIONAL_EXPONENTS ( 1.000000000000000000, 0.0000000000000000000, 0.0000000000000000000, 0.0000000000000000000, 0.0000000000000000000, 0.0000000000000000000, 0.0000000000000000000 ) ;
#200 = ORIENTED_EDGE ( 'NONE', *, *, #3, .T. ) ;
#201 = AXIS2_PLACEMENT_3D ( 'NONE', #317, #210, #183 ) ;
#202 = ORIENTED_EDGE ( 'NONE', *, *, #276, .T. ) ;
#203 = DIRECTION ( 'NONE',  ( 0.0000000000000000000, 0.0000000000000000000, -1.000000000000000000 ) ) ;
#204 = VERTEX_POINT ( 'NONE', #71 ) ;
#205 = SURFACE_STYLE_FILL_AREA ( #104 ) ;
#206 = CIRCLE ( 'NONE', #56, 0.07866125999999999674 ) ;
#207 = EDGE_LOOP ( 'NONE', ( #309, #289, #65, #259 ) ) ;
#208 = APPLICATION_CONTEXT ( 'automotive_design' ) ;
#209 = EDGE_CURVE ( 'NONE', #132, #255, #170, .T. ) ;
#210 = DIRECTION ( 'NONE',  ( 0.0000000000000000000, 0.0000000000000000000, 1.000000000000000000 ) ) ;
#211 = ORIENTED_EDGE ( 'NONE', *, *, #103, .T. ) ;
#212 = FACE_OUTER_BOUND ( 'NONE', #252, .T. ) ;
#213 = EDGE_CURVE ( 'NONE', #53, #287, #242, .T. ) ;
#214 = CARTESIAN_POINT ( 'NONE',  ( 0.0000000000000000000, 0.0000000000000000000, 1.953504000000000129 ) ) ;
#215 = LINE ( 'NONE', #320, #286 ) ;
#216 = DIRECTION ( 'NONE',  ( 1.224646799147353207E-16, 0.0000000000000000000, 1.000000000000000000 ) ) ;
#217 = ADVANCED_FACE ( 'NONE', ( #122 ), #21, .T. ) ;
#218 = DIRECTION ( 'NONE',  ( 1.000000000000000000, 0.0000000000000000000, 0.0000000000000000000 ) ) ;
#219 = CIRCLE ( 'NONE', #75, 0.06374000000000018540 ) ;
#220 = DIRECTION ( 'NONE',  ( 0.0000000000000000000, 1.000000000000000000, 0.0000000000000000000 ) ) ;
#221 = CARTESIAN_POINT ( 'NONE',  ( 9.633226027589770864E-18, 0.0000000000000000000, 0.07866125999999999674 ) ) ;
#222 =( LENGTH_UNIT ( ) NAMED_UNIT ( * ) SI_UNIT ( $, .METRE. ) );
#223 = PRODUCT_DEFINITION_FORMATION_WITH_SPECIFIED_SOURCE ( 'ANY', '', #121, .NOT_KNOWN. ) ;
#224 = CARTESIAN_POINT ( 'NONE',  ( -0.07866125999999989959, 9.633226027589770864E-18, 0.7086609999999999854 ) ) ;
#225 =( NAMED_UNIT ( * ) SI_UNIT ( $, .STERADIAN. ) SOLID_ANGLE_UNIT ( ) );
#226 = VECTOR ( 'NONE', #140, 39.37007874015748143 ) ;
#227 = DIRECTION ( 'NONE',  ( 0.0000000000000000000, 0.0000000000000000000, -1.000000000000000000 ) ) ;
#228 = EDGE_LOOP ( 'NONE', ( #110, #178, #211, #311 ) ) ;
#229 = CARTESIAN_POINT ( 'NONE',  ( 0.0000000000000000000, 0.0000000000000000000, 1.968503999999999809 ) ) ;
#230 = ORIENTED_EDGE ( 'NONE', *, *, #209, .T. ) ;
#231 = ORIENTED_EDGE ( 'NONE', *, *, #13, .F. ) ;
#232 = EDGE_CURVE ( 'NONE', #204, #132, #246, .T. ) ;
#233 = CONICAL_SURFACE ( 'NONE', #92, 0.07866125999999999674, 0.1745329251994338637 ) ;
#234 = DIRECTION ( 'NONE',  ( -1.224646799147353207E-16, -0.0000000000000000000, -1.000000000000000000 ) ) ;
#235 = CIRCLE ( 'NONE', #123, 0.07866125999999999674 ) ;
#236 = CARTESIAN_POINT ( 'NONE',  ( 0.06374000000000018540, 8.724383797125754882E-18, 1.968503999999999809 ) ) ;
#237 = AXIS2_PLACEMENT_3D ( 'NONE', #169, #145, #69 ) ;
#238 = ADVANCED_FACE ( 'NONE', ( #124 ), #19, .T. ) ;
#239 = DIRECTION ( 'NONE',  ( 0.0000000000000000000, 0.0000000000000000000, 1.000000000000000000 ) ) ;
#240 = DIRECTION ( 'NONE',  ( 1.224646799147353207E-16, 0.0000000000000000000, 1.000000000000000000 ) ) ;
#241 = VECTOR ( 'NONE', #36, 39.37007874015748143 ) ;
#242 = CIRCLE ( 'NONE', #262, 0.07866125999999999674 ) ;
#243 = CARTESIAN_POINT ( 'NONE',  ( 0.07874000000000000443, 9.642868896486258509E-18, 1.968503999999999809 ) ) ;
#244 = DIRECTION ( 'NONE',  ( -1.000000000000000000, 0.0000000000000000000, 0.0000000000000000000 ) ) ;
#245 = DIRECTION ( 'NONE',  ( 1.000000000000000000, 0.0000000000000000000, -0.0000000000000000000 ) ) ;
#246 = CIRCLE ( 'NONE', #72, 0.07866125999999999674 ) ;
#247 =( NAMED_UNIT ( * ) SI_UNIT ( $, .STERADIAN. ) SOLID_ANGLE_UNIT ( ) );
#248 = DIRECTION ( 'NONE',  ( -1.000000000000000000, 0.0000000000000000000, 0.0000000000000000000 ) ) ;
#249 = AXIS2_PLACEMENT_3D ( 'NONE', #162, #260, #62 ) ;
#250 = CIRCLE ( 'NONE', #32, 0.06374000000000018540 ) ;
#251 = DIRECTION ( 'NONE',  ( -0.0000000000000000000, -0.0000000000000000000, -1.000000000000000000 ) ) ;
#252 = EDGE_LOOP ( 'NONE', ( #133, #81, #283, #230 ) ) ;
#253 = CARTESIAN_POINT ( 'NONE',  ( -0.06374000000000018540, 0.0000000000000000000, 1.968503999999999809 ) ) ;
#254 = ORIENTED_EDGE ( 'NONE', *, *, #291, .T. ) ;
#255 = VERTEX_POINT ( 'NONE', #257 ) ;
#256 = CIRCLE ( 'NONE', #77, 0.07874000000000000443 ) ;
#257 = CARTESIAN_POINT ( 'NONE',  ( 0.07866126000000001062, 9.633226027589770864E-18, 0.07866125999999996898 ) ) ;
#258 = EDGE_LOOP ( 'NONE', ( #197, #285, #281, #202 ) ) ;
#259 = ORIENTED_EDGE ( 'NONE', *, *, #142, .F. ) ;
#260 = DIRECTION ( 'NONE',  ( -1.224646799147353207E-16, -0.0000000000000000000, -1.000000000000000000 ) ) ;
#261 = PRODUCT_DEFINITION_CONTEXT ( 'detailed design', #208, 'design' ) ;
#262 = AXIS2_PLACEMENT_3D ( 'NONE', #74, #269, #244 ) ;
#263 = ORIENTED_EDGE ( 'NONE', *, *, #232, .T. ) ;
#264 = DIRECTION ( 'NONE',  ( -1.000000000000000000, 0.0000000000000000000, 0.0000000000000000000 ) ) ;
#265 = FACE_OUTER_BOUND ( 'NONE', #6, .T. ) ;
#266 = AXIS2_PLACEMENT_3D ( 'NONE', #294, #216, #88 ) ;
#267 = CLOSED_SHELL ( 'NONE', ( #136, #49, #60, #268, #130, #217, #119, #238, #26, #7, #168 ) ) ;
#268 = ADVANCED_FACE ( 'NONE', ( #196 ), #57, .T. ) ;
#269 = DIRECTION ( 'NONE',  ( -1.224646799147353207E-16, -0.0000000000000000000, -1.000000000000000000 ) ) ;
#270 = FACE_OUTER_BOUND ( 'NONE', #159, .T. ) ;
#271 = FACE_OUTER_BOUND ( 'NONE', #33, .T. ) ;
#272 = CONICAL_SURFACE ( 'NONE', #266, 0.07866125999999999674, 0.1745329251994338637 ) ;
#273 = PRESENTATION_LAYER_ASSIGNMENT (  '', '', ( #280 ) ) ;
#274 = DIRECTION ( 'NONE',  ( 1.000000000000000000, 0.0000000000000000000, 0.0000000000000000000 ) ) ;
#275 = CARTESIAN_POINT ( 'NONE',  ( 0.07874000000000008770, 9.642868896486269294E-18, 0.7091075567304767624 ) ) ;
#276 = EDGE_CURVE ( 'NONE', #152, #5, #256, .T. ) ;
#277 = DIRECTION ( 'NONE',  ( -1.224646799147353207E-16, -0.0000000000000000000, -1.000000000000000000 ) ) ;
#278 = AXIS2_PLACEMENT_3D ( 'NONE', #109, #234, #107 ) ;
#279 = CARTESIAN_POINT ( 'NONE',  ( 0.0000000000000000000, 0.0000000000000000000, 1.968503999999999809 ) ) ;
#280 = STYLED_ITEM ( 'NONE', ( #4 ), #48 ) ;
#281 = ORIENTED_EDGE ( 'NONE', *, *, #22, .T. ) ;
#282 = SURFACE_STYLE_USAGE ( .BOTH. , #312 ) ;
#283 = ORIENTED_EDGE ( 'NONE', *, *, #13, .T. ) ;
#284 = LENGTH_MEASURE_WITH_UNIT ( LENGTH_MEASURE( 0.02539999999999999897 ), #51 );
#285 = ORIENTED_EDGE ( 'NONE', *, *, #213, .F. ) ;
#286 = VECTOR ( 'NONE', #114, 39.37007874015748143 ) ;
#287 = VERTEX_POINT ( 'NONE', #98 ) ;
#288 = DIMENSIONAL_EXPONENTS ( 1.000000000000000000, 0.0000000000000000000, 0.0000000000000000000, 0.0000000000000000000, 0.0000000000000000000, 0.0000000000000000000, 0.0000000000000000000 ) ;
#289 = ORIENTED_EDGE ( 'NONE', *, *, #153, .F. ) ;
#290 = SHAPE_DEFINITION_REPRESENTATION ( #129, #48 ) ;
#291 = EDGE_CURVE ( 'NONE', #113, #59, #198, .T. ) ;
#292 = FACE_OUTER_BOUND ( 'NONE', #99, .T. ) ;
#293 = APPLICATION_PROTOCOL_DEFINITION ( 'draft international standard', 'automotive_design', 1998, #208 ) ;
#294 = CARTESIAN_POINT ( 'NONE',  ( 8.678594253305624695E-17, 0.0000000000000000000, 0.7086609999999999854 ) ) ;
#295 = DIRECTION ( 'NONE',  ( -1.000000000000000000, 0.0000000000000000000, 2.170579261049422102E-16 ) ) ;
#296 = FACE_OUTER_BOUND ( 'NONE', #258, .T. ) ;
#297 = EDGE_CURVE ( 'NONE', #126, #79, #83, .T. ) ;
#298 = ORIENTED_EDGE ( 'NONE', *, *, #304, .T. ) ;
#299 = VECTOR ( 'NONE', #34, 39.37007874015747433 ) ;
#300 = SURFACE_SIDE_STYLE ('',( #116 ) ) ;
#301 = DIRECTION ( 'NONE',  ( 0.0000000000000000000, 0.0000000000000000000, -1.000000000000000000 ) ) ;
#302 = PRODUCT_RELATED_PRODUCT_CATEGORY ( 'part', '', ( #121 ) ) ;
#303 = DIRECTION ( 'NONE',  ( 1.000000000000000000, 0.0000000000000000000, 0.0000000000000000000 ) ) ;
#304 = EDGE_CURVE ( 'NONE', #287, #5, #305, .T. ) ;
#305 = LINE ( 'NONE', #224, #299 ) ;
#306 = ORIENTED_EDGE ( 'NONE', *, *, #64, .F. ) ;
#307 =( CONVERSION_BASED_UNIT ( 'INCH', #125 ) LENGTH_UNIT ( ) NAMED_UNIT ( #288 ) );
#308 = ORIENTED_EDGE ( 'NONE', *, *, #45, .F. ) ;
#309 = ORIENTED_EDGE ( 'NONE', *, *, #291, .F. ) ;
#310 = DIRECTION ( 'NONE',  ( 1.000000000000000000, 0.0000000000000000000, 0.0000000000000000000 ) ) ;
#311 = ORIENTED_EDGE ( 'NONE', *, *, #276, .F. ) ;
#312 = SURFACE_SIDE_STYLE ('',( #205 ) ) ;
#313 = ORIENTED_EDGE ( 'NONE', *, *, #45, .T. ) ;
#314 = FACE_OUTER_BOUND ( 'NONE', #87, .T. ) ;
#315 =( NAMED_UNIT ( * ) SI_UNIT ( $, .STERADIAN. ) SOLID_ANGLE_UNIT ( ) );
#316 = DIRECTION ( 'NONE',  ( 0.0000000000000000000, 0.0000000000000000000, -1.000000000000000000 ) ) ;
#317 = CARTESIAN_POINT ( 'NONE',  ( 0.0000000000000000000, 0.0000000000000000000, 0.0000000000000000000 ) ) ;
#318 = CARTESIAN_POINT ( 'NONE',  ( -0.07866125999999999674, 0.0000000000000000000, 9.633226027589770864E-18 ) ) ;
#319 = UNCERTAINTY_MEASURE_WITH_UNIT (LENGTH_MEASURE( 1.000000000000000082E-05 ), #154, 'distance_accuracy_value', 'NONE');
#320 = CARTESIAN_POINT ( 'NONE',  ( 0.07866126000000008001, 0.0000000000000000000, 0.7086609999999999854 ) ) ;
#321 = CYLINDRICAL_SURFACE ( 'NONE', #249, 0.07866125999999999674 ) ;
#322 = CIRCLE ( 'NONE', #171, 0.07874000000000000443 ) ;
#323 = PRESENTATION_LAYER_ASSIGNMENT (  '', '', ( #137 ) ) ;
#324 = FILL_AREA_STYLE ('',( #117 ) ) ;
#325 = DIRECTION ( 'NONE',  ( 0.0000000000000000000, 0.0000000000000000000, 1.000000000000000000 ) ) ;
ENDSEC;
END-ISO-10303-21;
