ISO-10303-21;
HEADER;
FILE_DESCRIPTION (( 'STEP AP214' ),
    '1' );
FILE_NAME ('82461.STEP',
    '2023-06-30T22:41:46',
    ( '' ),
    ( '' ),
    'SwSTEP 2.0',
    'SolidWorks 2023',
    '' );
FILE_SCHEMA (( 'AUTOMOTIVE_DESIGN' ));
ENDSEC;

DATA;
#1 =( NAMED_UNIT ( * ) PLANE_ANGLE_UNIT ( ) SI_UNIT ( $, .RADIAN. ) );
#2 = ORIENTED_EDGE ( 'NONE', *, *, #61, .T. ) ;
#3 = FILL_AREA_STYLE ('',( #373 ) ) ;
#4 = CARTESIAN_POINT ( 'NONE',  ( 0.000000000000000000, 0.1875000000000000555, 0.000000000000000000 ) ) ;
#5 = ORIENTED_EDGE ( 'NONE', *, *, #159, .F. ) ;
#6 = DIRECTION ( 'NONE',  ( 1.000000000000000000, 0.000000000000000000, 0.000000000000000000 ) ) ;
#7 = EDGE_LOOP ( 'NONE', ( #291, #357, #37, #355 ) ) ;
#8 = FACE_OUTER_BOUND ( 'NONE', #321, .T. ) ;
#9 = ORIENTED_EDGE ( 'NONE', *, *, #226, .T. ) ;
#10 = AXIS2_PLACEMENT_3D ( 'NONE', #100, #211, #6 ) ;
#11 = APPLICATION_PROTOCOL_DEFINITION ( 'draft international standard', 'automotive_design', 1998, #76 ) ;
#12 = COLOUR_RGB ( '',0.7921568627450980005, 0.8196078431372548767, 0.9333333333333333481 ) ;
#13 = CIRCLE ( 'NONE', #223, 0.1874999999999996392 ) ;
#14 = DIRECTION ( 'NONE',  ( -0.000000000000000000, -1.000000000000000000, -0.000000000000000000 ) ) ;
#15 = ORIENTED_EDGE ( 'NONE', *, *, #162, .T. ) ;
#16 = LINE ( 'NONE', #197, #170 ) ;
#17 = MANIFOLD_SOLID_BREP ( 'Revolve - Tool Body (Straight Shanked)', #266 ) ;
#18 =( NAMED_UNIT ( * ) SI_UNIT ( $, .STERADIAN. ) SOLID_ANGLE_UNIT ( ) );
#19 =( NAMED_UNIT ( * ) SI_UNIT ( $, .STERADIAN. ) SOLID_ANGLE_UNIT ( ) );
#20 =( LENGTH_UNIT ( ) NAMED_UNIT ( * ) SI_UNIT ( $, .METRE. ) );
#21 = APPLICATION_CONTEXT ( 'automotive_design' ) ;
#22 = COLOUR_RGB ( '',1.000000000000000000, 0.000000000000000000, 0.000000000000000000 ) ;
#23 = CYLINDRICAL_SURFACE ( 'NONE', #99, 0.1874999999999999445 ) ;
#24 = ADVANCED_FACE ( 'NONE', ( #360 ), #281, .T. ) ;
#25 = AXIS2_PLACEMENT_3D ( 'NONE', #308, #282, #106 ) ;
#26 = PRESENTATION_LAYER_ASSIGNMENT (  '', '', ( #108 ) ) ;
#27 = SURFACE_STYLE_USAGE ( .BOTH. , #319 ) ;
#28 = ADVANCED_BREP_SHAPE_REPRESENTATION ( '82461', ( #270, #17, #10 ), #51 ) ;
#29 = DIRECTION ( 'NONE',  ( 1.246502398102879949E-16, -1.000000000000000000, 0.000000000000000000 ) ) ;
#30 = CARTESIAN_POINT ( 'NONE',  ( 0.1874999999999999167, 0.7499999999999998890, 2.296212748401285260E-17 ) ) ;
#31 = EDGE_LOOP ( 'NONE', ( #156, #15, #73, #147 ) ) ;
#32 = LINE ( 'NONE', #59, #115 ) ;
#33 = ORIENTED_EDGE ( 'NONE', *, *, #273, .T. ) ;
#34 = DIRECTION ( 'NONE',  ( -0.000000000000000000, -1.000000000000000000, -0.000000000000000000 ) ) ;
#35 = EDGE_CURVE ( 'NONE', #104, #210, #32, .T. ) ;
#36 = DIRECTION ( 'NONE',  ( 0.000000000000000000, 0.000000000000000000, -1.000000000000000000 ) ) ;
#37 = ORIENTED_EDGE ( 'NONE', *, *, #345, .T. ) ;
#38 =( CONVERSION_BASED_UNIT ( 'INCH', #324 ) LENGTH_UNIT ( ) NAMED_UNIT ( #328 ) );
#39 = DIRECTION ( 'NONE',  ( 0.000000000000000000, 0.000000000000000000, -1.000000000000000000 ) ) ;
#40 = ORIENTED_EDGE ( 'NONE', *, *, #75, .T. ) ;
#41 = APPLICATION_PROTOCOL_DEFINITION ( 'draft international standard', 'automotive_design', 1998, #21 ) ;
#42 = DIRECTION ( 'NONE',  ( -1.246502398102879949E-16, 1.000000000000000000, -0.000000000000000000 ) ) ;
#43 = ADVANCED_FACE ( 'NONE', ( #212 ), #202, .T. ) ;
#44 = SURFACE_SIDE_STYLE ('',( #300 ) ) ;
#45 =( GEOMETRIC_REPRESENTATION_CONTEXT ( 3 ) GLOBAL_UNCERTAINTY_ASSIGNED_CONTEXT ( ( #278 ) ) GLOBAL_UNIT_ASSIGNED_CONTEXT ( ( #326, #1, #297 ) ) REPRESENTATION_CONTEXT ( 'NONE', 'WORKASPACE' ) );
#46 = DIRECTION ( 'NONE',  ( -1.000000000000000000, 0.000000000000000000, 0.000000000000000000 ) ) ;
#47 = AXIS2_PLACEMENT_3D ( 'NONE', #69, #67, #269 ) ;
#48 = FILL_AREA_STYLE_COLOUR ( '', #240 ) ;
#49 = EDGE_CURVE ( 'NONE', #150, #268, #228, .T. ) ;
#50 = SURFACE_STYLE_USAGE ( .BOTH. , #302 ) ;
#51 =( GEOMETRIC_REPRESENTATION_CONTEXT ( 3 ) GLOBAL_UNCERTAINTY_ASSIGNED_CONTEXT ( ( #309 ) ) GLOBAL_UNIT_ASSIGNED_CONTEXT ( ( #219, #186, #335 ) ) REPRESENTATION_CONTEXT ( 'NONE', 'WORKASPACE' ) );
#52 = UNCERTAINTY_MEASURE_WITH_UNIT (LENGTH_MEASURE( 1.000000000000000082E-05 ), #176, 'distance_accuracy_value', 'NONE');
#53 = MECHANICAL_DESIGN_GEOMETRIC_PRESENTATION_REPRESENTATION (  '', ( #96 ), #116 ) ;
#54 = SURFACE_STYLE_USAGE ( .BOTH. , #333 ) ;
#55 = FILL_AREA_STYLE ('',( #117 ) ) ;
#56 = EDGE_CURVE ( 'NONE', #175, #203, #293, .T. ) ;
#57 = CARTESIAN_POINT ( 'NONE',  ( 0.000000000000000000, 0.7500000000000001110, 0.000000000000000000 ) ) ;
#58 = PRESENTATION_LAYER_ASSIGNMENT (  '', '', ( #169 ) ) ;
#59 = CARTESIAN_POINT ( 'NONE',  ( 0.000000000000000000, 0.000000000000000000, -0.1874999999999999445 ) ) ;
#60 = VERTEX_POINT ( 'NONE', #236 ) ;
#61 = EDGE_CURVE ( 'NONE', #153, #104, #242, .T. ) ;
#62 =( LENGTH_UNIT ( ) NAMED_UNIT ( * ) SI_UNIT ( $, .METRE. ) );
#63 = CARTESIAN_POINT ( 'NONE',  ( 0.000000000000000000, 0.1875000000000000555, 0.000000000000000000 ) ) ;
#64 = UNCERTAINTY_MEASURE_WITH_UNIT (LENGTH_MEASURE( 1.000000000000000082E-05 ), #72, 'distance_accuracy_value', 'NONE');
#65 = ORIENTED_EDGE ( 'NONE', *, *, #90, .F. ) ;
#66 = MECHANICAL_DESIGN_GEOMETRIC_PRESENTATION_REPRESENTATION (  '', ( #258 ), #45 ) ;
#67 = DIRECTION ( 'NONE',  ( 0.000000000000000000, 0.000000000000000000, 1.000000000000000000 ) ) ;
#68 = ORIENTED_EDGE ( 'NONE', *, *, #171, .F. ) ;
#69 = CARTESIAN_POINT ( 'NONE',  ( -2.296212748401287726E-17, 0.1875000000000000278, 0.000000000000000000 ) ) ;
#70 = PRODUCT_DEFINITION_SHAPE ( 'NONE', 'NONE',  #109 ) ;
#71 = FILL_AREA_STYLE_COLOUR ( '', #143 ) ;
#72 =( CONVERSION_BASED_UNIT ( 'INCH', #112 ) LENGTH_UNIT ( ) NAMED_UNIT ( #181 ) );
#73 = ORIENTED_EDGE ( 'NONE', *, *, #75, .F. ) ;
#74 = AXIS2_PLACEMENT_3D ( 'NONE', #94, #36, #322 ) ;
#75 = EDGE_CURVE ( 'NONE', #203, #175, #366, .T. ) ;
#76 = APPLICATION_CONTEXT ( 'automotive_design' ) ;
#77 = AXIS2_PLACEMENT_3D ( 'NONE', #114, #29, #148 ) ;
#78 = AXIS2_PLACEMENT_3D ( 'NONE', #225, #277, #46 ) ;
#79 = FILL_AREA_STYLE ('',( #234 ) ) ;
#80 = FILL_AREA_STYLE ('',( #338 ) ) ;
#81 = UNCERTAINTY_MEASURE_WITH_UNIT (LENGTH_MEASURE( 1.000000000000000082E-05 ), #38, 'distance_accuracy_value', 'NONE');
#82 = CARTESIAN_POINT ( 'NONE',  ( 2.296212748401286493E-17, 0.000000000000000000, 0.1874999999999999445 ) ) ;
#83 = AXIS2_PLACEMENT_3D ( 'NONE', #63, #294, #349 ) ;
#84 = EDGE_CURVE ( 'NONE', #60, #150, #337, .T. ) ;
#85 =( NAMED_UNIT ( * ) SI_UNIT ( $, .STERADIAN. ) SOLID_ANGLE_UNIT ( ) );
#86 = FILL_AREA_STYLE ('',( #145 ) ) ;
#87 = PRESENTATION_LAYER_ASSIGNMENT (  '', '', ( #222 ) ) ;
#88 = AXIS2_PLACEMENT_3D ( 'NONE', #152, #201, #154 ) ;
#89 = CARTESIAN_POINT ( 'NONE',  ( 0.000000000000000000, 0.000000000000000000, 0.000000000000000000 ) ) ;
#90 = EDGE_CURVE ( 'NONE', #60, #213, #178, .T. ) ;
#91 = ORIENTED_EDGE ( 'NONE', *, *, #251, .F. ) ;
#92 = SURFACE_STYLE_USAGE ( .BOTH. , #351 ) ;
#93 = CARTESIAN_POINT ( 'NONE',  ( 6.123233995736772199E-17, 2.500000000000000000, 0.000000000000000000 ) ) ;
#94 = CARTESIAN_POINT ( 'NONE',  ( -2.296212748401287726E-17, 0.1875000000000000278, 0.000000000000000000 ) ) ;
#95 = ORIENTED_EDGE ( 'NONE', *, *, #84, .F. ) ;
#96 = STYLED_ITEM ( 'NONE', ( #164 ), #265 ) ;
#97 = CIRCLE ( 'NONE', #208, 0.1874999999999999722 ) ;
#98 = ADVANCED_FACE ( 'NONE', ( #8 ), #299, .T. ) ;
#99 = AXIS2_PLACEMENT_3D ( 'NONE', #224, #195, #216 ) ;
#100 = CARTESIAN_POINT ( 'NONE',  ( 0.000000000000000000, 0.000000000000000000, 0.000000000000000000 ) ) ;
#101 = CARTESIAN_POINT ( 'NONE',  ( 0.000000000000000000, 0.7500000000000001110, -0.1874999999999999167 ) ) ;
#102 = ORIENTED_EDGE ( 'NONE', *, *, #56, .T. ) ;
#103 = CARTESIAN_POINT ( 'NONE',  ( 0.1874999999999999167, 2.500000000000000000, 2.296212748401285260E-17 ) ) ;
#104 = VERTEX_POINT ( 'NONE', #101 ) ;
#105 =( LENGTH_UNIT ( ) NAMED_UNIT ( * ) SI_UNIT ( $, .METRE. ) );
#106 = DIRECTION ( 'NONE',  ( 1.000000000000000000, 0.000000000000000000, -1.224646799147353207E-16 ) ) ;
#107 = PRODUCT_CONTEXT ( 'NONE', #21, 'mechanical' ) ;
#108 = STYLED_ITEM ( 'NONE', ( #306 ), #17 ) ;
#109 = PRODUCT_DEFINITION ( 'UNKNOWN', '', #263, #359 ) ;
#110 =( LENGTH_UNIT ( ) NAMED_UNIT ( * ) SI_UNIT ( $, .METRE. ) );
#111 = AXIS2_PLACEMENT_3D ( 'NONE', #329, #180, #174 ) ;
#112 = LENGTH_MEASURE_WITH_UNIT ( LENGTH_MEASURE( 0.02539999999999999897 ), #20 );
#113 = DIRECTION ( 'NONE',  ( -1.246502398102879949E-16, 1.000000000000000000, -0.000000000000000000 ) ) ;
#114 = CARTESIAN_POINT ( 'NONE',  ( 0.1874999999999999167, 2.500000000000000000, 0.000000000000000000 ) ) ;
#115 = VECTOR ( 'NONE', #318, 39.37007874015748143 ) ;
#116 =( GEOMETRIC_REPRESENTATION_CONTEXT ( 3 ) GLOBAL_UNCERTAINTY_ASSIGNED_CONTEXT ( ( #52 ) ) GLOBAL_UNIT_ASSIGNED_CONTEXT ( ( #176, #315, #199 ) ) REPRESENTATION_CONTEXT ( 'NONE', 'WORKASPACE' ) );
#117 = FILL_AREA_STYLE_COLOUR ( '', #12 ) ;
#118 = AXIS2_PLACEMENT_3D ( 'NONE', #320, #149, #267 ) ;
#119 = EDGE_LOOP ( 'NONE', ( #68, #5 ) ) ;
#120 = VERTEX_POINT ( 'NONE', #30 ) ;
#121 = SURFACE_STYLE_FILL_AREA ( #86 ) ;
#122 = ORIENTED_EDGE ( 'NONE', *, *, #273, .F. ) ;
#123 = SURFACE_STYLE_USAGE ( .BOTH. , #271 ) ;
#124 = ORIENTED_EDGE ( 'NONE', *, *, #49, .F. ) ;
#125 = COLOUR_RGB ( '',1.000000000000000000, 0.000000000000000000, 0.000000000000000000 ) ;
#126 =( GEOMETRIC_REPRESENTATION_CONTEXT ( 3 ) GLOBAL_UNCERTAINTY_ASSIGNED_CONTEXT ( ( #155 ) ) GLOBAL_UNIT_ASSIGNED_CONTEXT ( ( #252, #364, #188 ) ) REPRESENTATION_CONTEXT ( 'NONE', 'WORKASPACE' ) );
#127 = DIMENSIONAL_EXPONENTS ( 1.000000000000000000, 0.000000000000000000, 0.000000000000000000, 0.000000000000000000, 0.000000000000000000, 0.000000000000000000, 0.000000000000000000 ) ;
#128 = CARTESIAN_POINT ( 'NONE',  ( -2.296212748401287726E-17, 0.1875000000000000278, 0.000000000000000000 ) ) ;
#129 = ORIENTED_EDGE ( 'NONE', *, *, #137, .T. ) ;
#130 = DIRECTION ( 'NONE',  ( -1.246502398102879949E-16, 1.000000000000000000, -0.000000000000000000 ) ) ;
#131 = SHAPE_DEFINITION_REPRESENTATION ( #70, #28 ) ;
#132 = ADVANCED_FACE ( 'NONE', ( #177 ), #272, .F. ) ;
#133 = DIRECTION ( 'NONE',  ( -1.000000000000000000, 0.000000000000000000, 0.000000000000000000 ) ) ;
#134 = AXIS2_PLACEMENT_3D ( 'NONE', #93, #346, #275 ) ;
#135 = PRODUCT ( '82461', '82461', '', ( #107 ) ) ;
#136 = SURFACE_SIDE_STYLE ('',( #339 ) ) ;
#137 = EDGE_CURVE ( 'NONE', #210, #60, #97, .T. ) ;
#138 = DIRECTION ( 'NONE',  ( -0.000000000000000000, -1.000000000000000000, -0.000000000000000000 ) ) ;
#139 = CLOSED_SHELL ( 'NONE', ( #98, #265, #24, #256, #363 ) ) ;
#140 = CARTESIAN_POINT ( 'NONE',  ( 0.000000000000000000, 0.7500000000000001110, 0.000000000000000000 ) ) ;
#141 = LENGTH_MEASURE_WITH_UNIT ( LENGTH_MEASURE( 0.02539999999999999897 ), #255 );
#142 =( GEOMETRIC_REPRESENTATION_CONTEXT ( 3 ) GLOBAL_UNCERTAINTY_ASSIGNED_CONTEXT ( ( #253 ) ) GLOBAL_UNIT_ASSIGNED_CONTEXT ( ( #292, #372, #85 ) ) REPRESENTATION_CONTEXT ( 'NONE', 'WORKASPACE' ) );
#143 = COLOUR_RGB ( '',0.7921568627450980005, 0.8196078431372548767, 0.9333333333333333481 ) ;
#144 = LINE ( 'NONE', #264, #286 ) ;
#145 = FILL_AREA_STYLE_COLOUR ( '', #200 ) ;
#146 = DIMENSIONAL_EXPONENTS ( 1.000000000000000000, 0.000000000000000000, 0.000000000000000000, 0.000000000000000000, 0.000000000000000000, 0.000000000000000000, 0.000000000000000000 ) ;
#147 = ORIENTED_EDGE ( 'NONE', *, *, #345, .F. ) ;
#148 = DIRECTION ( 'NONE',  ( 1.000000000000000000, 1.246502398102879949E-16, 0.000000000000000000 ) ) ;
#149 = DIRECTION ( 'NONE',  ( -1.246502398102879949E-16, 1.000000000000000000, 0.000000000000000000 ) ) ;
#150 = VERTEX_POINT ( 'NONE', #358 ) ;
#151 = DIRECTION ( 'NONE',  ( 0.000000000000000000, 0.000000000000000000, -1.000000000000000000 ) ) ;
#152 = CARTESIAN_POINT ( 'NONE',  ( 6.123233995736772199E-17, 2.500000000000000000, 0.000000000000000000 ) ) ;
#153 = VERTEX_POINT ( 'NONE', #367 ) ;
#154 = DIRECTION ( 'NONE',  ( -1.000000000000000000, 0.000000000000000000, 0.000000000000000000 ) ) ;
#155 = UNCERTAINTY_MEASURE_WITH_UNIT (LENGTH_MEASURE( 1.000000000000000082E-05 ), #252, 'distance_accuracy_value', 'NONE');
#156 = ORIENTED_EDGE ( 'NONE', *, *, #171, .T. ) ;
#157 = AXIS2_PLACEMENT_3D ( 'NONE', #57, #167, #192 ) ;
#158 = CARTESIAN_POINT ( 'NONE',  ( -0.1874999999999997780, 2.500000000000000000, 0.000000000000000000 ) ) ;
#159 = EDGE_CURVE ( 'NONE', #120, #298, #307, .T. ) ;
#160 = COLOUR_RGB ( '',1.000000000000000000, 0.000000000000000000, 0.000000000000000000 ) ;
#161 = MECHANICAL_DESIGN_GEOMETRIC_PRESENTATION_REPRESENTATION (  '', ( #222 ), #142 ) ;
#162 = EDGE_CURVE ( 'NONE', #120, #175, #16, .T. ) ;
#163 = DIRECTION ( 'NONE',  ( 0.000000000000000000, 0.000000000000000000, -1.000000000000000000 ) ) ;
#164 = PRESENTATION_STYLE_ASSIGNMENT (( #50 ) ) ;
#165 = CARTESIAN_POINT ( 'NONE',  ( 6.123233995736772199E-17, 2.500000000000000000, 0.000000000000000000 ) ) ;
#166 = DIRECTION ( 'NONE',  ( -0.000000000000000000, -1.000000000000000000, -0.000000000000000000 ) ) ;
#167 = DIRECTION ( 'NONE',  ( 0.000000000000000000, 1.000000000000000000, 0.000000000000000000 ) ) ;
#168 = DIRECTION ( 'NONE',  ( 0.000000000000000000, 0.000000000000000000, -1.000000000000000000 ) ) ;
#169 = STYLED_ITEM ( 'NONE', ( #204 ), #363 ) ;
#170 = VECTOR ( 'NONE', #113, 39.37007874015748143 ) ;
#171 = EDGE_CURVE ( 'NONE', #298, #120, #13, .T. ) ;
#172 = FACE_OUTER_BOUND ( 'NONE', #290, .T. ) ;
#173 = CARTESIAN_POINT ( 'NONE',  ( 0.000000000000000000, 0.1875000000000000555, 0.000000000000000000 ) ) ;
#174 = DIRECTION ( 'NONE',  ( 0.000000000000000000, 0.000000000000000000, -1.000000000000000000 ) ) ;
#175 = VERTEX_POINT ( 'NONE', #103 ) ;
#176 =( CONVERSION_BASED_UNIT ( 'INCH', #141 ) LENGTH_UNIT ( ) NAMED_UNIT ( #295 ) );
#177 = FACE_OUTER_BOUND ( 'NONE', #119, .T. ) ;
#178 = CIRCLE ( 'NONE', #74, 0.1875000000000000278 ) ;
#179 = SPHERICAL_SURFACE ( 'NONE', #47, 0.1875000000000000278 ) ;
#180 = DIRECTION ( 'NONE',  ( -0.000000000000000000, -1.000000000000000000, -0.000000000000000000 ) ) ;
#181 = DIMENSIONAL_EXPONENTS ( 1.000000000000000000, 0.000000000000000000, 0.000000000000000000, 0.000000000000000000, 0.000000000000000000, 0.000000000000000000, 0.000000000000000000 ) ;
#182 = ORIENTED_EDGE ( 'NONE', *, *, #35, .F. ) ;
#183 = FILL_AREA_STYLE ('',( #71 ) ) ;
#184 = DIMENSIONAL_EXPONENTS ( 1.000000000000000000, 0.000000000000000000, 0.000000000000000000, 0.000000000000000000, 0.000000000000000000, 0.000000000000000000, 0.000000000000000000 ) ;
#185 = FACE_OUTER_BOUND ( 'NONE', #31, .T. ) ;
#186 =( NAMED_UNIT ( * ) PLANE_ANGLE_UNIT ( ) SI_UNIT ( $, .RADIAN. ) );
#187 = PRESENTATION_STYLE_ASSIGNMENT (( #54 ) ) ;
#188 =( NAMED_UNIT ( * ) SI_UNIT ( $, .STERADIAN. ) SOLID_ANGLE_UNIT ( ) );
#189 = AXIS2_PLACEMENT_3D ( 'NONE', #231, #166, #370 ) ;
#190 = PRESENTATION_LAYER_ASSIGNMENT (  '', '', ( #258 ) ) ;
#191 = DIRECTION ( 'NONE',  ( -1.246502398102879949E-16, 1.000000000000000000, -0.000000000000000000 ) ) ;
#192 = DIRECTION ( 'NONE',  ( 0.000000000000000000, -0.000000000000000000, 1.000000000000000000 ) ) ;
#193 = VECTOR ( 'NONE', #138, 39.37007874015748143 ) ;
#194 = AXIS2_PLACEMENT_3D ( 'NONE', #165, #130, #133 ) ;
#195 = DIRECTION ( 'NONE',  ( -0.000000000000000000, -1.000000000000000000, -0.000000000000000000 ) ) ;
#196 = UNCERTAINTY_MEASURE_WITH_UNIT (LENGTH_MEASURE( 1.000000000000000082E-05 ), #217, 'distance_accuracy_value', 'NONE');
#197 = CARTESIAN_POINT ( 'NONE',  ( 0.1874999999999998057, 2.500000000000000000, 2.296212748401284336E-17 ) ) ;
#198 = PRODUCT_RELATED_PRODUCT_CATEGORY ( 'part', '', ( #135 ) ) ;
#199 =( NAMED_UNIT ( * ) SI_UNIT ( $, .STERADIAN. ) SOLID_ANGLE_UNIT ( ) );
#200 = COLOUR_RGB ( '',1.000000000000000000, 0.000000000000000000, 0.000000000000000000 ) ;
#201 = DIRECTION ( 'NONE',  ( -1.246502398102879949E-16, 1.000000000000000000, -0.000000000000000000 ) ) ;
#202 = CYLINDRICAL_SURFACE ( 'NONE', #134, 0.1874999999999997502 ) ;
#203 = VERTEX_POINT ( 'NONE', #158 ) ;
#204 = PRESENTATION_STYLE_ASSIGNMENT (( #92 ) ) ;
#205 = DIRECTION ( 'NONE',  ( -0.000000000000000000, -1.000000000000000000, -0.000000000000000000 ) ) ;
#206 = ORIENTED_EDGE ( 'NONE', *, *, #35, .T. ) ;
#207 = CARTESIAN_POINT ( 'NONE',  ( 6.123233995736772199E-17, 2.500000000000000000, 0.000000000000000000 ) ) ;
#208 = AXIS2_PLACEMENT_3D ( 'NONE', #4, #205, #163 ) ;
#209 = AXIS2_PLACEMENT_3D ( 'NONE', #89, #343, #168 ) ;
#210 = VERTEX_POINT ( 'NONE', #305 ) ;
#211 = DIRECTION ( 'NONE',  ( 0.000000000000000000, 0.000000000000000000, 1.000000000000000000 ) ) ;
#212 = FACE_OUTER_BOUND ( 'NONE', #7, .T. ) ;
#213 = VERTEX_POINT ( 'NONE', #227 ) ;
#214 =( NAMED_UNIT ( * ) PLANE_ANGLE_UNIT ( ) SI_UNIT ( $, .RADIAN. ) );
#215 = ORIENTED_EDGE ( 'NONE', *, *, #251, .T. ) ;
#216 = DIRECTION ( 'NONE',  ( 0.000000000000000000, 0.000000000000000000, -1.000000000000000000 ) ) ;
#217 =( CONVERSION_BASED_UNIT ( 'INCH', #220 ) LENGTH_UNIT ( ) NAMED_UNIT ( #127 ) );
#218 = AXIS2_PLACEMENT_3D ( 'NONE', #140, #34, #151 ) ;
#219 =( CONVERSION_BASED_UNIT ( 'INCH', #332 ) LENGTH_UNIT ( ) NAMED_UNIT ( #260 ) );
#220 = LENGTH_MEASURE_WITH_UNIT ( LENGTH_MEASURE( 0.02539999999999999897 ), #110 );
#221 = ADVANCED_FACE ( 'NONE', ( #185 ), #368, .T. ) ;
#222 = STYLED_ITEM ( 'NONE', ( #257 ), #270 ) ;
#223 = AXIS2_PLACEMENT_3D ( 'NONE', #356, #191, #284 ) ;
#224 = CARTESIAN_POINT ( 'NONE',  ( 0.000000000000000000, 0.000000000000000000, 0.000000000000000000 ) ) ;
#225 = CARTESIAN_POINT ( 'NONE',  ( 2.793702596253717253E-16, 0.7499999999999998890, 0.000000000000000000 ) ) ;
#226 = EDGE_CURVE ( 'NONE', #153, #150, #341, .T. ) ;
#227 = CARTESIAN_POINT ( 'NONE',  ( -1.148106374200643863E-17, 0.000000000000000000, 0.000000000000000000 ) ) ;
#228 = CIRCLE ( 'NONE', #83, 0.1874999999999999722 ) ;
#229 = DIMENSIONAL_EXPONENTS ( 1.000000000000000000, 0.000000000000000000, 0.000000000000000000, 0.000000000000000000, 0.000000000000000000, 0.000000000000000000, 0.000000000000000000 ) ;
#230 =( NAMED_UNIT ( * ) SI_UNIT ( $, .STERADIAN. ) SOLID_ANGLE_UNIT ( ) );
#231 = CARTESIAN_POINT ( 'NONE',  ( 0.000000000000000000, 0.1875000000000000555, 0.000000000000000000 ) ) ;
#232 = MECHANICAL_DESIGN_GEOMETRIC_PRESENTATION_REPRESENTATION (  '', ( #169 ), #304 ) ;
#233 = DIRECTION ( 'NONE',  ( 1.000000000000000000, 0.000000000000000000, 0.000000000000000000 ) ) ;
#234 = FILL_AREA_STYLE_COLOUR ( '', #160 ) ;
#235 = SURFACE_STYLE_FILL_AREA ( #3 ) ;
#236 = CARTESIAN_POINT ( 'NONE',  ( 0.1874999999999999722, 0.1875000000000000555, 0.000000000000000000 ) ) ;
#237 = ORIENTED_EDGE ( 'NONE', *, *, #90, .T. ) ;
#238 = LENGTH_MEASURE_WITH_UNIT ( LENGTH_MEASURE( 0.02539999999999999897 ), #352 );
#239 = ORIENTED_EDGE ( 'NONE', *, *, #61, .F. ) ;
#240 = COLOUR_RGB ( '',1.000000000000000000, 0.000000000000000000, 0.000000000000000000 ) ;
#241 = PRESENTATION_STYLE_ASSIGNMENT (( #123 ) ) ;
#242 = CIRCLE ( 'NONE', #111, 0.1874999999999999167 ) ;
#243 = ORIENTED_EDGE ( 'NONE', *, *, #49, .T. ) ;
#244 = FACE_OUTER_BOUND ( 'NONE', #296, .T. ) ;
#245 = EDGE_LOOP ( 'NONE', ( #91, #33, #129, #237 ) ) ;
#246 = SURFACE_STYLE_FILL_AREA ( #312 ) ;
#247 = LENGTH_MEASURE_WITH_UNIT ( LENGTH_MEASURE( 0.02539999999999999897 ), #280 );
#248 = SURFACE_STYLE_USAGE ( .BOTH. , #136 ) ;
#249 =( GEOMETRIC_REPRESENTATION_CONTEXT ( 3 ) GLOBAL_UNCERTAINTY_ASSIGNED_CONTEXT ( ( #196 ) ) GLOBAL_UNIT_ASSIGNED_CONTEXT ( ( #217, #314, #230 ) ) REPRESENTATION_CONTEXT ( 'NONE', 'WORKASPACE' ) );
#250 = MECHANICAL_DESIGN_GEOMETRIC_PRESENTATION_REPRESENTATION (  '', ( #325 ), #365 ) ;
#251 = EDGE_CURVE ( 'NONE', #268, #213, #361, .T. ) ;
#252 =( CONVERSION_BASED_UNIT ( 'INCH', #247 ) LENGTH_UNIT ( ) NAMED_UNIT ( #184 ) );
#253 = UNCERTAINTY_MEASURE_WITH_UNIT (LENGTH_MEASURE( 1.000000000000000082E-05 ), #292, 'distance_accuracy_value', 'NONE');
#254 = PRESENTATION_LAYER_ASSIGNMENT (  '', '', ( #96 ) ) ;
#255 =( LENGTH_UNIT ( ) NAMED_UNIT ( * ) SI_UNIT ( $, .METRE. ) );
#256 = ADVANCED_FACE ( 'NONE', ( #340 ), #23, .T. ) ;
#257 = PRESENTATION_STYLE_ASSIGNMENT (( #27 ) ) ;
#258 = STYLED_ITEM ( 'NONE', ( #241 ), #98 ) ;
#259 = PRESENTATION_LAYER_ASSIGNMENT (  '', '', ( #325 ) ) ;
#260 = DIMENSIONAL_EXPONENTS ( 1.000000000000000000, 0.000000000000000000, 0.000000000000000000, 0.000000000000000000, 0.000000000000000000, 0.000000000000000000, 0.000000000000000000 ) ;
#261 = FACE_OUTER_BOUND ( 'NONE', #245, .T. ) ;
#262 = ORIENTED_EDGE ( 'NONE', *, *, #137, .F. ) ;
#263 = PRODUCT_DEFINITION_FORMATION_WITH_SPECIFIED_SOURCE ( 'ANY', '', #135, .NOT_KNOWN. ) ;
#264 = CARTESIAN_POINT ( 'NONE',  ( -0.1874999999999996669, 2.500000000000000000, 0.000000000000000000 ) ) ;
#265 = ADVANCED_FACE ( 'NONE', ( #244 ), #310, .T. ) ;
#266 = CLOSED_SHELL ( 'NONE', ( #221, #132, #43, #336 ) ) ;
#267 = DIRECTION ( 'NONE',  ( -1.000000000000000000, -1.246502398102879949E-16, 0.000000000000000000 ) ) ;
#268 = VERTEX_POINT ( 'NONE', #285 ) ;
#269 = DIRECTION ( 'NONE',  ( 1.000000000000000000, 0.000000000000000000, 0.000000000000000000 ) ) ;
#270 = MANIFOLD_SOLID_BREP ( 'Revolve - Cutting Edge', #139 ) ;
#271 = SURFACE_SIDE_STYLE ('',( #121 ) ) ;
#272 = PLANE ( 'NONE',  #118 ) ;
#273 = EDGE_CURVE ( 'NONE', #268, #210, #301, .T. ) ;
#274 = EDGE_LOOP ( 'NONE', ( #330, #2, #206, #122, #124 ) ) ;
#275 = DIRECTION ( 'NONE',  ( -1.000000000000000000, 0.000000000000000000, 0.000000000000000000 ) ) ;
#276 = ORIENTED_EDGE ( 'NONE', *, *, #371, .T. ) ;
#277 = DIRECTION ( 'NONE',  ( -1.246502398102879949E-16, 1.000000000000000000, -0.000000000000000000 ) ) ;
#278 = UNCERTAINTY_MEASURE_WITH_UNIT (LENGTH_MEASURE( 1.000000000000000082E-05 ), #326, 'distance_accuracy_value', 'NONE');
#279 =( NAMED_UNIT ( * ) PLANE_ANGLE_UNIT ( ) SI_UNIT ( $, .RADIAN. ) );
#280 =( LENGTH_UNIT ( ) NAMED_UNIT ( * ) SI_UNIT ( $, .METRE. ) );
#281 = PLANE ( 'NONE',  #157 ) ;
#282 = DIRECTION ( 'NONE',  ( 1.224646799147353207E-16, -0.000000000000000000, 1.000000000000000000 ) ) ;
#283 = MECHANICAL_DESIGN_GEOMETRIC_PRESENTATION_REPRESENTATION (  '', ( #303 ), #249 ) ;
#284 = DIRECTION ( 'NONE',  ( -1.000000000000000000, 0.000000000000000000, 0.000000000000000000 ) ) ;
#285 = CARTESIAN_POINT ( 'NONE',  ( -0.1875000000000000278, 0.1875000000000000555, 2.296212748401287109E-17 ) ) ;
#286 = VECTOR ( 'NONE', #347, 39.37007874015748143 ) ;
#287 = LENGTH_MEASURE_WITH_UNIT ( LENGTH_MEASURE( 0.02539999999999999897 ), #62 );
#288 = PLANE ( 'NONE',  #77 ) ;
#289 = DIRECTION ( 'NONE',  ( 0.000000000000000000, 0.000000000000000000, 1.000000000000000000 ) ) ;
#290 = EDGE_LOOP ( 'NONE', ( #40, #102 ) ) ;
#291 = ORIENTED_EDGE ( 'NONE', *, *, #162, .F. ) ;
#292 =( CONVERSION_BASED_UNIT ( 'INCH', #287 ) LENGTH_UNIT ( ) NAMED_UNIT ( #229 ) );
#293 = CIRCLE ( 'NONE', #88, 0.1874999999999998335 ) ;
#294 = DIRECTION ( 'NONE',  ( -0.000000000000000000, -1.000000000000000000, -0.000000000000000000 ) ) ;
#295 = DIMENSIONAL_EXPONENTS ( 1.000000000000000000, 0.000000000000000000, 0.000000000000000000, 0.000000000000000000, 0.000000000000000000, 0.000000000000000000, 0.000000000000000000 ) ;
#296 = EDGE_LOOP ( 'NONE', ( #276, #9, #95, #262, #182 ) ) ;
#297 =( NAMED_UNIT ( * ) SI_UNIT ( $, .STERADIAN. ) SOLID_ANGLE_UNIT ( ) );
#298 = VERTEX_POINT ( 'NONE', #344 ) ;
#299 = SPHERICAL_SURFACE ( 'NONE', #369, 0.1875000000000000278 ) ;
#300 = SURFACE_STYLE_FILL_AREA ( #183 ) ;
#301 = CIRCLE ( 'NONE', #189, 0.1874999999999999722 ) ;
#302 = SURFACE_SIDE_STYLE ('',( #331 ) ) ;
#303 = STYLED_ITEM ( 'NONE', ( #362 ), #24 ) ;
#304 =( GEOMETRIC_REPRESENTATION_CONTEXT ( 3 ) GLOBAL_UNCERTAINTY_ASSIGNED_CONTEXT ( ( #81 ) ) GLOBAL_UNIT_ASSIGNED_CONTEXT ( ( #38, #214, #18 ) ) REPRESENTATION_CONTEXT ( 'NONE', 'WORKASPACE' ) );
#305 = CARTESIAN_POINT ( 'NONE',  ( 0.000000000000000000, 0.1875000000000000555, -0.1874999999999999722 ) ) ;
#306 = PRESENTATION_STYLE_ASSIGNMENT (( #350 ) ) ;
#307 = CIRCLE ( 'NONE', #78, 0.1874999999999996392 ) ;
#308 = CARTESIAN_POINT ( 'NONE',  ( -2.296212748401287726E-17, 0.1875000000000000278, 0.000000000000000000 ) ) ;
#309 = UNCERTAINTY_MEASURE_WITH_UNIT (LENGTH_MEASURE( 1.000000000000000082E-05 ), #219, 'distance_accuracy_value', 'NONE');
#310 = CYLINDRICAL_SURFACE ( 'NONE', #209, 0.1874999999999999445 ) ;
#311 = MECHANICAL_DESIGN_GEOMETRIC_PRESENTATION_REPRESENTATION (  '', ( #108 ), #126 ) ;
#312 = FILL_AREA_STYLE ('',( #48 ) ) ;
#313 =( LENGTH_UNIT ( ) NAMED_UNIT ( * ) SI_UNIT ( $, .METRE. ) );
#314 =( NAMED_UNIT ( * ) PLANE_ANGLE_UNIT ( ) SI_UNIT ( $, .RADIAN. ) );
#315 =( NAMED_UNIT ( * ) PLANE_ANGLE_UNIT ( ) SI_UNIT ( $, .RADIAN. ) );
#316 = SURFACE_STYLE_FILL_AREA ( #55 ) ;
#317 = AXIS2_PLACEMENT_3D ( 'NONE', #207, #42, #354 ) ;
#318 = DIRECTION ( 'NONE',  ( -0.000000000000000000, -1.000000000000000000, -0.000000000000000000 ) ) ;
#319 = SURFACE_SIDE_STYLE ('',( #316 ) ) ;
#320 = CARTESIAN_POINT ( 'NONE',  ( 2.793702596253717253E-16, 0.7500000000000001110, 0.000000000000000000 ) ) ;
#321 = EDGE_LOOP ( 'NONE', ( #243, #215, #65, #323 ) ) ;
#322 = DIRECTION ( 'NONE',  ( -1.000000000000000000, 0.000000000000000000, 0.000000000000000000 ) ) ;
#323 = ORIENTED_EDGE ( 'NONE', *, *, #84, .T. ) ;
#324 = LENGTH_MEASURE_WITH_UNIT ( LENGTH_MEASURE( 0.02539999999999999897 ), #313 );
#325 = STYLED_ITEM ( 'NONE', ( #187 ), #256 ) ;
#326 =( CONVERSION_BASED_UNIT ( 'INCH', #238 ) LENGTH_UNIT ( ) NAMED_UNIT ( #146 ) );
#327 = EDGE_LOOP ( 'NONE', ( #353, #239 ) ) ;
#328 = DIMENSIONAL_EXPONENTS ( 1.000000000000000000, 0.000000000000000000, 0.000000000000000000, 0.000000000000000000, 0.000000000000000000, 0.000000000000000000, 0.000000000000000000 ) ;
#329 = CARTESIAN_POINT ( 'NONE',  ( 0.000000000000000000, 0.7500000000000001110, 0.000000000000000000 ) ) ;
#330 = ORIENTED_EDGE ( 'NONE', *, *, #226, .F. ) ;
#331 = SURFACE_STYLE_FILL_AREA ( #80 ) ;
#332 = LENGTH_MEASURE_WITH_UNIT ( LENGTH_MEASURE( 0.02539999999999999897 ), #105 );
#333 = SURFACE_SIDE_STYLE ('',( #246 ) ) ;
#334 = CIRCLE ( 'NONE', #218, 0.1874999999999999167 ) ;
#335 =( NAMED_UNIT ( * ) SI_UNIT ( $, .STERADIAN. ) SOLID_ANGLE_UNIT ( ) );
#336 = ADVANCED_FACE ( 'NONE', ( #172 ), #288, .F. ) ;
#337 = CIRCLE ( 'NONE', #348, 0.1874999999999999722 ) ;
#338 = FILL_AREA_STYLE_COLOUR ( '', #22 ) ;
#339 = SURFACE_STYLE_FILL_AREA ( #79 ) ;
#340 = FACE_OUTER_BOUND ( 'NONE', #274, .T. ) ;
#341 = LINE ( 'NONE', #82, #193 ) ;
#342 = PRESENTATION_LAYER_ASSIGNMENT (  '', '', ( #303 ) ) ;
#343 = DIRECTION ( 'NONE',  ( -0.000000000000000000, -1.000000000000000000, -0.000000000000000000 ) ) ;
#344 = CARTESIAN_POINT ( 'NONE',  ( -0.1874999999999993616, 0.7499999999999998890, 0.000000000000000000 ) ) ;
#345 = EDGE_CURVE ( 'NONE', #298, #203, #144, .T. ) ;
#346 = DIRECTION ( 'NONE',  ( -1.246502398102879949E-16, 1.000000000000000000, -0.000000000000000000 ) ) ;
#347 = DIRECTION ( 'NONE',  ( -1.246502398102879949E-16, 1.000000000000000000, -0.000000000000000000 ) ) ;
#348 = AXIS2_PLACEMENT_3D ( 'NONE', #173, #14, #39 ) ;
#349 = DIRECTION ( 'NONE',  ( 0.000000000000000000, 0.000000000000000000, -1.000000000000000000 ) ) ;
#350 = SURFACE_STYLE_USAGE ( .BOTH. , #44 ) ;
#351 = SURFACE_SIDE_STYLE ('',( #235 ) ) ;
#352 =( LENGTH_UNIT ( ) NAMED_UNIT ( * ) SI_UNIT ( $, .METRE. ) );
#353 = ORIENTED_EDGE ( 'NONE', *, *, #371, .F. ) ;
#354 = DIRECTION ( 'NONE',  ( -1.000000000000000000, 0.000000000000000000, 0.000000000000000000 ) ) ;
#355 = ORIENTED_EDGE ( 'NONE', *, *, #56, .F. ) ;
#356 = CARTESIAN_POINT ( 'NONE',  ( 2.793702596253717253E-16, 0.7499999999999998890, 0.000000000000000000 ) ) ;
#357 = ORIENTED_EDGE ( 'NONE', *, *, #159, .T. ) ;
#358 = CARTESIAN_POINT ( 'NONE',  ( 2.296212748401286801E-17, 0.1875000000000000555, 0.1874999999999999722 ) ) ;
#359 = PRODUCT_DEFINITION_CONTEXT ( 'detailed design', #76, 'design' ) ;
#360 = FACE_OUTER_BOUND ( 'NONE', #327, .T. ) ;
#361 = CIRCLE ( 'NONE', #25, 0.1875000000000000278 ) ;
#362 = PRESENTATION_STYLE_ASSIGNMENT (( #248 ) ) ;
#363 = ADVANCED_FACE ( 'NONE', ( #261 ), #179, .T. ) ;
#364 =( NAMED_UNIT ( * ) PLANE_ANGLE_UNIT ( ) SI_UNIT ( $, .RADIAN. ) );
#365 =( GEOMETRIC_REPRESENTATION_CONTEXT ( 3 ) GLOBAL_UNCERTAINTY_ASSIGNED_CONTEXT ( ( #64 ) ) GLOBAL_UNIT_ASSIGNED_CONTEXT ( ( #72, #279, #19 ) ) REPRESENTATION_CONTEXT ( 'NONE', 'WORKASPACE' ) );
#366 = CIRCLE ( 'NONE', #317, 0.1874999999999998335 ) ;
#367 = CARTESIAN_POINT ( 'NONE',  ( 2.296212748401286493E-17, 0.7500000000000001110, 0.1874999999999999167 ) ) ;
#368 = CYLINDRICAL_SURFACE ( 'NONE', #194, 0.1874999999999997502 ) ;
#369 = AXIS2_PLACEMENT_3D ( 'NONE', #128, #289, #233 ) ;
#370 = DIRECTION ( 'NONE',  ( 0.000000000000000000, 0.000000000000000000, -1.000000000000000000 ) ) ;
#371 = EDGE_CURVE ( 'NONE', #104, #153, #334, .T. ) ;
#372 =( NAMED_UNIT ( * ) PLANE_ANGLE_UNIT ( ) SI_UNIT ( $, .RADIAN. ) );
#373 = FILL_AREA_STYLE_COLOUR ( '', #125 ) ;
ENDSEC;
END-ISO-10303-21;
