ISO-10303-21;
HEADER;
FILE_DESCRIPTION (( 'STEP AP214' ),
    '1' );
FILE_NAME ('Micro_GEM-250-2X.STEP',
    '2021-09-01T20:15:27',
    ( '' ),
    ( '' ),
    'SwSTEP 2.0',
    'SolidWorks 2020',
    '' );
FILE_SCHEMA (( 'AUTOMOTIVE_DESIGN' ));
ENDSEC;

DATA;
#1 = CIRCLE ( 'NONE', #169, 0.1248749999999999999 ) ;
#2 = DIRECTION ( 'NONE',  ( -1.000000000000000000, 0.0000000000000000000, 1.224646799147353454E-16 ) ) ;
#3 = FACE_OUTER_BOUND ( 'NONE', #142, .T. ) ;
#4 = DIRECTION ( 'NONE',  ( -0.0000000000000000000, -0.0000000000000000000, -1.000000000000000000 ) ) ;
#5 = CLOSED_SHELL ( 'NONE', ( #14, #298, #6, #171, #69, #189, #267, #180, #101, #251 ) ) ;
#6 = ADVANCED_FACE ( 'NONE', ( #7 ), #140, .T. ) ;
#7 = FACE_OUTER_BOUND ( 'NONE', #152, .T. ) ;
#8 = CARTESIAN_POINT ( 'NONE',  ( 0.0000000000000000000, 0.0000000000000000000, 2.500000000000000000 ) ) ;
#9 = CARTESIAN_POINT ( 'NONE',  ( -0.1250000000000000000, 0.0000000000000000000, 2.485000000000000320 ) ) ;
#10 = VECTOR ( 'NONE', #37, 39.37007874015748143 ) ;
#11 =( NAMED_UNIT ( * ) PLANE_ANGLE_UNIT ( ) SI_UNIT ( $, .RADIAN. ) );
#12 = CARTESIAN_POINT ( 'NONE',  ( 0.1248749999999999999, 1.529277690435257475E-17, 0.0000000000000000000 ) ) ;
#13 = DIRECTION ( 'NONE',  ( 1.000000000000000000, 0.0000000000000000000, 0.0000000000000000000 ) ) ;
#14 = ADVANCED_FACE ( 'NONE', ( #205 ), #136, .T. ) ;
#15 =( GEOMETRIC_REPRESENTATION_CONTEXT ( 3 ) GLOBAL_UNCERTAINTY_ASSIGNED_CONTEXT ( ( #225 ) ) GLOBAL_UNIT_ASSIGNED_CONTEXT ( ( #57, #11, #286 ) ) REPRESENTATION_CONTEXT ( 'NONE', 'WORKASPACE' ) );
#16 =( GEOMETRIC_REPRESENTATION_CONTEXT ( 3 ) GLOBAL_UNCERTAINTY_ASSIGNED_CONTEXT ( ( #154 ) ) GLOBAL_UNIT_ASSIGNED_CONTEXT ( ( #239, #219, #289 ) ) REPRESENTATION_CONTEXT ( 'NONE', 'WORKASPACE' ) );
#17 = SURFACE_STYLE_USAGE ( .BOTH. , #65 ) ;
#18 = VERTEX_POINT ( 'NONE', #248 ) ;
#19 = STYLED_ITEM ( 'NONE', ( #236 ), #206 ) ;
#20 = FACE_OUTER_BOUND ( 'NONE', #27, .T. ) ;
#21 = ORIENTED_EDGE ( 'NONE', *, *, #29, .T. ) ;
#22 = CARTESIAN_POINT ( 'NONE',  ( 0.0000000000000000000, 0.0000000000000000000, 2.500000000000000000 ) ) ;
#23 = ORIENTED_EDGE ( 'NONE', *, *, #211, .T. ) ;
#24 = VERTEX_POINT ( 'NONE', #276 ) ;
#25 = CONICAL_SURFACE ( 'NONE', #186, 0.1248749999999999999, 0.1745329251994339192 ) ;
#26 = SHAPE_DEFINITION_REPRESENTATION ( #281, #195 ) ;
#27 = EDGE_LOOP ( 'NONE', ( #183, #66, #220, #70 ) ) ;
#28 = CARTESIAN_POINT ( 'NONE',  ( 0.1248749999999999999, 1.529277690435257475E-17, -1.529277690435257475E-17 ) ) ;
#29 = EDGE_CURVE ( 'NONE', #24, #138, #173, .T. ) ;
#30 = DIMENSIONAL_EXPONENTS ( 1.000000000000000000, 0.0000000000000000000, 0.0000000000000000000, 0.0000000000000000000, 0.0000000000000000000, 0.0000000000000000000, 0.0000000000000000000 ) ;
#31 = ORIENTED_EDGE ( 'NONE', *, *, #185, .F. ) ;
#32 = AXIS2_PLACEMENT_3D ( 'NONE', #233, #232, #271 ) ;
#33 = DIRECTION ( 'NONE',  ( -1.000000000000000000, 0.0000000000000000000, 1.224646799147353454E-16 ) ) ;
#34 = LINE ( 'NONE', #56, #48 ) ;
#35 = DIRECTION ( 'NONE',  ( -1.000000000000000000, 0.0000000000000000000, 0.0000000000000000000 ) ) ;
#36 = AXIS2_PLACEMENT_3D ( 'NONE', #237, #222, #175 ) ;
#37 = DIRECTION ( 'NONE',  ( -0.7071067811865499042, 0.0000000000000000000, -0.7071067811865451302 ) ) ;
#38 = PRODUCT_DEFINITION_CONTEXT ( 'detailed design', #114, 'design' ) ;
#39 = DIRECTION ( 'NONE',  ( 1.224646799147353207E-16, 0.0000000000000000000, 1.000000000000000000 ) ) ;
#40 = EDGE_CURVE ( 'NONE', #53, #230, #163, .T. ) ;
#41 = CARTESIAN_POINT ( 'NONE',  ( 9.184850993605150903E-17, 0.0000000000000000000, 0.7500000000000001110 ) ) ;
#42 = CARTESIAN_POINT ( 'NONE',  ( -0.1249999999999999167, 0.0000000000000000000, 0.7507089102274522308 ) ) ;
#43 = CONICAL_SURFACE ( 'NONE', #125, 0.1248749999999999999, 0.1745329251994339192 ) ;
#44 = FACE_OUTER_BOUND ( 'NONE', #174, .T. ) ;
#45 = ORIENTED_EDGE ( 'NONE', *, *, #84, .F. ) ;
#46 = CARTESIAN_POINT ( 'NONE',  ( 0.1100000000000001948, 1.438959988998141146E-17, 2.500000000000000000 ) ) ;
#47 = ORIENTED_EDGE ( 'NONE', *, *, #277, .T. ) ;
#48 = VECTOR ( 'NONE', #59, 39.37007874015748143 ) ;
#49 = EDGE_LOOP ( 'NONE', ( #105, #223, #113, #45 ) ) ;
#50 = DIRECTION ( 'NONE',  ( -1.224646799147353207E-16, -0.0000000000000000000, -1.000000000000000000 ) ) ;
#51 = CARTESIAN_POINT ( 'NONE',  ( -0.1248749999999999166, 1.530043094684724646E-17, 0.7500000000000001110 ) ) ;
#52 = EDGE_CURVE ( 'NONE', #127, #293, #72, .T. ) ;
#53 = VERTEX_POINT ( 'NONE', #275 ) ;
#54 = CARTESIAN_POINT ( 'NONE',  ( 0.0000000000000000000, 0.0000000000000000000, 0.0000000000000000000 ) ) ;
#55 = DIRECTION ( 'NONE',  ( -1.000000000000000000, 0.0000000000000000000, 0.0000000000000000000 ) ) ;
#56 = CARTESIAN_POINT ( 'NONE',  ( 0.1250000000000000000, 1.530808498934191509E-17, 2.500000000000000000 ) ) ;
#57 =( CONVERSION_BASED_UNIT ( 'INCH', #120 ) LENGTH_UNIT ( ) NAMED_UNIT ( #141 ) );
#58 = AXIS2_PLACEMENT_3D ( 'NONE', #54, #92, #2 ) ;
#59 = DIRECTION ( 'NONE',  ( -0.0000000000000000000, -0.0000000000000000000, -1.000000000000000000 ) ) ;
#60 = DIRECTION ( 'NONE',  ( 1.000000000000000000, 0.0000000000000000000, -0.0000000000000000000 ) ) ;
#61 =( LENGTH_UNIT ( ) NAMED_UNIT ( * ) SI_UNIT ( $, .METRE. ) );
#62 = AXIS2_PLACEMENT_3D ( 'NONE', #73, #90, #179 ) ;
#63 = EDGE_LOOP ( 'NONE', ( #107, #21, #287, #31 ) ) ;
#64 =( NAMED_UNIT ( * ) SI_UNIT ( $, .STERADIAN. ) SOLID_ANGLE_UNIT ( ) );
#65 = SURFACE_SIDE_STYLE ('',( #67 ) ) ;
#66 = ORIENTED_EDGE ( 'NONE', *, *, #52, .T. ) ;
#67 = SURFACE_STYLE_FILL_AREA ( #192 ) ;
#68 = ORIENTED_EDGE ( 'NONE', *, *, #144, .F. ) ;
#69 = ADVANCED_FACE ( 'NONE', ( #177 ), #93, .T. ) ;
#70 = ORIENTED_EDGE ( 'NONE', *, *, #178, .F. ) ;
#71 = LINE ( 'NONE', #250, #135 ) ;
#72 = LINE ( 'NONE', #202, #208 ) ;
#73 = CARTESIAN_POINT ( 'NONE',  ( 0.0000000000000000000, 0.0000000000000000000, 2.485000000000000320 ) ) ;
#74 = CARTESIAN_POINT ( 'NONE',  ( 0.0000000000000000000, 0.0000000000000000000, 2.500000000000000000 ) ) ;
#75 = FACE_OUTER_BOUND ( 'NONE', #49, .T. ) ;
#76 = EDGE_CURVE ( 'NONE', #293, #129, #221, .T. ) ;
#77 = AXIS2_PLACEMENT_3D ( 'NONE', #124, #188, #216 ) ;
#78 = FILL_AREA_STYLE_COLOUR ( '', #153 ) ;
#79 = AXIS2_PLACEMENT_3D ( 'NONE', #209, #137, #231 ) ;
#80 = PRESENTATION_STYLE_ASSIGNMENT (( #17 ) ) ;
#81 = EDGE_LOOP ( 'NONE', ( #247, #297 ) ) ;
#82 =( GEOMETRIC_REPRESENTATION_CONTEXT ( 3 ) GLOBAL_UNCERTAINTY_ASSIGNED_CONTEXT ( ( #272 ) ) GLOBAL_UNIT_ASSIGNED_CONTEXT ( ( #126, #83, #64 ) ) REPRESENTATION_CONTEXT ( 'NONE', 'WORKASPACE' ) );
#83 =( NAMED_UNIT ( * ) PLANE_ANGLE_UNIT ( ) SI_UNIT ( $, .RADIAN. ) );
#84 = EDGE_CURVE ( 'NONE', #138, #293, #71, .T. ) ;
#85 = APPLICATION_PROTOCOL_DEFINITION ( 'draft international standard', 'automotive_design', 1998, #194 ) ;
#86 = EDGE_CURVE ( 'NONE', #18, #230, #176, .T. ) ;
#87 = DIRECTION ( 'NONE',  ( -1.224646799147353207E-16, -0.0000000000000000000, -1.000000000000000000 ) ) ;
#88 = EDGE_CURVE ( 'NONE', #53, #127, #258, .T. ) ;
#89 = CYLINDRICAL_SURFACE ( 'NONE', #244, 0.1248749999999999999 ) ;
#90 = DIRECTION ( 'NONE',  ( 0.0000000000000000000, 0.0000000000000000000, -1.000000000000000000 ) ) ;
#91 = AXIS2_PLACEMENT_3D ( 'NONE', #191, #256, #145 ) ;
#92 = DIRECTION ( 'NONE',  ( -1.224646799147353207E-16, -0.0000000000000000000, -1.000000000000000000 ) ) ;
#93 = CYLINDRICAL_SURFACE ( 'NONE', #274, 0.1250000000000000000 ) ;
#94 = FACE_OUTER_BOUND ( 'NONE', #193, .T. ) ;
#95 = AXIS2_PLACEMENT_3D ( 'NONE', #235, #213, #13 ) ;
#96 = PRESENTATION_LAYER_ASSIGNMENT (  '', '', ( #196 ) ) ;
#97 = PRODUCT ( 'Micro_GEM-250-2X', 'Micro_GEM-250-2X', '', ( #160 ) ) ;
#98 = LINE ( 'NONE', #255, #214 ) ;
#99 = FACE_OUTER_BOUND ( 'NONE', #81, .T. ) ;
#100 = CARTESIAN_POINT ( 'NONE',  ( 0.1250000000000000833, 1.530808498934192433E-17, 0.7507089102274522308 ) ) ;
#101 = ADVANCED_FACE ( 'NONE', ( #3 ), #89, .T. ) ;
#102 = ORIENTED_EDGE ( 'NONE', *, *, #217, .F. ) ;
#103 = CARTESIAN_POINT ( 'NONE',  ( -0.1248749999999999999, 0.0000000000000000000, 1.529277690435257475E-17 ) ) ;
#104 = CIRCLE ( 'NONE', #95, 0.1100000000000001948 ) ;
#105 = ORIENTED_EDGE ( 'NONE', *, *, #144, .T. ) ;
#106 = CARTESIAN_POINT ( 'NONE',  ( 9.184850993605150903E-17, 0.0000000000000000000, 0.7500000000000001110 ) ) ;
#107 = ORIENTED_EDGE ( 'NONE', *, *, #200, .F. ) ;
#108 = DIRECTION ( 'NONE',  ( 0.0000000000000000000, 0.0000000000000000000, 1.000000000000000000 ) ) ;
#109 = ORIENTED_EDGE ( 'NONE', *, *, #178, .T. ) ;
#110 = ORIENTED_EDGE ( 'NONE', *, *, #128, .T. ) ;
#111 = CIRCLE ( 'NONE', #36, 0.1100000000000001948 ) ;
#112 = APPLICATION_PROTOCOL_DEFINITION ( 'draft international standard', 'automotive_design', 1998, #114 ) ;
#113 = ORIENTED_EDGE ( 'NONE', *, *, #76, .F. ) ;
#114 = APPLICATION_CONTEXT ( 'automotive_design' ) ;
#115 = DIRECTION ( 'NONE',  ( -1.000000000000000000, 0.0000000000000000000, 0.0000000000000000000 ) ) ;
#116 = EDGE_LOOP ( 'NONE', ( #110, #266, #172, #261 ) ) ;
#117 = PRODUCT_DEFINITION ( 'UNKNOWN', '', #158, #38 ) ;
#118 = DIRECTION ( 'NONE',  ( -1.224646799147353207E-16, -0.0000000000000000000, -1.000000000000000000 ) ) ;
#119 = FILL_AREA_STYLE ('',( #78 ) ) ;
#120 = LENGTH_MEASURE_WITH_UNIT ( LENGTH_MEASURE( 0.02539999999999999897 ), #166 );
#121 = PRODUCT_RELATED_PRODUCT_CATEGORY ( 'part', '', ( #97 ) ) ;
#122 = COLOUR_RGB ( '',0.7921568627450980005, 0.8196078431372548767, 0.9333333333333333481 ) ;
#123 = CARTESIAN_POINT ( 'NONE',  ( -0.1100000000000001948, 0.0000000000000000000, 2.500000000000000000 ) ) ;
#124 = CARTESIAN_POINT ( 'NONE',  ( 9.193532640014472135E-17, 0.0000000000000000000, 0.7507089102274522308 ) ) ;
#125 = AXIS2_PLACEMENT_3D ( 'NONE', #41, #39, #215 ) ;
#126 =( CONVERSION_BASED_UNIT ( 'INCH', #292 ) LENGTH_UNIT ( ) NAMED_UNIT ( #246 ) );
#127 = VERTEX_POINT ( 'NONE', #51 ) ;
#128 = EDGE_CURVE ( 'NONE', #127, #53, #1, .T. ) ;
#129 = VERTEX_POINT ( 'NONE', #100 ) ;
#130 = LINE ( 'NONE', #103, #201 ) ;
#131 = CIRCLE ( 'NONE', #77, 0.1250000000000000000 ) ;
#132 = ORIENTED_EDGE ( 'NONE', *, *, #86, .T. ) ;
#133 = DIRECTION ( 'NONE',  ( 1.000000000000000000, 0.0000000000000000000, 0.0000000000000000000 ) ) ;
#134 = DIRECTION ( 'NONE',  ( -1.000000000000000000, 0.0000000000000000000, 1.224646799147353454E-16 ) ) ;
#135 = VECTOR ( 'NONE', #155, 39.37007874015748143 ) ;
#136 = CYLINDRICAL_SURFACE ( 'NONE', #58, 0.1248749999999999999 ) ;
#137 = DIRECTION ( 'NONE',  ( 0.0000000000000000000, 0.0000000000000000000, 1.000000000000000000 ) ) ;
#138 = VERTEX_POINT ( 'NONE', #9 ) ;
#139 = CARTESIAN_POINT ( 'NONE',  ( 9.184850993605150903E-17, 0.0000000000000000000, 0.7500000000000001110 ) ) ;
#140 = CONICAL_SURFACE ( 'NONE', #182, 0.1100000000000001948, 0.7853981633974517207 ) ;
#141 = DIMENSIONAL_EXPONENTS ( 1.000000000000000000, 0.0000000000000000000, 0.0000000000000000000, 0.0000000000000000000, 0.0000000000000000000, 0.0000000000000000000, 0.0000000000000000000 ) ;
#142 = EDGE_LOOP ( 'NONE', ( #197, #243, #47, #181 ) ) ;
#143 = DIRECTION ( 'NONE',  ( 0.0000000000000000000, 0.0000000000000000000, 1.000000000000000000 ) ) ;
#144 = EDGE_CURVE ( 'NONE', #138, #24, #146, .T. ) ;
#145 = DIRECTION ( 'NONE',  ( -1.000000000000000000, 0.0000000000000000000, 1.224646799147353454E-16 ) ) ;
#146 = CIRCLE ( 'NONE', #238, 0.1250000000000000000 ) ;
#147 = DIRECTION ( 'NONE',  ( 0.0000000000000000000, 0.0000000000000000000, -1.000000000000000000 ) ) ;
#148 = SURFACE_STYLE_USAGE ( .BOTH. , #259 ) ;
#149 = DIRECTION ( 'NONE',  ( 1.000000000000000000, 0.0000000000000000000, 0.0000000000000000000 ) ) ;
#150 = ORIENTED_EDGE ( 'NONE', *, *, #88, .F. ) ;
#151 = FACE_OUTER_BOUND ( 'NONE', #204, .T. ) ;
#152 = EDGE_LOOP ( 'NONE', ( #226, #198, #68, #102 ) ) ;
#153 = COLOUR_RGB ( '',0.7921568627450980005, 0.8196078431372548767, 0.9333333333333333481 ) ;
#154 = UNCERTAINTY_MEASURE_WITH_UNIT (LENGTH_MEASURE( 1.000000000000000082E-05 ), #239, 'distance_accuracy_value', 'NONE');
#155 = DIRECTION ( 'NONE',  ( -0.0000000000000000000, -0.0000000000000000000, -1.000000000000000000 ) ) ;
#156 = CARTESIAN_POINT ( 'NONE',  ( 0.0000000000000000000, 0.0000000000000000000, 0.0000000000000000000 ) ) ;
#157 = CIRCLE ( 'NONE', #91, 0.1248749999999999999 ) ;
#158 = PRODUCT_DEFINITION_FORMATION_WITH_SPECIFIED_SOURCE ( 'ANY', '', #97, .NOT_KNOWN. ) ;
#159 = DIRECTION ( 'NONE',  ( -1.000000000000000000, 0.0000000000000000000, 0.0000000000000000000 ) ) ;
#160 = PRODUCT_CONTEXT ( 'NONE', #194, 'mechanical' ) ;
#161 = DIRECTION ( 'NONE',  ( -0.1736481776669312194, 2.126576849575783625E-17, 0.9848077530122080203 ) ) ;
#162 = EDGE_CURVE ( 'NONE', #264, #207, #104, .T. ) ;
#163 = LINE ( 'NONE', #28, #227 ) ;
#164 = AXIS2_PLACEMENT_3D ( 'NONE', #22, #263, #199 ) ;
#165 = AXIS2_PLACEMENT_3D ( 'NONE', #257, #143, #60 ) ;
#166 =( LENGTH_UNIT ( ) NAMED_UNIT ( * ) SI_UNIT ( $, .METRE. ) );
#167 = CARTESIAN_POINT ( 'NONE',  ( -0.1100000000000001948, 0.0000000000000000000, 2.500000000000000000 ) ) ;
#168 = DIRECTION ( 'NONE',  ( -0.0000000000000000000, -0.0000000000000000000, -1.000000000000000000 ) ) ;
#169 = AXIS2_PLACEMENT_3D ( 'NONE', #229, #118, #210 ) ;
#170 = SURFACE_STYLE_FILL_AREA ( #119 ) ;
#171 = ADVANCED_FACE ( 'NONE', ( #75 ), #283, .T. ) ;
#172 = ORIENTED_EDGE ( 'NONE', *, *, #86, .F. ) ;
#173 = CIRCLE ( 'NONE', #62, 0.1250000000000000000 ) ;
#174 = EDGE_LOOP ( 'NONE', ( #290, #241, #295, #184 ) ) ;
#175 = DIRECTION ( 'NONE',  ( 1.000000000000000000, 0.0000000000000000000, 0.0000000000000000000 ) ) ;
#176 = CIRCLE ( 'NONE', #218, 0.1248749999999999999 ) ;
#177 = FACE_OUTER_BOUND ( 'NONE', #63, .T. ) ;
#178 = EDGE_CURVE ( 'NONE', #53, #129, #98, .T. ) ;
#179 = DIRECTION ( 'NONE',  ( 1.000000000000000000, 0.0000000000000000000, 0.0000000000000000000 ) ) ;
#180 = ADVANCED_FACE ( 'NONE', ( #94 ), #43, .T. ) ;
#181 = ORIENTED_EDGE ( 'NONE', *, *, #211, .F. ) ;
#182 = AXIS2_PLACEMENT_3D ( 'NONE', #278, #273, #159 ) ;
#183 = ORIENTED_EDGE ( 'NONE', *, *, #128, .F. ) ;
#184 = ORIENTED_EDGE ( 'NONE', *, *, #29, .F. ) ;
#185 = EDGE_CURVE ( 'NONE', #129, #293, #131, .T. ) ;
#186 = AXIS2_PLACEMENT_3D ( 'NONE', #106, #270, #133 ) ;
#187 = DIRECTION ( 'NONE',  ( 0.1736481776669314137, 0.0000000000000000000, 0.9848077530122077983 ) ) ;
#188 = DIRECTION ( 'NONE',  ( -1.224646799147353207E-16, -0.0000000000000000000, -1.000000000000000000 ) ) ;
#189 = ADVANCED_FACE ( 'NONE', ( #99 ), #282, .T. ) ;
#190 = LINE ( 'NONE', #280, #262 ) ;
#191 = CARTESIAN_POINT ( 'NONE',  ( 1.872825028598994811E-33, 0.0000000000000000000, 1.529277690435257475E-17 ) ) ;
#192 = FILL_AREA_STYLE ('',( #265 ) ) ;
#193 = EDGE_LOOP ( 'NONE', ( #253, #150, #109, #224 ) ) ;
#194 = APPLICATION_CONTEXT ( 'automotive_design' ) ;
#195 = ADVANCED_BREP_SHAPE_REPRESENTATION ( 'Micro_GEM-250-2X', ( #206, #79 ), #82 ) ;
#196 = STYLED_ITEM ( 'NONE', ( #80 ), #195 ) ;
#197 = ORIENTED_EDGE ( 'NONE', *, *, #40, .F. ) ;
#198 = ORIENTED_EDGE ( 'NONE', *, *, #203, .T. ) ;
#199 = DIRECTION ( 'NONE',  ( -1.000000000000000000, 0.0000000000000000000, 0.0000000000000000000 ) ) ;
#200 = EDGE_CURVE ( 'NONE', #24, #129, #34, .T. ) ;
#201 = VECTOR ( 'NONE', #240, 39.37007874015748143 ) ;
#202 = CARTESIAN_POINT ( 'NONE',  ( -0.1248749999999999166, 1.529277690435257475E-17, 0.7500000000000001110 ) ) ;
#203 = EDGE_CURVE ( 'NONE', #264, #24, #190, .T. ) ;
#204 = EDGE_LOOP ( 'NONE', ( #132, #23 ) ) ;
#205 = FACE_OUTER_BOUND ( 'NONE', #116, .T. ) ;
#206 = MANIFOLD_SOLID_BREP ( 'Cut-Revolve1', #5 ) ;
#207 = VERTEX_POINT ( 'NONE', #167 ) ;
#208 = VECTOR ( 'NONE', #161, 39.37007874015747433 ) ;
#209 = CARTESIAN_POINT ( 'NONE',  ( 0.0000000000000000000, 0.0000000000000000000, 0.0000000000000000000 ) ) ;
#210 = DIRECTION ( 'NONE',  ( -1.000000000000000000, 0.0000000000000000000, 0.0000000000000000000 ) ) ;
#211 = EDGE_CURVE ( 'NONE', #230, #18, #157, .T. ) ;
#212 = CARTESIAN_POINT ( 'NONE',  ( 0.0000000000000000000, 0.0000000000000000000, 2.485000000000000320 ) ) ;
#213 = DIRECTION ( 'NONE',  ( 0.0000000000000000000, 0.0000000000000000000, 1.000000000000000000 ) ) ;
#214 = VECTOR ( 'NONE', #187, 39.37007874015748143 ) ;
#215 = DIRECTION ( 'NONE',  ( 1.000000000000000000, 0.0000000000000000000, 0.0000000000000000000 ) ) ;
#216 = DIRECTION ( 'NONE',  ( 1.000000000000000000, 0.0000000000000000000, 0.0000000000000000000 ) ) ;
#217 = EDGE_CURVE ( 'NONE', #207, #138, #234, .T. ) ;
#218 = AXIS2_PLACEMENT_3D ( 'NONE', #252, #50, #134 ) ;
#219 =( NAMED_UNIT ( * ) PLANE_ANGLE_UNIT ( ) SI_UNIT ( $, .RADIAN. ) );
#220 = ORIENTED_EDGE ( 'NONE', *, *, #76, .T. ) ;
#221 = CIRCLE ( 'NONE', #32, 0.1250000000000000000 ) ;
#222 = DIRECTION ( 'NONE',  ( 0.0000000000000000000, 0.0000000000000000000, 1.000000000000000000 ) ) ;
#223 = ORIENTED_EDGE ( 'NONE', *, *, #200, .T. ) ;
#224 = ORIENTED_EDGE ( 'NONE', *, *, #185, .T. ) ;
#225 = UNCERTAINTY_MEASURE_WITH_UNIT (LENGTH_MEASURE( 1.000000000000000082E-05 ), #57, 'distance_accuracy_value', 'NONE');
#226 = ORIENTED_EDGE ( 'NONE', *, *, #162, .F. ) ;
#227 = VECTOR ( 'NONE', #87, 39.37007874015748143 ) ;
#228 = DIRECTION ( 'NONE',  ( -1.224646799147353207E-16, -0.0000000000000000000, -1.000000000000000000 ) ) ;
#229 = CARTESIAN_POINT ( 'NONE',  ( 9.184850993605150903E-17, 0.0000000000000000000, 0.7500000000000001110 ) ) ;
#230 = VERTEX_POINT ( 'NONE', #12 ) ;
#231 = DIRECTION ( 'NONE',  ( 1.000000000000000000, 0.0000000000000000000, 0.0000000000000000000 ) ) ;
#232 = DIRECTION ( 'NONE',  ( -1.224646799147353207E-16, -0.0000000000000000000, -1.000000000000000000 ) ) ;
#233 = CARTESIAN_POINT ( 'NONE',  ( 9.193532640014472135E-17, 0.0000000000000000000, 0.7507089102274522308 ) ) ;
#234 = LINE ( 'NONE', #123, #10 ) ;
#235 = CARTESIAN_POINT ( 'NONE',  ( 0.0000000000000000000, 0.0000000000000000000, 2.500000000000000000 ) ) ;
#236 = PRESENTATION_STYLE_ASSIGNMENT (( #148 ) ) ;
#237 = CARTESIAN_POINT ( 'NONE',  ( 0.0000000000000000000, 0.0000000000000000000, 2.500000000000000000 ) ) ;
#238 = AXIS2_PLACEMENT_3D ( 'NONE', #212, #147, #149 ) ;
#239 =( CONVERSION_BASED_UNIT ( 'INCH', #245 ) LENGTH_UNIT ( ) NAMED_UNIT ( #30 ) );
#240 = DIRECTION ( 'NONE',  ( -1.224646799147353207E-16, -0.0000000000000000000, -1.000000000000000000 ) ) ;
#241 = ORIENTED_EDGE ( 'NONE', *, *, #288, .F. ) ;
#242 = PLANE ( 'NONE',  #254 ) ;
#243 = ORIENTED_EDGE ( 'NONE', *, *, #88, .T. ) ;
#244 = AXIS2_PLACEMENT_3D ( 'NONE', #156, #249, #33 ) ;
#245 = LENGTH_MEASURE_WITH_UNIT ( LENGTH_MEASURE( 0.02539999999999999897 ), #61 );
#246 = DIMENSIONAL_EXPONENTS ( 1.000000000000000000, 0.0000000000000000000, 0.0000000000000000000, 0.0000000000000000000, 0.0000000000000000000, 0.0000000000000000000, 0.0000000000000000000 ) ;
#247 = ORIENTED_EDGE ( 'NONE', *, *, #288, .T. ) ;
#248 = CARTESIAN_POINT ( 'NONE',  ( -0.1248749999999999999, 0.0000000000000000000, 3.058555380870514950E-17 ) ) ;
#249 = DIRECTION ( 'NONE',  ( -1.224646799147353207E-16, -0.0000000000000000000, -1.000000000000000000 ) ) ;
#250 = CARTESIAN_POINT ( 'NONE',  ( -0.1250000000000000000, 0.0000000000000000000, 2.500000000000000000 ) ) ;
#251 = ADVANCED_FACE ( 'NONE', ( #151 ), #242, .F. ) ;
#252 = CARTESIAN_POINT ( 'NONE',  ( 1.872825028598994811E-33, 0.0000000000000000000, 1.529277690435257475E-17 ) ) ;
#253 = ORIENTED_EDGE ( 'NONE', *, *, #52, .F. ) ;
#254 = AXIS2_PLACEMENT_3D ( 'NONE', #260, #108, #294 ) ;
#255 = CARTESIAN_POINT ( 'NONE',  ( 0.1248750000000000970, 0.0000000000000000000, 0.7500000000000001110 ) ) ;
#256 = DIRECTION ( 'NONE',  ( -1.224646799147353207E-16, -0.0000000000000000000, -1.000000000000000000 ) ) ;
#257 = CARTESIAN_POINT ( 'NONE',  ( 0.0000000000000000000, 0.0000000000000000000, 2.500000000000000000 ) ) ;
#258 = CIRCLE ( 'NONE', #291, 0.1248749999999999999 ) ;
#259 = SURFACE_SIDE_STYLE ('',( #170 ) ) ;
#260 = CARTESIAN_POINT ( 'NONE',  ( 0.0000000000000000000, 0.0000000000000000000, 0.0000000000000000000 ) ) ;
#261 = ORIENTED_EDGE ( 'NONE', *, *, #277, .F. ) ;
#262 = VECTOR ( 'NONE', #284, 39.37007874015748143 ) ;
#263 = DIRECTION ( 'NONE',  ( 0.0000000000000000000, 0.0000000000000000000, -1.000000000000000000 ) ) ;
#264 = VERTEX_POINT ( 'NONE', #46 ) ;
#265 = FILL_AREA_STYLE_COLOUR ( '', #122 ) ;
#266 = ORIENTED_EDGE ( 'NONE', *, *, #40, .T. ) ;
#267 = ADVANCED_FACE ( 'NONE', ( #44 ), #268, .T. ) ;
#268 = CONICAL_SURFACE ( 'NONE', #164, 0.1100000000000001948, 0.7853981633974517207 ) ;
#269 = MECHANICAL_DESIGN_GEOMETRIC_PRESENTATION_REPRESENTATION (  '', ( #196 ), #16 ) ;
#270 = DIRECTION ( 'NONE',  ( 1.224646799147353207E-16, 0.0000000000000000000, 1.000000000000000000 ) ) ;
#271 = DIRECTION ( 'NONE',  ( 1.000000000000000000, 0.0000000000000000000, 0.0000000000000000000 ) ) ;
#272 = UNCERTAINTY_MEASURE_WITH_UNIT (LENGTH_MEASURE( 1.000000000000000082E-05 ), #126, 'distance_accuracy_value', 'NONE');
#273 = DIRECTION ( 'NONE',  ( 0.0000000000000000000, 0.0000000000000000000, -1.000000000000000000 ) ) ;
#274 = AXIS2_PLACEMENT_3D ( 'NONE', #8, #4, #55 ) ;
#275 = CARTESIAN_POINT ( 'NONE',  ( 0.1248750000000000970, 0.0000000000000000000, 0.7500000000000001110 ) ) ;
#276 = CARTESIAN_POINT ( 'NONE',  ( 0.1250000000000000000, 1.530808498934191509E-17, 2.485000000000000320 ) ) ;
#277 = EDGE_CURVE ( 'NONE', #127, #18, #130, .T. ) ;
#278 = CARTESIAN_POINT ( 'NONE',  ( 0.0000000000000000000, 0.0000000000000000000, 2.500000000000000000 ) ) ;
#279 = MECHANICAL_DESIGN_GEOMETRIC_PRESENTATION_REPRESENTATION (  '', ( #19 ), #15 ) ;
#280 = CARTESIAN_POINT ( 'NONE',  ( 0.1100000000000001948, 1.347111479062090784E-17, 2.500000000000000000 ) ) ;
#281 = PRODUCT_DEFINITION_SHAPE ( 'NONE', 'NONE',  #117 ) ;
#282 = PLANE ( 'NONE',  #165 ) ;
#283 = CYLINDRICAL_SURFACE ( 'NONE', #285, 0.1250000000000000000 ) ;
#284 = DIRECTION ( 'NONE',  ( 0.7071067811865499042, 8.659560562354961208E-17, -0.7071067811865451302 ) ) ;
#285 = AXIS2_PLACEMENT_3D ( 'NONE', #74, #168, #35 ) ;
#286 =( NAMED_UNIT ( * ) SI_UNIT ( $, .STERADIAN. ) SOLID_ANGLE_UNIT ( ) );
#287 = ORIENTED_EDGE ( 'NONE', *, *, #84, .T. ) ;
#288 = EDGE_CURVE ( 'NONE', #207, #264, #111, .T. ) ;
#289 =( NAMED_UNIT ( * ) SI_UNIT ( $, .STERADIAN. ) SOLID_ANGLE_UNIT ( ) );
#290 = ORIENTED_EDGE ( 'NONE', *, *, #203, .F. ) ;
#291 = AXIS2_PLACEMENT_3D ( 'NONE', #139, #228, #115 ) ;
#292 = LENGTH_MEASURE_WITH_UNIT ( LENGTH_MEASURE( 0.02539999999999999897 ), #296 );
#293 = VERTEX_POINT ( 'NONE', #42 ) ;
#294 = DIRECTION ( 'NONE',  ( 1.000000000000000000, 0.0000000000000000000, -0.0000000000000000000 ) ) ;
#295 = ORIENTED_EDGE ( 'NONE', *, *, #217, .T. ) ;
#296 =( LENGTH_UNIT ( ) NAMED_UNIT ( * ) SI_UNIT ( $, .METRE. ) );
#297 = ORIENTED_EDGE ( 'NONE', *, *, #162, .T. ) ;
#298 = ADVANCED_FACE ( 'NONE', ( #20 ), #25, .T. ) ;
#299 = PRESENTATION_LAYER_ASSIGNMENT (  '', '', ( #19 ) ) ;
ENDSEC;
END-ISO-10303-21;
