ISO-10303-21;
HEADER;
FILE_DESCRIPTION (( 'STEP AP214' ),
    '1' );
FILE_NAME ('Micro_RSC-500-2.STEP',
    '2021-09-03T17:54:13',
    ( '' ),
    ( '' ),
    'SwSTEP 2.0',
    'SolidWorks 2020',
    '' );
FILE_SCHEMA (( 'AUTOMOTIVE_DESIGN' ));
ENDSEC;

DATA;
#1 = EDGE_LOOP ( 'NONE', ( #61, #97, #214, #20 ) ) ;
#2 = AXIS2_PLACEMENT_3D ( 'NONE', #43, #125, #207 ) ;
#3 = VERTEX_POINT ( 'NONE', #178 ) ;
#4 = PRESENTATION_LAYER_ASSIGNMENT (  '', '', ( #36 ) ) ;
#5 = VERTEX_POINT ( 'NONE', #123 ) ;
#6 = LINE ( 'NONE', #65, #212 ) ;
#7 =( NAMED_UNIT ( * ) SI_UNIT ( $, .STERADIAN. ) SOLID_ANGLE_UNIT ( ) );
#8 = DIRECTION ( 'NONE',  ( -1.000000000000000000, 0.0000000000000000000, 0.0000000000000000000 ) ) ;
#9 = FILL_AREA_STYLE_COLOUR ( '', #240 ) ;
#10 = PRESENTATION_STYLE_ASSIGNMENT (( #242 ) ) ;
#11 = EDGE_CURVE ( 'NONE', #136, #196, #138, .T. ) ;
#12 = CARTESIAN_POINT ( 'NONE',  ( 0.0000000000000000000, 0.0000000000000000000, 0.0000000000000000000 ) ) ;
#13 = DIRECTION ( 'NONE',  ( -0.0000000000000000000, -0.0000000000000000000, -1.000000000000000000 ) ) ;
#14 = DIRECTION ( 'NONE',  ( 1.000000000000000000, 0.0000000000000000000, 0.0000000000000000000 ) ) ;
#15 = DIRECTION ( 'NONE',  ( -1.000000000000000000, 0.0000000000000000000, 0.0000000000000000000 ) ) ;
#16 = ADVANCED_FACE ( 'NONE', ( #161 ), #124, .T. ) ;
#17 =( NAMED_UNIT ( * ) PLANE_ANGLE_UNIT ( ) SI_UNIT ( $, .RADIAN. ) );
#18 = CIRCLE ( 'NONE', #160, 0.2500000000000000000 ) ;
#19 = UNCERTAINTY_MEASURE_WITH_UNIT (LENGTH_MEASURE( 1.000000000000000082E-05 ), #70, 'distance_accuracy_value', 'NONE');
#20 = ORIENTED_EDGE ( 'NONE', *, *, #44, .T. ) ;
#21 = EDGE_LOOP ( 'NONE', ( #179, #158, #137, #134 ) ) ;
#22 = ORIENTED_EDGE ( 'NONE', *, *, #110, .F. ) ;
#23 = APPLICATION_CONTEXT ( 'automotive_design' ) ;
#24 = CIRCLE ( 'NONE', #164, 0.003999999999999999216 ) ;
#25 = CARTESIAN_POINT ( 'NONE',  ( 0.0000000000000000000, 0.0000000000000000000, 0.4260844986619422570 ) ) ;
#26 = APPLICATION_PROTOCOL_DEFINITION ( 'draft international standard', 'automotive_design', 1998, #85 ) ;
#27 = FACE_OUTER_BOUND ( 'NONE', #154, .T. ) ;
#28 = CARTESIAN_POINT ( 'NONE',  ( 0.003999999999999999216, 0.0000000000000000000, 0.0000000000000000000 ) ) ;
#29 = CARTESIAN_POINT ( 'NONE',  ( 0.0000000000000000000, 0.0000000000000000000, 3.000000000000000444 ) ) ;
#30 = CARTESIAN_POINT ( 'NONE',  ( -0.003999999999999999216, -4.898587196589411612E-19, 3.000000000000000444 ) ) ;
#31 = CARTESIAN_POINT ( 'NONE',  ( 0.0000000000000000000, 0.0000000000000000000, 3.000000000000000444 ) ) ;
#32 = FACE_OUTER_BOUND ( 'NONE', #238, .T. ) ;
#33 = LENGTH_MEASURE_WITH_UNIT ( LENGTH_MEASURE( 0.02539999999999999897 ), #189 );
#34 = EDGE_CURVE ( 'NONE', #234, #5, #243, .T. ) ;
#35 = CARTESIAN_POINT ( 'NONE',  ( 0.0000000000000000000, 0.0000000000000000000, 3.000000000000000444 ) ) ;
#36 = STYLED_ITEM ( 'NONE', ( #10 ), #56 ) ;
#37 = MECHANICAL_DESIGN_GEOMETRIC_PRESENTATION_REPRESENTATION (  '', ( #169 ), #55 ) ;
#38 = ORIENTED_EDGE ( 'NONE', *, *, #93, .F. ) ;
#39 = LENGTH_MEASURE_WITH_UNIT ( LENGTH_MEASURE( 0.02539999999999999897 ), #175 );
#40 = EDGE_LOOP ( 'NONE', ( #156, #117 ) ) ;
#41 = CARTESIAN_POINT ( 'NONE',  ( 0.0000000000000000000, 0.0000000000000000000, 2.573915501338057688 ) ) ;
#42 = AXIS2_PLACEMENT_3D ( 'NONE', #206, #218, #143 ) ;
#43 = CARTESIAN_POINT ( 'NONE',  ( 0.0000000000000000000, 0.0000000000000000000, 0.0000000000000000000 ) ) ;
#44 = EDGE_CURVE ( 'NONE', #196, #197, #81, .T. ) ;
#45 = CARTESIAN_POINT ( 'NONE',  ( -0.003999999999999999216, 4.898587196589411612E-19, 0.0000000000000000000 ) ) ;
#46 = DIRECTION ( 'NONE',  ( -1.000000000000000000, 0.0000000000000000000, 0.0000000000000000000 ) ) ;
#47 = AXIS2_PLACEMENT_3D ( 'NONE', #222, #78, #151 ) ;
#48 = CARTESIAN_POINT ( 'NONE',  ( 0.0000000000000000000, 0.0000000000000000000, 3.000000000000000444 ) ) ;
#49 = DIRECTION ( 'NONE',  ( -1.000000000000000000, 0.0000000000000000000, 0.0000000000000000000 ) ) ;
#50 = DIRECTION ( 'NONE',  ( -1.000000000000000000, 0.0000000000000000000, 0.0000000000000000000 ) ) ;
#51 = VECTOR ( 'NONE', #203, 39.37007874015748854 ) ;
#52 = DIRECTION ( 'NONE',  ( -0.5000000000000012212, -6.123233995736780827E-17, -0.8660254037844377084 ) ) ;
#53 = DIRECTION ( 'NONE',  ( -0.0000000000000000000, -0.0000000000000000000, -1.000000000000000000 ) ) ;
#54 = AXIS2_PLACEMENT_3D ( 'NONE', #12, #92, #191 ) ;
#55 =( GEOMETRIC_REPRESENTATION_CONTEXT ( 3 ) GLOBAL_UNCERTAINTY_ASSIGNED_CONTEXT ( ( #121 ) ) GLOBAL_UNIT_ASSIGNED_CONTEXT ( ( #79, #17, #204 ) ) REPRESENTATION_CONTEXT ( 'NONE', 'WORKASPACE' ) );
#56 = MANIFOLD_SOLID_BREP ( 'Mirror1', #116 ) ;
#57 = ORIENTED_EDGE ( 'NONE', *, *, #215, .T. ) ;
#58 = APPLICATION_PROTOCOL_DEFINITION ( 'draft international standard', 'automotive_design', 1998, #23 ) ;
#59 = EDGE_CURVE ( 'NONE', #173, #197, #159, .T. ) ;
#60 = SURFACE_STYLE_USAGE ( .BOTH. , #233 ) ;
#61 = ORIENTED_EDGE ( 'NONE', *, *, #59, .F. ) ;
#62 = CIRCLE ( 'NONE', #209, 0.2500000000000000000 ) ;
#63 = PRESENTATION_LAYER_ASSIGNMENT (  '', '', ( #169 ) ) ;
#64 = ORIENTED_EDGE ( 'NONE', *, *, #171, .T. ) ;
#65 = CARTESIAN_POINT ( 'NONE',  ( 0.2500000000000000000, 3.061616997868382402E-17, 3.000000000000000444 ) ) ;
#66 = SURFACE_STYLE_FILL_AREA ( #162 ) ;
#67 = ADVANCED_FACE ( 'NONE', ( #122 ), #144, .T. ) ;
#68 = FILL_AREA_STYLE ('',( #141 ) ) ;
#69 = AXIS2_PLACEMENT_3D ( 'NONE', #104, #182, #106 ) ;
#70 =( CONVERSION_BASED_UNIT ( 'INCH', #87 ) LENGTH_UNIT ( ) NAMED_UNIT ( #202 ) );
#71 = LINE ( 'NONE', #30, #247 ) ;
#72 = CARTESIAN_POINT ( 'NONE',  ( 0.0000000000000000000, 0.0000000000000000000, 0.0000000000000000000 ) ) ;
#73 = CARTESIAN_POINT ( 'NONE',  ( -0.2500000000000000000, 0.0000000000000000000, 0.4260844986619422570 ) ) ;
#74 = AXIS2_PLACEMENT_3D ( 'NONE', #35, #168, #166 ) ;
#75 =( NAMED_UNIT ( * ) SI_UNIT ( $, .STERADIAN. ) SOLID_ANGLE_UNIT ( ) );
#76 = VERTEX_POINT ( 'NONE', #205 ) ;
#77 = PRODUCT_DEFINITION_FORMATION_WITH_SPECIFIED_SOURCE ( 'ANY', '', #167, .NOT_KNOWN. ) ;
#78 = DIRECTION ( 'NONE',  ( 0.0000000000000000000, 0.0000000000000000000, 1.000000000000000000 ) ) ;
#79 =( CONVERSION_BASED_UNIT ( 'INCH', #39 ) LENGTH_UNIT ( ) NAMED_UNIT ( #221 ) );
#80 = ORIENTED_EDGE ( 'NONE', *, *, #102, .T. ) ;
#81 = CIRCLE ( 'NONE', #224, 0.2500000000000000000 ) ;
#82 = ORIENTED_EDGE ( 'NONE', *, *, #34, .F. ) ;
#83 = ADVANCED_FACE ( 'NONE', ( #27 ), #132, .T. ) ;
#84 = CARTESIAN_POINT ( 'NONE',  ( 0.0000000000000000000, 0.0000000000000000000, 3.000000000000000444 ) ) ;
#85 = APPLICATION_CONTEXT ( 'automotive_design' ) ;
#86 = VECTOR ( 'NONE', #13, 39.37007874015748143 ) ;
#87 = LENGTH_MEASURE_WITH_UNIT ( LENGTH_MEASURE( 0.02539999999999999897 ), #181 );
#88 = EDGE_CURVE ( 'NONE', #5, #234, #62, .T. ) ;
#89 = DIRECTION ( 'NONE',  ( 0.0000000000000000000, 0.0000000000000000000, -1.000000000000000000 ) ) ;
#90 = VECTOR ( 'NONE', #208, 39.37007874015748854 ) ;
#91 = DIRECTION ( 'NONE',  ( 0.0000000000000000000, 0.0000000000000000000, 1.000000000000000000 ) ) ;
#92 = DIRECTION ( 'NONE',  ( 0.0000000000000000000, 0.0000000000000000000, 1.000000000000000000 ) ) ;
#93 = EDGE_CURVE ( 'NONE', #234, #196, #6, .T. ) ;
#94 = DIRECTION ( 'NONE',  ( -0.0000000000000000000, -0.0000000000000000000, -1.000000000000000000 ) ) ;
#95 = UNCERTAINTY_MEASURE_WITH_UNIT (LENGTH_MEASURE( 1.000000000000000082E-05 ), #96, 'distance_accuracy_value', 'NONE');
#96 =( CONVERSION_BASED_UNIT ( 'INCH', #33 ) LENGTH_UNIT ( ) NAMED_UNIT ( #119 ) );
#97 = ORIENTED_EDGE ( 'NONE', *, *, #230, .F. ) ;
#98 = AXIS2_PLACEMENT_3D ( 'NONE', #31, #210, #14 ) ;
#99 = ORIENTED_EDGE ( 'NONE', *, *, #44, .F. ) ;
#100 = ORIENTED_EDGE ( 'NONE', *, *, #93, .T. ) ;
#101 = ORIENTED_EDGE ( 'NONE', *, *, #215, .F. ) ;
#102 = EDGE_CURVE ( 'NONE', #76, #3, #129, .T. ) ;
#103 = CARTESIAN_POINT ( 'NONE',  ( 0.0000000000000000000, 0.0000000000000000000, 3.000000000000000444 ) ) ;
#104 = CARTESIAN_POINT ( 'NONE',  ( 0.0000000000000000000, 0.0000000000000000000, 0.0000000000000000000 ) ) ;
#105 = AXIS2_PLACEMENT_3D ( 'NONE', #72, #53, #227 ) ;
#106 = DIRECTION ( 'NONE',  ( 1.000000000000000000, 0.0000000000000000000, 0.0000000000000000000 ) ) ;
#107 = DIRECTION ( 'NONE',  ( -0.0000000000000000000, -0.0000000000000000000, -1.000000000000000000 ) ) ;
#108 = CARTESIAN_POINT ( 'NONE',  ( -0.2500000000000000000, 0.0000000000000000000, 3.000000000000000444 ) ) ;
#109 = AXIS2_PLACEMENT_3D ( 'NONE', #29, #89, #241 ) ;
#110 = EDGE_CURVE ( 'NONE', #173, #136, #232, .T. ) ;
#111 = AXIS2_PLACEMENT_3D ( 'NONE', #48, #128, #50 ) ;
#112 = PRODUCT_DEFINITION ( 'UNKNOWN', '', #77, #114 ) ;
#113 = CYLINDRICAL_SURFACE ( 'NONE', #74, 0.2500000000000000000 ) ;
#114 = PRODUCT_DEFINITION_CONTEXT ( 'detailed design', #23, 'design' ) ;
#115 = ORIENTED_EDGE ( 'NONE', *, *, #190, .T. ) ;
#116 = CLOSED_SHELL ( 'NONE', ( #16, #83, #235, #226, #67, #152, #248, #127 ) ) ;
#117 = ORIENTED_EDGE ( 'NONE', *, *, #118, .F. ) ;
#118 = EDGE_CURVE ( 'NONE', #3, #76, #24, .T. ) ;
#119 = DIMENSIONAL_EXPONENTS ( 1.000000000000000000, 0.0000000000000000000, 0.0000000000000000000, 0.0000000000000000000, 0.0000000000000000000, 0.0000000000000000000, 0.0000000000000000000 ) ;
#120 = DIRECTION ( 'NONE',  ( -1.000000000000000000, 0.0000000000000000000, 0.0000000000000000000 ) ) ;
#121 = UNCERTAINTY_MEASURE_WITH_UNIT (LENGTH_MEASURE( 1.000000000000000082E-05 ), #79, 'distance_accuracy_value', 'NONE');
#122 = FACE_OUTER_BOUND ( 'NONE', #1, .T. ) ;
#123 = CARTESIAN_POINT ( 'NONE',  ( -0.2500000000000000000, 0.0000000000000000000, 2.573915501338057688 ) ) ;
#124 = CONICAL_SURFACE ( 'NONE', #109, 0.003999999999999999216, 0.5235987755983003700 ) ;
#125 = DIRECTION ( 'NONE',  ( -0.0000000000000000000, -0.0000000000000000000, -1.000000000000000000 ) ) ;
#126 = CARTESIAN_POINT ( 'NONE',  ( 0.003999999999999999216, 0.0000000000000000000, 3.000000000000000444 ) ) ;
#127 = ADVANCED_FACE ( 'NONE', ( #244 ), #229, .T. ) ;
#128 = DIRECTION ( 'NONE',  ( -0.0000000000000000000, -0.0000000000000000000, -1.000000000000000000 ) ) ;
#129 = CIRCLE ( 'NONE', #157, 0.003999999999999999216 ) ;
#130 = FACE_OUTER_BOUND ( 'NONE', #21, .T. ) ;
#131 = CARTESIAN_POINT ( 'NONE',  ( -0.003999999999999999216, 1.555301434917138211E-17, 0.0000000000000000000 ) ) ;
#132 = CONICAL_SURFACE ( 'NONE', #69, 0.003999999999999999216, 0.5235987755983003700 ) ;
#133 = ORIENTED_EDGE ( 'NONE', *, *, #190, .F. ) ;
#134 = ORIENTED_EDGE ( 'NONE', *, *, #88, .F. ) ;
#135 = PRESENTATION_STYLE_ASSIGNMENT (( #60 ) ) ;
#136 = VERTEX_POINT ( 'NONE', #188 ) ;
#137 = ORIENTED_EDGE ( 'NONE', *, *, #201, .T. ) ;
#138 = LINE ( 'NONE', #28, #51 ) ;
#139 = VECTOR ( 'NONE', #142, 39.37007874015748854 ) ;
#140 = COLOUR_RGB ( '',0.7921568627450980005, 0.8196078431372548767, 0.9333333333333333481 ) ;
#141 = FILL_AREA_STYLE_COLOUR ( '', #140 ) ;
#142 = DIRECTION ( 'NONE',  ( -0.5000000000000012212, 6.123233995736780827E-17, 0.8660254037844377084 ) ) ;
#143 = DIRECTION ( 'NONE',  ( 1.000000000000000000, 0.0000000000000000000, 0.0000000000000000000 ) ) ;
#144 = CONICAL_SURFACE ( 'NONE', #42, 0.003999999999999999216, 0.5235987755983003700 ) ;
#145 =( GEOMETRIC_REPRESENTATION_CONTEXT ( 3 ) GLOBAL_UNCERTAINTY_ASSIGNED_CONTEXT ( ( #95 ) ) GLOBAL_UNIT_ASSIGNED_CONTEXT ( ( #96, #146, #75 ) ) REPRESENTATION_CONTEXT ( 'NONE', 'WORKASPACE' ) );
#146 =( NAMED_UNIT ( * ) PLANE_ANGLE_UNIT ( ) SI_UNIT ( $, .RADIAN. ) );
#147 = LINE ( 'NONE', #108, #86 ) ;
#148 = CARTESIAN_POINT ( 'NONE',  ( 0.0000000000000000000, 0.0000000000000000000, 3.000000000000000444 ) ) ;
#149 = DIRECTION ( 'NONE',  ( 0.0000000000000000000, 0.0000000000000000000, -1.000000000000000000 ) ) ;
#150 = FACE_OUTER_BOUND ( 'NONE', #236, .T. ) ;
#151 = DIRECTION ( 'NONE',  ( 1.000000000000000000, 0.0000000000000000000, 0.0000000000000000000 ) ) ;
#152 = ADVANCED_FACE ( 'NONE', ( #150 ), #165, .F. ) ;
#153 = PRODUCT_CONTEXT ( 'NONE', #85, 'mechanical' ) ;
#154 = EDGE_LOOP ( 'NONE', ( #22, #155, #57, #198 ) ) ;
#155 = ORIENTED_EDGE ( 'NONE', *, *, #59, .T. ) ;
#156 = ORIENTED_EDGE ( 'NONE', *, *, #102, .F. ) ;
#157 = AXIS2_PLACEMENT_3D ( 'NONE', #84, #220, #46 ) ;
#158 = ORIENTED_EDGE ( 'NONE', *, *, #118, .T. ) ;
#159 = LINE ( 'NONE', #45, #139 ) ;
#160 = AXIS2_PLACEMENT_3D ( 'NONE', #186, #94, #49 ) ;
#161 = FACE_OUTER_BOUND ( 'NONE', #213, .T. ) ;
#162 = FILL_AREA_STYLE ('',( #9 ) ) ;
#163 =( NAMED_UNIT ( * ) PLANE_ANGLE_UNIT ( ) SI_UNIT ( $, .RADIAN. ) );
#164 = AXIS2_PLACEMENT_3D ( 'NONE', #103, #149, #15 ) ;
#165 = PLANE ( 'NONE',  #54 ) ;
#166 = DIRECTION ( 'NONE',  ( -1.000000000000000000, 0.0000000000000000000, 0.0000000000000000000 ) ) ;
#167 = PRODUCT ( 'Micro_RSC-500-2', 'Micro_RSC-500-2', '', ( #153 ) ) ;
#168 = DIRECTION ( 'NONE',  ( -0.0000000000000000000, -0.0000000000000000000, -1.000000000000000000 ) ) ;
#169 = STYLED_ITEM ( 'NONE', ( #135 ), #187 ) ;
#170 = PRODUCT_DEFINITION_SHAPE ( 'NONE', 'NONE',  #112 ) ;
#171 = EDGE_CURVE ( 'NONE', #3, #5, #71, .T. ) ;
#172 = SHAPE_DEFINITION_REPRESENTATION ( #170, #187 ) ;
#173 = VERTEX_POINT ( 'NONE', #131 ) ;
#174 = MECHANICAL_DESIGN_GEOMETRIC_PRESENTATION_REPRESENTATION (  '', ( #36 ), #195 ) ;
#175 =( LENGTH_UNIT ( ) NAMED_UNIT ( * ) SI_UNIT ( $, .METRE. ) );
#176 = SURFACE_STYLE_FILL_AREA ( #68 ) ;
#177 = ORIENTED_EDGE ( 'NONE', *, *, #34, .T. ) ;
#178 = CARTESIAN_POINT ( 'NONE',  ( -0.003999999999999999216, -1.555301434917138827E-17, 3.000000000000000444 ) ) ;
#179 = ORIENTED_EDGE ( 'NONE', *, *, #171, .F. ) ;
#180 = SURFACE_SIDE_STYLE ('',( #66 ) ) ;
#181 =( LENGTH_UNIT ( ) NAMED_UNIT ( * ) SI_UNIT ( $, .METRE. ) );
#182 = DIRECTION ( 'NONE',  ( 0.0000000000000000000, 0.0000000000000000000, 1.000000000000000000 ) ) ;
#183 = CIRCLE ( 'NONE', #105, 0.003999999999999999216 ) ;
#184 = DIRECTION ( 'NONE',  ( -1.000000000000000000, 0.0000000000000000000, 0.0000000000000000000 ) ) ;
#185 = DIRECTION ( 'NONE',  ( 0.0000000000000000000, 0.0000000000000000000, -1.000000000000000000 ) ) ;
#186 = CARTESIAN_POINT ( 'NONE',  ( 0.0000000000000000000, 0.0000000000000000000, 0.4260844986619422570 ) ) ;
#187 = ADVANCED_BREP_SHAPE_REPRESENTATION ( 'Micro_RSC-500-2', ( #56, #47 ), #145 ) ;
#188 = CARTESIAN_POINT ( 'NONE',  ( 0.003999999999999999216, 0.0000000000000000000, 0.0000000000000000000 ) ) ;
#189 =( LENGTH_UNIT ( ) NAMED_UNIT ( * ) SI_UNIT ( $, .METRE. ) );
#190 = EDGE_CURVE ( 'NONE', #5, #197, #147, .T. ) ;
#191 = DIRECTION ( 'NONE',  ( 1.000000000000000000, 0.0000000000000000000, -0.0000000000000000000 ) ) ;
#192 = PRODUCT_RELATED_PRODUCT_CATEGORY ( 'part', '', ( #167 ) ) ;
#193 = ORIENTED_EDGE ( 'NONE', *, *, #201, .F. ) ;
#194 = ORIENTED_EDGE ( 'NONE', *, *, #88, .T. ) ;
#195 =( GEOMETRIC_REPRESENTATION_CONTEXT ( 3 ) GLOBAL_UNCERTAINTY_ASSIGNED_CONTEXT ( ( #19 ) ) GLOBAL_UNIT_ASSIGNED_CONTEXT ( ( #70, #163, #7 ) ) REPRESENTATION_CONTEXT ( 'NONE', 'WORKASPACE' ) );
#196 = VERTEX_POINT ( 'NONE', #246 ) ;
#197 = VERTEX_POINT ( 'NONE', #73 ) ;
#198 = ORIENTED_EDGE ( 'NONE', *, *, #11, .F. ) ;
#199 = AXIS2_PLACEMENT_3D ( 'NONE', #148, #91, #249 ) ;
#200 = CARTESIAN_POINT ( 'NONE',  ( 0.0000000000000000000, 0.0000000000000000000, 2.573915501338057688 ) ) ;
#201 = EDGE_CURVE ( 'NONE', #76, #234, #245, .T. ) ;
#202 = DIMENSIONAL_EXPONENTS ( 1.000000000000000000, 0.0000000000000000000, 0.0000000000000000000, 0.0000000000000000000, 0.0000000000000000000, 0.0000000000000000000, 0.0000000000000000000 ) ;
#203 = DIRECTION ( 'NONE',  ( 0.5000000000000012212, 0.0000000000000000000, 0.8660254037844377084 ) ) ;
#204 =( NAMED_UNIT ( * ) SI_UNIT ( $, .STERADIAN. ) SOLID_ANGLE_UNIT ( ) );
#205 = CARTESIAN_POINT ( 'NONE',  ( 0.003999999999999999216, 0.0000000000000000000, 3.000000000000000444 ) ) ;
#206 = CARTESIAN_POINT ( 'NONE',  ( 0.0000000000000000000, 0.0000000000000000000, 0.0000000000000000000 ) ) ;
#207 = DIRECTION ( 'NONE',  ( -1.000000000000000000, 0.0000000000000000000, 0.0000000000000000000 ) ) ;
#208 = DIRECTION ( 'NONE',  ( 0.5000000000000012212, 0.0000000000000000000, -0.8660254037844377084 ) ) ;
#209 = AXIS2_PLACEMENT_3D ( 'NONE', #200, #185, #8 ) ;
#210 = DIRECTION ( 'NONE',  ( 0.0000000000000000000, 0.0000000000000000000, -1.000000000000000000 ) ) ;
#211 = CYLINDRICAL_SURFACE ( 'NONE', #111, 0.2500000000000000000 ) ;
#212 = VECTOR ( 'NONE', #223, 39.37007874015748143 ) ;
#213 = EDGE_LOOP ( 'NONE', ( #80, #64, #82, #193 ) ) ;
#214 = ORIENTED_EDGE ( 'NONE', *, *, #11, .T. ) ;
#215 = EDGE_CURVE ( 'NONE', #197, #196, #18, .T. ) ;
#216 = EDGE_LOOP ( 'NONE', ( #38, #177, #115, #99 ) ) ;
#217 = ORIENTED_EDGE ( 'NONE', *, *, #230, .T. ) ;
#218 = DIRECTION ( 'NONE',  ( 0.0000000000000000000, 0.0000000000000000000, 1.000000000000000000 ) ) ;
#219 = AXIS2_PLACEMENT_3D ( 'NONE', #41, #239, #184 ) ;
#220 = DIRECTION ( 'NONE',  ( 0.0000000000000000000, 0.0000000000000000000, -1.000000000000000000 ) ) ;
#221 = DIMENSIONAL_EXPONENTS ( 1.000000000000000000, 0.0000000000000000000, 0.0000000000000000000, 0.0000000000000000000, 0.0000000000000000000, 0.0000000000000000000, 0.0000000000000000000 ) ;
#222 = CARTESIAN_POINT ( 'NONE',  ( 0.0000000000000000000, 0.0000000000000000000, 0.0000000000000000000 ) ) ;
#223 = DIRECTION ( 'NONE',  ( -0.0000000000000000000, -0.0000000000000000000, -1.000000000000000000 ) ) ;
#224 = AXIS2_PLACEMENT_3D ( 'NONE', #25, #107, #120 ) ;
#225 = CARTESIAN_POINT ( 'NONE',  ( 0.2500000000000000000, 3.061616997868382402E-17, 2.573915501338057688 ) ) ;
#226 = ADVANCED_FACE ( 'NONE', ( #231 ), #113, .T. ) ;
#227 = DIRECTION ( 'NONE',  ( -1.000000000000000000, 0.0000000000000000000, 0.0000000000000000000 ) ) ;
#228 = CONICAL_SURFACE ( 'NONE', #98, 0.003999999999999999216, 0.5235987755983003700 ) ;
#229 = PLANE ( 'NONE',  #199 ) ;
#230 = EDGE_CURVE ( 'NONE', #136, #173, #183, .T. ) ;
#231 = FACE_OUTER_BOUND ( 'NONE', #216, .T. ) ;
#232 = CIRCLE ( 'NONE', #2, 0.003999999999999999216 ) ;
#233 = SURFACE_SIDE_STYLE ('',( #176 ) ) ;
#234 = VERTEX_POINT ( 'NONE', #225 ) ;
#235 = ADVANCED_FACE ( 'NONE', ( #32 ), #211, .T. ) ;
#236 = EDGE_LOOP ( 'NONE', ( #217, #237 ) ) ;
#237 = ORIENTED_EDGE ( 'NONE', *, *, #110, .T. ) ;
#238 = EDGE_LOOP ( 'NONE', ( #194, #100, #101, #133 ) ) ;
#239 = DIRECTION ( 'NONE',  ( 0.0000000000000000000, 0.0000000000000000000, -1.000000000000000000 ) ) ;
#240 = COLOUR_RGB ( '',0.7921568627450980005, 0.8196078431372548767, 0.9333333333333333481 ) ;
#241 = DIRECTION ( 'NONE',  ( 1.000000000000000000, 0.0000000000000000000, 0.0000000000000000000 ) ) ;
#242 = SURFACE_STYLE_USAGE ( .BOTH. , #180 ) ;
#243 = CIRCLE ( 'NONE', #219, 0.2500000000000000000 ) ;
#244 = FACE_OUTER_BOUND ( 'NONE', #40, .T. ) ;
#245 = LINE ( 'NONE', #126, #90 ) ;
#246 = CARTESIAN_POINT ( 'NONE',  ( 0.2500000000000000000, 3.061616997868382402E-17, 0.4260844986619422570 ) ) ;
#247 = VECTOR ( 'NONE', #52, 39.37007874015748854 ) ;
#248 = ADVANCED_FACE ( 'NONE', ( #130 ), #228, .T. ) ;
#249 = DIRECTION ( 'NONE',  ( 1.000000000000000000, 0.0000000000000000000, -0.0000000000000000000 ) ) ;
ENDSEC;
END-ISO-10303-21;
