ISO-10303-21;
HEADER;
FILE_DESCRIPTION (( 'STEP AP214' ),
    '1' );
FILE_NAME ('01242.STEP',
    '2023-06-22T14:23:43',
    ( '' ),
    ( '' ),
    'SwSTEP 2.0',
    'SolidWorks 2023',
    '' );
FILE_SCHEMA (( 'AUTOMOTIVE_DESIGN' ));
ENDSEC;

DATA;
#1 = PRESENTATION_LAYER_ASSIGNMENT (  '', '', ( #258 ) ) ;
#2 = SURFACE_STYLE_USAGE ( .BOTH. , #94 ) ;
#3 =( GEOMETRIC_REPRESENTATION_CONTEXT ( 3 ) GLOBAL_UNCERTAINTY_ASSIGNED_CONTEXT ( ( #196 ) ) GLOBAL_UNIT_ASSIGNED_CONTEXT ( ( #248, #303, #205 ) ) REPRESENTATION_CONTEXT ( 'NONE', 'WORKASPACE' ) );
#4 = FACE_OUTER_BOUND ( 'NONE', #244, .T. ) ;
#5 = UNCERTAINTY_MEASURE_WITH_UNIT (LENGTH_MEASURE( 1.000000000000000082E-05 ), #182, 'distance_accuracy_value', 'NONE');
#6 = LENGTH_MEASURE_WITH_UNIT ( LENGTH_MEASURE( 0.02539999999999999897 ), #55 );
#7 = VERTEX_POINT ( 'NONE', #103 ) ;
#8 = ORIENTED_EDGE ( 'NONE', *, *, #233, .T. ) ;
#9 = ORIENTED_EDGE ( 'NONE', *, *, #27, .F. ) ;
#10 = LINE ( 'NONE', #166, #111 ) ;
#11 = PRESENTATION_STYLE_ASSIGNMENT (( #155 ) ) ;
#12 = AXIS2_PLACEMENT_3D ( 'NONE', #32, #56, #34 ) ;
#13 =( GEOMETRIC_REPRESENTATION_CONTEXT ( 3 ) GLOBAL_UNCERTAINTY_ASSIGNED_CONTEXT ( ( #149 ) ) GLOBAL_UNIT_ASSIGNED_CONTEXT ( ( #92, #50, #215 ) ) REPRESENTATION_CONTEXT ( 'NONE', 'WORKASPACE' ) );
#14 = LENGTH_MEASURE_WITH_UNIT ( LENGTH_MEASURE( 0.02539999999999999897 ), #39 );
#15 = DIRECTION ( 'NONE',  ( 7.837739514543064125E-17, 1.000000000000000000, -0.000000000000000000 ) ) ;
#16 = DIRECTION ( 'NONE',  ( -0.000000000000000000, -1.000000000000000000, -0.000000000000000000 ) ) ;
#17 = FACE_OUTER_BOUND ( 'NONE', #52, .T. ) ;
#18 = CARTESIAN_POINT ( 'NONE',  ( 1.913510623667739463E-17, 0.000000000000000000, 0.1562500000000000000 ) ) ;
#19 = PRODUCT ( '01242', '01242', '', ( #285 ) ) ;
#20 = FILL_AREA_STYLE ('',( #251 ) ) ;
#21 = CARTESIAN_POINT ( 'NONE',  ( 0.000000000000000000, 0.000000000000000000, 0.000000000000000000 ) ) ;
#22 = MECHANICAL_DESIGN_GEOMETRIC_PRESENTATION_REPRESENTATION (  '', ( #72 ), #63 ) ;
#23 = AXIS2_PLACEMENT_3D ( 'NONE', #277, #62, #66 ) ;
#24 = FILL_AREA_STYLE_COLOUR ( '', #299 ) ;
#25 = ADVANCED_FACE ( 'NONE', ( #216 ), #171, .T. ) ;
#26 = FACE_OUTER_BOUND ( 'NONE', #124, .T. ) ;
#27 = EDGE_CURVE ( 'NONE', #197, #268, #290, .T. ) ;
#28 = ORIENTED_EDGE ( 'NONE', *, *, #304, .T. ) ;
#29 = COLOUR_RGB ( '',1.000000000000000000, 0.000000000000000000, 0.000000000000000000 ) ;
#30 = FILL_AREA_STYLE ('',( #144 ) ) ;
#31 =( LENGTH_UNIT ( ) NAMED_UNIT ( * ) SI_UNIT ( $, .METRE. ) );
#32 = CARTESIAN_POINT ( 'NONE',  ( 0.000000000000000000, 0.000000000000000000, 0.000000000000000000 ) ) ;
#33 = CARTESIAN_POINT ( 'NONE',  ( 0.000000000000000000, 0.000000000000000000, 0.000000000000000000 ) ) ;
#34 = DIRECTION ( 'NONE',  ( 0.000000000000000000, 0.000000000000000000, -1.000000000000000000 ) ) ;
#35 = DIRECTION ( 'NONE',  ( 7.837739514543064125E-17, 1.000000000000000000, -0.000000000000000000 ) ) ;
#36 = PRESENTATION_LAYER_ASSIGNMENT (  '', '', ( #223 ) ) ;
#37 = EDGE_LOOP ( 'NONE', ( #222, #8, #140, #9 ) ) ;
#38 =( NAMED_UNIT ( * ) SI_UNIT ( $, .STERADIAN. ) SOLID_ANGLE_UNIT ( ) );
#39 =( LENGTH_UNIT ( ) NAMED_UNIT ( * ) SI_UNIT ( $, .METRE. ) );
#40 = LINE ( 'NONE', #228, #200 ) ;
#41 = SURFACE_SIDE_STYLE ('',( #153 ) ) ;
#42 = MECHANICAL_DESIGN_GEOMETRIC_PRESENTATION_REPRESENTATION (  '', ( #258 ), #3 ) ;
#43 = SURFACE_STYLE_USAGE ( .BOTH. , #165 ) ;
#44 = DIRECTION ( 'NONE',  ( -0.000000000000000000, -1.000000000000000000, -0.000000000000000000 ) ) ;
#45 = CARTESIAN_POINT ( 'NONE',  ( 0.1562500000000000000, 2.000000000000000000, 0.000000000000000000 ) ) ;
#46 = ADVANCED_FACE ( 'NONE', ( #4 ), #58, .T. ) ;
#47 = AXIS2_PLACEMENT_3D ( 'NONE', #45, #85, #136 ) ;
#48 = DIRECTION ( 'NONE',  ( 7.837739514543064125E-17, 1.000000000000000000, -0.000000000000000000 ) ) ;
#49 =( LENGTH_UNIT ( ) NAMED_UNIT ( * ) SI_UNIT ( $, .METRE. ) );
#50 =( NAMED_UNIT ( * ) PLANE_ANGLE_UNIT ( ) SI_UNIT ( $, .RADIAN. ) );
#51 =( CONVERSION_BASED_UNIT ( 'INCH', #259 ) LENGTH_UNIT ( ) NAMED_UNIT ( #185 ) );
#52 = EDGE_LOOP ( 'NONE', ( #99, #291 ) ) ;
#53 = AXIS2_PLACEMENT_3D ( 'NONE', #33, #57, #245 ) ;
#54 = ORIENTED_EDGE ( 'NONE', *, *, #27, .T. ) ;
#55 =( LENGTH_UNIT ( ) NAMED_UNIT ( * ) SI_UNIT ( $, .METRE. ) );
#56 = DIRECTION ( 'NONE',  ( -0.000000000000000000, -1.000000000000000000, -0.000000000000000000 ) ) ;
#57 = DIRECTION ( 'NONE',  ( -0.000000000000000000, -1.000000000000000000, -0.000000000000000000 ) ) ;
#58 = PLANE ( 'NONE',  #186 ) ;
#59 = AXIS2_PLACEMENT_3D ( 'NONE', #67, #15, #158 ) ;
#60 = DIRECTION ( 'NONE',  ( 0.000000000000000000, 0.000000000000000000, -1.000000000000000000 ) ) ;
#61 = FILL_AREA_STYLE ('',( #68 ) ) ;
#62 = DIRECTION ( 'NONE',  ( -0.000000000000000000, -1.000000000000000000, -0.000000000000000000 ) ) ;
#63 =( GEOMETRIC_REPRESENTATION_CONTEXT ( 3 ) GLOBAL_UNCERTAINTY_ASSIGNED_CONTEXT ( ( #170 ) ) GLOBAL_UNIT_ASSIGNED_CONTEXT ( ( #301, #184, #130 ) ) REPRESENTATION_CONTEXT ( 'NONE', 'WORKASPACE' ) );
#64 = PRODUCT_DEFINITION_FORMATION_WITH_SPECIFIED_SOURCE ( 'ANY', '', #19, .NOT_KNOWN. ) ;
#65 = DIRECTION ( 'NONE',  ( 0.000000000000000000, -1.000000000000000000, -0.000000000000000000 ) ) ;
#66 = DIRECTION ( 'NONE',  ( 0.000000000000000000, 0.000000000000000000, -1.000000000000000000 ) ) ;
#67 = CARTESIAN_POINT ( 'NONE',  ( 0.000000000000000000, 0.4374999999999998890, 0.000000000000000000 ) ) ;
#68 = FILL_AREA_STYLE_COLOUR ( '', #145 ) ;
#69 = APPLICATION_CONTEXT ( 'automotive_design' ) ;
#70 = APPLICATION_PROTOCOL_DEFINITION ( 'draft international standard', 'automotive_design', 1998, #296 ) ;
#71 = DIRECTION ( 'NONE',  ( -0.000000000000000000, -1.000000000000000000, -0.000000000000000000 ) ) ;
#72 = STYLED_ITEM ( 'NONE', ( #250 ), #147 ) ;
#73 = FILL_AREA_STYLE_COLOUR ( '', #114 ) ;
#74 = APPLICATION_PROTOCOL_DEFINITION ( 'draft international standard', 'automotive_design', 1998, #69 ) ;
#75 = PRESENTATION_LAYER_ASSIGNMENT (  '', '', ( #115 ) ) ;
#76 = ORIENTED_EDGE ( 'NONE', *, *, #161, .T. ) ;
#77 = FILL_AREA_STYLE_COLOUR ( '', #29 ) ;
#78 = ORIENTED_EDGE ( 'NONE', *, *, #164, .F. ) ;
#79 = ORIENTED_EDGE ( 'NONE', *, *, #152, .T. ) ;
#80 = PRESENTATION_LAYER_ASSIGNMENT (  '', '', ( #128 ) ) ;
#81 = VERTEX_POINT ( 'NONE', #108 ) ;
#82 =( CONVERSION_BASED_UNIT ( 'INCH', #6 ) LENGTH_UNIT ( ) NAMED_UNIT ( #180 ) );
#83 = SURFACE_STYLE_FILL_AREA ( #125 ) ;
#84 = MECHANICAL_DESIGN_GEOMETRIC_PRESENTATION_REPRESENTATION (  '', ( #128 ), #13 ) ;
#85 = DIRECTION ( 'NONE',  ( -7.837739514543064125E-17, -1.000000000000000000, 0.000000000000000000 ) ) ;
#86 = DIRECTION ( 'NONE',  ( 0.000000000000000000, 0.000000000000000000, -1.000000000000000000 ) ) ;
#87 = FILL_AREA_STYLE ('',( #24 ) ) ;
#88 = CLOSED_SHELL ( 'NONE', ( #257, #147, #96, #46 ) ) ;
#89 =( LENGTH_UNIT ( ) NAMED_UNIT ( * ) SI_UNIT ( $, .METRE. ) );
#90 = EDGE_CURVE ( 'NONE', #270, #81, #117, .T. ) ;
#91 = SURFACE_STYLE_FILL_AREA ( #87 ) ;
#92 =( CONVERSION_BASED_UNIT ( 'INCH', #162 ) LENGTH_UNIT ( ) NAMED_UNIT ( #276 ) );
#93 = DIRECTION ( 'NONE',  ( 0.000000000000000000, 0.000000000000000000, 1.000000000000000000 ) ) ;
#94 = SURFACE_SIDE_STYLE ('',( #139 ) ) ;
#95 =( GEOMETRIC_REPRESENTATION_CONTEXT ( 3 ) GLOBAL_UNCERTAINTY_ASSIGNED_CONTEXT ( ( #191 ) ) GLOBAL_UNIT_ASSIGNED_CONTEXT ( ( #263, #295, #38 ) ) REPRESENTATION_CONTEXT ( 'NONE', 'WORKASPACE' ) );
#96 = ADVANCED_FACE ( 'NONE', ( #131 ), #112, .T. ) ;
#97 = SURFACE_STYLE_FILL_AREA ( #30 ) ;
#98 = DIRECTION ( 'NONE',  ( 7.837739514543064125E-17, 1.000000000000000000, -0.000000000000000000 ) ) ;
#99 = ORIENTED_EDGE ( 'NONE', *, *, #90, .T. ) ;
#100 = ORIENTED_EDGE ( 'NONE', *, *, #233, .F. ) ;
#101 = FACE_OUTER_BOUND ( 'NONE', #265, .T. ) ;
#102 = CIRCLE ( 'NONE', #59, 0.1562500000000000000 ) ;
#103 = CARTESIAN_POINT ( 'NONE',  ( 1.913510623667739463E-17, 0.4374999999999998890, 0.1562500000000000000 ) ) ;
#104 = SURFACE_STYLE_FILL_AREA ( #20 ) ;
#105 = ADVANCED_FACE ( 'NONE', ( #151 ), #150, .F. ) ;
#106 = AXIS2_PLACEMENT_3D ( 'NONE', #293, #122, #289 ) ;
#107 = PRODUCT_DEFINITION ( 'UNKNOWN', '', #64, #226 ) ;
#108 = CARTESIAN_POINT ( 'NONE',  ( 0.1562500000000000000, 2.000000000000000000, 1.913510623667738847E-17 ) ) ;
#109 = DIRECTION ( 'NONE',  ( 7.837739514543064125E-17, 1.000000000000000000, -0.000000000000000000 ) ) ;
#110 = CARTESIAN_POINT ( 'NONE',  ( 1.224646799147353700E-16, 2.000000000000000000, 0.000000000000000000 ) ) ;
#111 = VECTOR ( 'NONE', #98, 39.37007874015748143 ) ;
#112 = CYLINDRICAL_SURFACE ( 'NONE', #193, 0.1562500000000000000 ) ;
#113 = DIRECTION ( 'NONE',  ( 7.837739514543064125E-17, 1.000000000000000000, -0.000000000000000000 ) ) ;
#114 = COLOUR_RGB ( '',0.7921568627450980005, 0.8196078431372548767, 0.9333333333333333481 ) ;
#115 = STYLED_ITEM ( 'NONE', ( #11 ), #96 ) ;
#116 = ORIENTED_EDGE ( 'NONE', *, *, #304, .F. ) ;
#117 = CIRCLE ( 'NONE', #154, 0.1562499999999998612 ) ;
#118 = PRESENTATION_STYLE_ASSIGNMENT (( #172 ) ) ;
#119 = MECHANICAL_DESIGN_GEOMETRIC_PRESENTATION_REPRESENTATION (  '', ( #256 ), #187 ) ;
#120 = ORIENTED_EDGE ( 'NONE', *, *, #221, .T. ) ;
#121 = ORIENTED_EDGE ( 'NONE', *, *, #266, .F. ) ;
#122 = DIRECTION ( 'NONE',  ( -0.000000000000000000, -1.000000000000000000, -0.000000000000000000 ) ) ;
#123 =( GEOMETRIC_REPRESENTATION_CONTEXT ( 3 ) GLOBAL_UNCERTAINTY_ASSIGNED_CONTEXT ( ( #5 ) ) GLOBAL_UNIT_ASSIGNED_CONTEXT ( ( #182, #178, #274 ) ) REPRESENTATION_CONTEXT ( 'NONE', 'WORKASPACE' ) );
#124 = EDGE_LOOP ( 'NONE', ( #121, #79, #260, #78 ) ) ;
#125 = FILL_AREA_STYLE ('',( #77 ) ) ;
#126 = UNCERTAINTY_MEASURE_WITH_UNIT (LENGTH_MEASURE( 1.000000000000000082E-05 ), #82, 'distance_accuracy_value', 'NONE');
#127 = DIRECTION ( 'NONE',  ( 7.837739514543064125E-17, 1.000000000000000000, -0.000000000000000000 ) ) ;
#128 = STYLED_ITEM ( 'NONE', ( #280 ), #243 ) ;
#129 = CARTESIAN_POINT ( 'NONE',  ( 4.799231304517948929E-34, 0.4374999999999998890, 0.000000000000000000 ) ) ;
#130 =( NAMED_UNIT ( * ) SI_UNIT ( $, .STERADIAN. ) SOLID_ANGLE_UNIT ( ) );
#131 = FACE_OUTER_BOUND ( 'NONE', #37, .T. ) ;
#132 = SURFACE_STYLE_USAGE ( .BOTH. , #181 ) ;
#133 = DIRECTION ( 'NONE',  ( -1.000000000000000000, 0.000000000000000000, 0.000000000000000000 ) ) ;
#134 = CIRCLE ( 'NONE', #23, 0.1562500000000000000 ) ;
#135 = DIMENSIONAL_EXPONENTS ( 1.000000000000000000, 0.000000000000000000, 0.000000000000000000, 0.000000000000000000, 0.000000000000000000, 0.000000000000000000, 0.000000000000000000 ) ;
#136 = DIRECTION ( 'NONE',  ( 1.000000000000000000, -7.837739514543064125E-17, 0.000000000000000000 ) ) ;
#137 = PRESENTATION_LAYER_ASSIGNMENT (  '', '', ( #72 ) ) ;
#138 = EDGE_CURVE ( 'NONE', #241, #268, #40, .T. ) ;
#139 = SURFACE_STYLE_FILL_AREA ( #213 ) ;
#140 = ORIENTED_EDGE ( 'NONE', *, *, #138, .T. ) ;
#141 = CARTESIAN_POINT ( 'NONE',  ( 1.224646799147353700E-16, 2.000000000000000000, 0.000000000000000000 ) ) ;
#142 = VERTEX_POINT ( 'NONE', #254 ) ;
#143 = SURFACE_SIDE_STYLE ('',( #83 ) ) ;
#144 = FILL_AREA_STYLE_COLOUR ( '', #238 ) ;
#145 = COLOUR_RGB ( '',1.000000000000000000, 0.000000000000000000, 0.000000000000000000 ) ;
#146 = AXIS2_PLACEMENT_3D ( 'NONE', #206, #113, #133 ) ;
#147 = ADVANCED_FACE ( 'NONE', ( #309 ), #282, .T. ) ;
#148 = CARTESIAN_POINT ( 'NONE',  ( 0.000000000000000000, 0.000000000000000000, 0.000000000000000000 ) ) ;
#149 = UNCERTAINTY_MEASURE_WITH_UNIT (LENGTH_MEASURE( 1.000000000000000082E-05 ), #92, 'distance_accuracy_value', 'NONE');
#150 = PLANE ( 'NONE',  #286 ) ;
#151 = FACE_OUTER_BOUND ( 'NONE', #262, .T. ) ;
#152 = EDGE_CURVE ( 'NONE', #199, #142, #102, .T. ) ;
#153 = SURFACE_STYLE_FILL_AREA ( #61 ) ;
#154 = AXIS2_PLACEMENT_3D ( 'NONE', #173, #203, #225 ) ;
#155 = SURFACE_STYLE_USAGE ( .BOTH. , #307 ) ;
#156 = CARTESIAN_POINT ( 'NONE',  ( 0.000000000000000000, 0.000000000000000000, 0.000000000000000000 ) ) ;
#157 = CARTESIAN_POINT ( 'NONE',  ( 1.224646799147353700E-16, 2.000000000000000000, 0.000000000000000000 ) ) ;
#158 = DIRECTION ( 'NONE',  ( -1.000000000000000000, 0.000000000000000000, 0.000000000000000000 ) ) ;
#159 = MECHANICAL_DESIGN_GEOMETRIC_PRESENTATION_REPRESENTATION (  '', ( #223 ), #236 ) ;
#160 = PRESENTATION_STYLE_ASSIGNMENT (( #2 ) ) ;
#161 = EDGE_CURVE ( 'NONE', #142, #199, #235, .T. ) ;
#162 = LENGTH_MEASURE_WITH_UNIT ( LENGTH_MEASURE( 0.02539999999999999897 ), #49 );
#163 = ORIENTED_EDGE ( 'NONE', *, *, #266, .T. ) ;
#164 = EDGE_CURVE ( 'NONE', #81, #270, #201, .T. ) ;
#165 = SURFACE_SIDE_STYLE ('',( #97 ) ) ;
#166 = CARTESIAN_POINT ( 'NONE',  ( 0.1562500000000000833, 2.000000000000000000, 1.913510623667738539E-17 ) ) ;
#167 = COLOUR_RGB ( '',1.000000000000000000, 0.000000000000000000, 0.000000000000000000 ) ;
#168 = ORIENTED_EDGE ( 'NONE', *, *, #161, .F. ) ;
#169 =( NAMED_UNIT ( * ) PLANE_ANGLE_UNIT ( ) SI_UNIT ( $, .RADIAN. ) );
#170 = UNCERTAINTY_MEASURE_WITH_UNIT (LENGTH_MEASURE( 1.000000000000000082E-05 ), #301, 'distance_accuracy_value', 'NONE');
#171 = CYLINDRICAL_SURFACE ( 'NONE', #175, 0.1562499999999999445 ) ;
#172 = SURFACE_STYLE_USAGE ( .BOTH. , #143 ) ;
#173 = CARTESIAN_POINT ( 'NONE',  ( 1.224646799147353700E-16, 2.000000000000000000, 0.000000000000000000 ) ) ;
#174 = CARTESIAN_POINT ( 'NONE',  ( -0.1562499999999997224, 2.000000000000000000, 0.000000000000000000 ) ) ;
#175 = AXIS2_PLACEMENT_3D ( 'NONE', #141, #294, #242 ) ;
#176 = LENGTH_MEASURE_WITH_UNIT ( LENGTH_MEASURE( 0.02539999999999999897 ), #89 );
#177 = DIRECTION ( 'NONE',  ( 0.000000000000000000, -0.000000000000000000, 1.000000000000000000 ) ) ;
#178 =( NAMED_UNIT ( * ) PLANE_ANGLE_UNIT ( ) SI_UNIT ( $, .RADIAN. ) );
#179 = CYLINDRICAL_SURFACE ( 'NONE', #300, 0.1562499999999999445 ) ;
#180 = DIMENSIONAL_EXPONENTS ( 1.000000000000000000, 0.000000000000000000, 0.000000000000000000, 0.000000000000000000, 0.000000000000000000, 0.000000000000000000, 0.000000000000000000 ) ;
#181 = SURFACE_SIDE_STYLE ('',( #91 ) ) ;
#182 =( CONVERSION_BASED_UNIT ( 'INCH', #176 ) LENGTH_UNIT ( ) NAMED_UNIT ( #306 ) );
#183 = DIRECTION ( 'NONE',  ( 0.000000000000000000, 0.000000000000000000, -1.000000000000000000 ) ) ;
#184 =( NAMED_UNIT ( * ) PLANE_ANGLE_UNIT ( ) SI_UNIT ( $, .RADIAN. ) );
#185 = DIMENSIONAL_EXPONENTS ( 1.000000000000000000, 0.000000000000000000, 0.000000000000000000, 0.000000000000000000, 0.000000000000000000, 0.000000000000000000, 0.000000000000000000 ) ;
#186 = AXIS2_PLACEMENT_3D ( 'NONE', #148, #65, #86 ) ;
#187 =( GEOMETRIC_REPRESENTATION_CONTEXT ( 3 ) GLOBAL_UNCERTAINTY_ASSIGNED_CONTEXT ( ( #126 ) ) GLOBAL_UNIT_ASSIGNED_CONTEXT ( ( #82, #195, #269 ) ) REPRESENTATION_CONTEXT ( 'NONE', 'WORKASPACE' ) );
#188 = AXIS2_PLACEMENT_3D ( 'NONE', #227, #229, #177 ) ;
#189 = CIRCLE ( 'NONE', #106, 0.1562500000000000000 ) ;
#190 = LINE ( 'NONE', #220, #240 ) ;
#191 = UNCERTAINTY_MEASURE_WITH_UNIT (LENGTH_MEASURE( 1.000000000000000082E-05 ), #263, 'distance_accuracy_value', 'NONE');
#192 = ORIENTED_EDGE ( 'NONE', *, *, #152, .F. ) ;
#193 = AXIS2_PLACEMENT_3D ( 'NONE', #156, #275, #60 ) ;
#194 = ORIENTED_EDGE ( 'NONE', *, *, #90, .F. ) ;
#195 =( NAMED_UNIT ( * ) PLANE_ANGLE_UNIT ( ) SI_UNIT ( $, .RADIAN. ) );
#196 = UNCERTAINTY_MEASURE_WITH_UNIT (LENGTH_MEASURE( 1.000000000000000082E-05 ), #248, 'distance_accuracy_value', 'NONE');
#197 = VERTEX_POINT ( 'NONE', #18 ) ;
#198 = CARTESIAN_POINT ( 'NONE',  ( 0.000000000000000000, 0.000000000000000000, -0.1562500000000000000 ) ) ;
#199 = VERTEX_POINT ( 'NONE', #204 ) ;
#200 = VECTOR ( 'NONE', #16, 39.37007874015748143 ) ;
#201 = CIRCLE ( 'NONE', #287, 0.1562499999999998612 ) ;
#202 = EDGE_CURVE ( 'NONE', #7, #197, #281, .T. ) ;
#203 = DIRECTION ( 'NONE',  ( 7.837739514543064125E-17, 1.000000000000000000, -0.000000000000000000 ) ) ;
#204 = CARTESIAN_POINT ( 'NONE',  ( 0.1562500000000000000, 0.4374999999999998890, 1.913510623667738847E-17 ) ) ;
#205 =( NAMED_UNIT ( * ) SI_UNIT ( $, .STERADIAN. ) SOLID_ANGLE_UNIT ( ) );
#206 = CARTESIAN_POINT ( 'NONE',  ( 0.000000000000000000, 0.4374999999999998890, 0.000000000000000000 ) ) ;
#207 = PRESENTATION_STYLE_ASSIGNMENT (( #43 ) ) ;
#208 = CYLINDRICAL_SURFACE ( 'NONE', #53, 0.1562500000000000000 ) ;
#209 = AXIS2_PLACEMENT_3D ( 'NONE', #231, #44, #183 ) ;
#210 = DIMENSIONAL_EXPONENTS ( 1.000000000000000000, 0.000000000000000000, 0.000000000000000000, 0.000000000000000000, 0.000000000000000000, 0.000000000000000000, 0.000000000000000000 ) ;
#211 = ADVANCED_FACE ( 'NONE', ( #17 ), #302, .F. ) ;
#212 = DIRECTION ( 'NONE',  ( -1.000000000000000000, 0.000000000000000000, 0.000000000000000000 ) ) ;
#213 = FILL_AREA_STYLE ('',( #73 ) ) ;
#214 = ADVANCED_FACE ( 'NONE', ( #26 ), #179, .T. ) ;
#215 =( NAMED_UNIT ( * ) SI_UNIT ( $, .STERADIAN. ) SOLID_ANGLE_UNIT ( ) );
#216 = FACE_OUTER_BOUND ( 'NONE', #224, .T. ) ;
#217 =( NAMED_UNIT ( * ) SI_UNIT ( $, .STERADIAN. ) SOLID_ANGLE_UNIT ( ) );
#218 = ORIENTED_EDGE ( 'NONE', *, *, #202, .T. ) ;
#219 = EDGE_LOOP ( 'NONE', ( #116, #100 ) ) ;
#220 = CARTESIAN_POINT ( 'NONE',  ( -0.1562499999999998057, 2.000000000000000000, 0.000000000000000000 ) ) ;
#221 = EDGE_CURVE ( 'NONE', #268, #197, #252, .T. ) ;
#222 = ORIENTED_EDGE ( 'NONE', *, *, #202, .F. ) ;
#223 = STYLED_ITEM ( 'NONE', ( #160 ), #247 ) ;
#224 = EDGE_LOOP ( 'NONE', ( #76, #163, #194, #239 ) ) ;
#225 = DIRECTION ( 'NONE',  ( -1.000000000000000000, 0.000000000000000000, 0.000000000000000000 ) ) ;
#226 = PRODUCT_DEFINITION_CONTEXT ( 'detailed design', #69, 'design' ) ;
#227 = CARTESIAN_POINT ( 'NONE',  ( 0.000000000000000000, 0.4374999999999998890, 0.000000000000000000 ) ) ;
#228 = CARTESIAN_POINT ( 'NONE',  ( 0.000000000000000000, 0.000000000000000000, -0.1562500000000000000 ) ) ;
#229 = DIRECTION ( 'NONE',  ( 0.000000000000000000, 1.000000000000000000, 0.000000000000000000 ) ) ;
#230 = DIMENSIONAL_EXPONENTS ( 1.000000000000000000, 0.000000000000000000, 0.000000000000000000, 0.000000000000000000, 0.000000000000000000, 0.000000000000000000, 0.000000000000000000 ) ;
#231 = CARTESIAN_POINT ( 'NONE',  ( 0.000000000000000000, 0.000000000000000000, 0.000000000000000000 ) ) ;
#232 = PRODUCT_DEFINITION_SHAPE ( 'NONE', 'NONE',  #107 ) ;
#233 = EDGE_CURVE ( 'NONE', #7, #241, #134, .T. ) ;
#234 = LENGTH_MEASURE_WITH_UNIT ( LENGTH_MEASURE( 0.02539999999999999897 ), #237 );
#235 = CIRCLE ( 'NONE', #146, 0.1562500000000000000 ) ;
#236 =( GEOMETRIC_REPRESENTATION_CONTEXT ( 3 ) GLOBAL_UNCERTAINTY_ASSIGNED_CONTEXT ( ( #273 ) ) GLOBAL_UNIT_ASSIGNED_CONTEXT ( ( #51, #169, #217 ) ) REPRESENTATION_CONTEXT ( 'NONE', 'WORKASPACE' ) );
#237 =( LENGTH_UNIT ( ) NAMED_UNIT ( * ) SI_UNIT ( $, .METRE. ) );
#238 = COLOUR_RGB ( '',1.000000000000000000, 0.000000000000000000, 0.000000000000000000 ) ;
#239 = ORIENTED_EDGE ( 'NONE', *, *, #279, .F. ) ;
#240 = VECTOR ( 'NONE', #35, 39.37007874015748143 ) ;
#241 = VERTEX_POINT ( 'NONE', #305 ) ;
#242 = DIRECTION ( 'NONE',  ( -1.000000000000000000, 0.000000000000000000, 0.000000000000000000 ) ) ;
#243 = MANIFOLD_SOLID_BREP ( 'Revolve - Tool Body (Straight Shanked)', #271 ) ;
#244 = EDGE_LOOP ( 'NONE', ( #120, #54 ) ) ;
#245 = DIRECTION ( 'NONE',  ( 0.000000000000000000, 0.000000000000000000, -1.000000000000000000 ) ) ;
#246 = ORIENTED_EDGE ( 'NONE', *, *, #221, .F. ) ;
#247 = MANIFOLD_SOLID_BREP ( 'Revolve - Cutting Edge', #88 ) ;
#248 =( CONVERSION_BASED_UNIT ( 'INCH', #14 ) LENGTH_UNIT ( ) NAMED_UNIT ( #230 ) );
#249 = DIRECTION ( 'NONE',  ( -1.000000000000000000, 7.837739514543064125E-17, 0.000000000000000000 ) ) ;
#250 = PRESENTATION_STYLE_ASSIGNMENT (( #253 ) ) ;
#251 = FILL_AREA_STYLE_COLOUR ( '', #167 ) ;
#252 = CIRCLE ( 'NONE', #209, 0.1562500000000000000 ) ;
#253 = SURFACE_STYLE_USAGE ( .BOTH. , #41 ) ;
#254 = CARTESIAN_POINT ( 'NONE',  ( -0.1562500000000000000, 0.4374999999999998890, 0.000000000000000000 ) ) ;
#255 = DIRECTION ( 'NONE',  ( -1.000000000000000000, 0.000000000000000000, 0.000000000000000000 ) ) ;
#256 = STYLED_ITEM ( 'NONE', ( #118 ), #257 ) ;
#257 = ADVANCED_FACE ( 'NONE', ( #101 ), #208, .T. ) ;
#258 = STYLED_ITEM ( 'NONE', ( #207 ), #46 ) ;
#259 = LENGTH_MEASURE_WITH_UNIT ( LENGTH_MEASURE( 0.02539999999999999897 ), #261 );
#260 = ORIENTED_EDGE ( 'NONE', *, *, #279, .T. ) ;
#261 =( LENGTH_UNIT ( ) NAMED_UNIT ( * ) SI_UNIT ( $, .METRE. ) );
#262 = EDGE_LOOP ( 'NONE', ( #168, #192 ) ) ;
#263 =( CONVERSION_BASED_UNIT ( 'INCH', #297 ) LENGTH_UNIT ( ) NAMED_UNIT ( #210 ) );
#264 = PRESENTATION_LAYER_ASSIGNMENT (  '', '', ( #256 ) ) ;
#265 = EDGE_LOOP ( 'NONE', ( #28, #218, #246, #288 ) ) ;
#266 = EDGE_CURVE ( 'NONE', #199, #81, #10, .T. ) ;
#267 = ADVANCED_BREP_SHAPE_REPRESENTATION ( '01242', ( #247, #243, #272 ), #95 ) ;
#268 = VERTEX_POINT ( 'NONE', #198 ) ;
#269 =( NAMED_UNIT ( * ) SI_UNIT ( $, .STERADIAN. ) SOLID_ANGLE_UNIT ( ) );
#270 = VERTEX_POINT ( 'NONE', #174 ) ;
#271 = CLOSED_SHELL ( 'NONE', ( #25, #105, #214, #211 ) ) ;
#272 = AXIS2_PLACEMENT_3D ( 'NONE', #21, #93, #284 ) ;
#273 = UNCERTAINTY_MEASURE_WITH_UNIT (LENGTH_MEASURE( 1.000000000000000082E-05 ), #51, 'distance_accuracy_value', 'NONE');
#274 =( NAMED_UNIT ( * ) SI_UNIT ( $, .STERADIAN. ) SOLID_ANGLE_UNIT ( ) );
#275 = DIRECTION ( 'NONE',  ( -0.000000000000000000, -1.000000000000000000, -0.000000000000000000 ) ) ;
#276 = DIMENSIONAL_EXPONENTS ( 1.000000000000000000, 0.000000000000000000, 0.000000000000000000, 0.000000000000000000, 0.000000000000000000, 0.000000000000000000, 0.000000000000000000 ) ;
#277 = CARTESIAN_POINT ( 'NONE',  ( 0.000000000000000000, 0.4374999999999998890, 0.000000000000000000 ) ) ;
#278 = VECTOR ( 'NONE', #71, 39.37007874015748143 ) ;
#279 = EDGE_CURVE ( 'NONE', #142, #270, #190, .T. ) ;
#280 = PRESENTATION_STYLE_ASSIGNMENT (( #132 ) ) ;
#281 = LINE ( 'NONE', #308, #278 ) ;
#282 = PLANE ( 'NONE',  #188 ) ;
#283 = SHAPE_DEFINITION_REPRESENTATION ( #232, #267 ) ;
#284 = DIRECTION ( 'NONE',  ( 1.000000000000000000, 0.000000000000000000, 0.000000000000000000 ) ) ;
#285 = PRODUCT_CONTEXT ( 'NONE', #296, 'mechanical' ) ;
#286 = AXIS2_PLACEMENT_3D ( 'NONE', #129, #127, #249 ) ;
#287 = AXIS2_PLACEMENT_3D ( 'NONE', #157, #48, #255 ) ;
#288 = ORIENTED_EDGE ( 'NONE', *, *, #138, .F. ) ;
#289 = DIRECTION ( 'NONE',  ( 0.000000000000000000, 0.000000000000000000, -1.000000000000000000 ) ) ;
#290 = CIRCLE ( 'NONE', #12, 0.1562500000000000000 ) ;
#291 = ORIENTED_EDGE ( 'NONE', *, *, #164, .T. ) ;
#292 = PRODUCT_RELATED_PRODUCT_CATEGORY ( 'part', '', ( #19 ) ) ;
#293 = CARTESIAN_POINT ( 'NONE',  ( 0.000000000000000000, 0.4374999999999998890, 0.000000000000000000 ) ) ;
#294 = DIRECTION ( 'NONE',  ( 7.837739514543064125E-17, 1.000000000000000000, -0.000000000000000000 ) ) ;
#295 =( NAMED_UNIT ( * ) PLANE_ANGLE_UNIT ( ) SI_UNIT ( $, .RADIAN. ) );
#296 = APPLICATION_CONTEXT ( 'automotive_design' ) ;
#297 = LENGTH_MEASURE_WITH_UNIT ( LENGTH_MEASURE( 0.02539999999999999897 ), #31 );
#298 = MECHANICAL_DESIGN_GEOMETRIC_PRESENTATION_REPRESENTATION (  '', ( #115 ), #123 ) ;
#299 = COLOUR_RGB ( '',0.7921568627450980005, 0.8196078431372548767, 0.9333333333333333481 ) ;
#300 = AXIS2_PLACEMENT_3D ( 'NONE', #110, #109, #212 ) ;
#301 =( CONVERSION_BASED_UNIT ( 'INCH', #234 ) LENGTH_UNIT ( ) NAMED_UNIT ( #135 ) );
#302 = PLANE ( 'NONE',  #47 ) ;
#303 =( NAMED_UNIT ( * ) PLANE_ANGLE_UNIT ( ) SI_UNIT ( $, .RADIAN. ) );
#304 = EDGE_CURVE ( 'NONE', #241, #7, #189, .T. ) ;
#305 = CARTESIAN_POINT ( 'NONE',  ( 0.000000000000000000, 0.4374999999999998890, -0.1562500000000000000 ) ) ;
#306 = DIMENSIONAL_EXPONENTS ( 1.000000000000000000, 0.000000000000000000, 0.000000000000000000, 0.000000000000000000, 0.000000000000000000, 0.000000000000000000, 0.000000000000000000 ) ;
#307 = SURFACE_SIDE_STYLE ('',( #104 ) ) ;
#308 = CARTESIAN_POINT ( 'NONE',  ( 1.913510623667739463E-17, 0.000000000000000000, 0.1562500000000000000 ) ) ;
#309 = FACE_OUTER_BOUND ( 'NONE', #219, .T. ) ;
ENDSEC;
END-ISO-10303-21;
