ISO-10303-21;
HEADER;
FILE_DESCRIPTION (( 'STEP AP214' ),
    '1' );
FILE_NAME ('Micro_SPD-250-082.STEP',
    '2021-09-03T21:20:17',
    ( '' ),
    ( '' ),
    'SwSTEP 2.0',
    'SolidWorks 2020',
    '' );
FILE_SCHEMA (( 'AUTOMOTIVE_DESIGN' ));
ENDSEC;

DATA;
#1 = LINE ( 'NONE', #268, #158 ) ;
#2 = ADVANCED_FACE ( 'NONE', ( #96 ), #121, .T. ) ;
#3 = AXIS2_PLACEMENT_3D ( 'NONE', #205, #74, #241 ) ;
#4 = PRODUCT ( 'Micro_SPD-250-082', 'Micro_SPD-250-082', '', ( #176 ) ) ;
#5 = DIMENSIONAL_EXPONENTS ( 1.000000000000000000, 0.0000000000000000000, 0.0000000000000000000, 0.0000000000000000000, 0.0000000000000000000, 0.0000000000000000000, 0.0000000000000000000 ) ;
#6 = EDGE_LOOP ( 'NONE', ( #297, #307, #186, #163 ) ) ;
#7 = APPLICATION_PROTOCOL_DEFINITION ( 'draft international standard', 'automotive_design', 1998, #277 ) ;
#8 = ORIENTED_EDGE ( 'NONE', *, *, #18, .T. ) ;
#9 = EDGE_CURVE ( 'NONE', #275, #14, #124, .T. ) ;
#10 = CARTESIAN_POINT ( 'NONE',  ( 0.0000000000000000000, 0.0000000000000000000, 2.500000000000000000 ) ) ;
#11 = AXIS2_PLACEMENT_3D ( 'NONE', #104, #215, #346 ) ;
#12 = VECTOR ( 'NONE', #48, 39.37007874015748143 ) ;
#13 = PRESENTATION_LAYER_ASSIGNMENT (  '', '', ( #162 ) ) ;
#14 = VERTEX_POINT ( 'NONE', #113 ) ;
#15 = EDGE_LOOP ( 'NONE', ( #272, #149, #108, #171 ) ) ;
#16 = UNCERTAINTY_MEASURE_WITH_UNIT (LENGTH_MEASURE( 1.000000000000000082E-05 ), #331, 'distance_accuracy_value', 'NONE');
#17 = DIRECTION ( 'NONE',  ( -1.000000000000000000, 0.0000000000000000000, 0.0000000000000000000 ) ) ;
#18 = EDGE_CURVE ( 'NONE', #34, #62, #116, .T. ) ;
#19 = CYLINDRICAL_SURFACE ( 'NONE', #239, 0.1249500000000000888 ) ;
#20 = DIRECTION ( 'NONE',  ( -1.000000000000000000, 0.0000000000000000000, 0.0000000000000000000 ) ) ;
#21 = FACE_OUTER_BOUND ( 'NONE', #197, .T. ) ;
#22 = CARTESIAN_POINT ( 'NONE',  ( -0.1100000000000002087, 0.0000000000000000000, 2.500000000000000000 ) ) ;
#23 = CIRCLE ( 'NONE', #93, 0.1250000000000000555 ) ;
#24 = DIRECTION ( 'NONE',  ( 1.000000000000000000, 0.0000000000000000000, 0.0000000000000000000 ) ) ;
#25 = ADVANCED_FACE ( 'NONE', ( #130 ), #170, .T. ) ;
#26 = SURFACE_STYLE_USAGE ( .BOTH. , #160 ) ;
#27 = FACE_OUTER_BOUND ( 'NONE', #58, .T. ) ;
#28 = AXIS2_PLACEMENT_3D ( 'NONE', #10, #169, #338 ) ;
#29 = AXIS2_PLACEMENT_3D ( 'NONE', #153, #234, #204 ) ;
#30 = LINE ( 'NONE', #159, #334 ) ;
#31 = ORIENTED_EDGE ( 'NONE', *, *, #236, .T. ) ;
#32 = FILL_AREA_STYLE ('',( #115 ) ) ;
#33 = ORIENTED_EDGE ( 'NONE', *, *, #184, .F. ) ;
#34 = VERTEX_POINT ( 'NONE', #284 ) ;
#35 = SURFACE_SIDE_STYLE ('',( #138 ) ) ;
#36 = ORIENTED_EDGE ( 'NONE', *, *, #184, .T. ) ;
#37 =( LENGTH_UNIT ( ) NAMED_UNIT ( * ) SI_UNIT ( $, .METRE. ) );
#38 = ORIENTED_EDGE ( 'NONE', *, *, #273, .F. ) ;
#39 = EDGE_CURVE ( 'NONE', #54, #89, #40, .T. ) ;
#40 = CIRCLE ( 'NONE', #3, 0.1100000000000002087 ) ;
#41 = CARTESIAN_POINT ( 'NONE',  ( 0.0000000000000000000, 0.0000000000000000000, 2.485000000000000320 ) ) ;
#42 = AXIS2_PLACEMENT_3D ( 'NONE', #349, #161, #164 ) ;
#43 = ORIENTED_EDGE ( 'NONE', *, *, #345, .F. ) ;
#44 = CYLINDRICAL_SURFACE ( 'NONE', #264, 0.1250000000000000555 ) ;
#45 = CARTESIAN_POINT ( 'NONE',  ( 0.0000000000000000000, 0.0000000000000000000, 0.0000000000000000000 ) ) ;
#46 = VECTOR ( 'NONE', #200, 39.37007874015748854 ) ;
#47 = VECTOR ( 'NONE', #291, 39.37007874015748143 ) ;
#48 = DIRECTION ( 'NONE',  ( -0.7071067811865507924, 0.0000000000000000000, -0.7071067811865443531 ) ) ;
#49 = CARTESIAN_POINT ( 'NONE',  ( 0.1100000000000002087, 1.438959988998141454E-17, 2.500000000000000000 ) ) ;
#50 = DIRECTION ( 'NONE',  ( -1.000000000000000000, 0.0000000000000000000, 0.0000000000000000000 ) ) ;
#51 = EDGE_CURVE ( 'NONE', #229, #14, #77, .T. ) ;
#52 =( LENGTH_UNIT ( ) NAMED_UNIT ( * ) SI_UNIT ( $, .METRE. ) );
#53 = DIRECTION ( 'NONE',  ( -0.0000000000000000000, -0.0000000000000000000, -1.000000000000000000 ) ) ;
#54 = VERTEX_POINT ( 'NONE', #49 ) ;
#55 = CARTESIAN_POINT ( 'NONE',  ( -0.1249500000000000610, 0.0000000000000000000, 0.1190056117270130026 ) ) ;
#56 = DIRECTION ( 'NONE',  ( 1.000000000000000000, 0.0000000000000000000, 0.0000000000000000000 ) ) ;
#57 = STYLED_ITEM ( 'NONE', ( #61 ), #242 ) ;
#58 = EDGE_LOOP ( 'NONE', ( #69, #189, #173, #255 ) ) ;
#59 = COLOUR_RGB ( '',0.7921568627450980005, 0.8196078431372548767, 0.9333333333333333481 ) ;
#60 = CARTESIAN_POINT ( 'NONE',  ( 0.0000000000000000000, 0.0000000000000000000, 0.0000000000000000000 ) ) ;
#61 = PRESENTATION_STYLE_ASSIGNMENT (( #248 ) ) ;
#62 = VERTEX_POINT ( 'NONE', #76 ) ;
#63 = VECTOR ( 'NONE', #323, 39.37007874015748143 ) ;
#64 = DIRECTION ( 'NONE',  ( 1.000000000000000000, 0.0000000000000000000, -0.0000000000000000000 ) ) ;
#65 = DIRECTION ( 'NONE',  ( -1.000000000000000000, 0.0000000000000000000, 0.0000000000000000000 ) ) ;
#66 = DIRECTION ( 'NONE',  ( -0.0000000000000000000, -0.0000000000000000000, -1.000000000000000000 ) ) ;
#67 = ORIENTED_EDGE ( 'NONE', *, *, #326, .T. ) ;
#68 =( NAMED_UNIT ( * ) PLANE_ANGLE_UNIT ( ) SI_UNIT ( $, .RADIAN. ) );
#69 = ORIENTED_EDGE ( 'NONE', *, *, #18, .F. ) ;
#70 = CIRCLE ( 'NONE', #11, 0.02149999999999999481 ) ;
#71 = DIRECTION ( 'NONE',  ( 0.7071067811865551223, 0.0000000000000000000, 0.7071067811865398012 ) ) ;
#72 = DIRECTION ( 'NONE',  ( 0.6560590289905088301, 0.0000000000000000000, 0.7547095802227706818 ) ) ;
#73 = ADVANCED_FACE ( 'NONE', ( #263 ), #152, .T. ) ;
#74 = DIRECTION ( 'NONE',  ( 0.0000000000000000000, 0.0000000000000000000, 1.000000000000000000 ) ) ;
#75 = VECTOR ( 'NONE', #71, 39.37007874015748854 ) ;
#76 = CARTESIAN_POINT ( 'NONE',  ( -0.1250000000000000555, 0.0000000000000000000, 0.7500499999999999945 ) ) ;
#77 = LINE ( 'NONE', #126, #219 ) ;
#78 = EDGE_CURVE ( 'NONE', #54, #109, #97, .T. ) ;
#79 = CARTESIAN_POINT ( 'NONE',  ( 0.0000000000000000000, 0.0000000000000000000, 0.0000000000000000000 ) ) ;
#80 = EDGE_CURVE ( 'NONE', #89, #172, #156, .T. ) ;
#81 = DIRECTION ( 'NONE',  ( -0.0000000000000000000, -0.0000000000000000000, -1.000000000000000000 ) ) ;
#82 = CARTESIAN_POINT ( 'NONE',  ( 0.02149999999999999481, 0.0000000000000000000, 0.0000000000000000000 ) ) ;
#83 = DIRECTION ( 'NONE',  ( -0.0000000000000000000, -0.0000000000000000000, -1.000000000000000000 ) ) ;
#84 = CIRCLE ( 'NONE', #217, 0.1249500000000000610 ) ;
#85 = ORIENTED_EDGE ( 'NONE', *, *, #274, .T. ) ;
#86 =( NAMED_UNIT ( * ) PLANE_ANGLE_UNIT ( ) SI_UNIT ( $, .RADIAN. ) );
#87 = LENGTH_MEASURE_WITH_UNIT ( LENGTH_MEASURE( 0.02539999999999999897 ), #37 );
#88 = DIMENSIONAL_EXPONENTS ( 1.000000000000000000, 0.0000000000000000000, 0.0000000000000000000, 0.0000000000000000000, 0.0000000000000000000, 0.0000000000000000000, 0.0000000000000000000 ) ;
#89 = VERTEX_POINT ( 'NONE', #22 ) ;
#90 = DIRECTION ( 'NONE',  ( 0.0000000000000000000, 0.0000000000000000000, -1.000000000000000000 ) ) ;
#91 = ORIENTED_EDGE ( 'NONE', *, *, #223, .T. ) ;
#92 = APPLICATION_CONTEXT ( 'automotive_design' ) ;
#93 = AXIS2_PLACEMENT_3D ( 'NONE', #289, #131, #24 ) ;
#94 = PLANE ( 'NONE',  #260 ) ;
#95 = ORIENTED_EDGE ( 'NONE', *, *, #274, .F. ) ;
#96 = FACE_OUTER_BOUND ( 'NONE', #335, .T. ) ;
#97 = LINE ( 'NONE', #180, #140 ) ;
#98 = DIRECTION ( 'NONE',  ( 1.000000000000000000, 0.0000000000000000000, 0.0000000000000000000 ) ) ;
#99 = CARTESIAN_POINT ( 'NONE',  ( 0.0000000000000000000, 0.0000000000000000000, 2.500000000000000000 ) ) ;
#100 = CYLINDRICAL_SURFACE ( 'NONE', #168, 0.1249500000000000888 ) ;
#101 = ADVANCED_FACE ( 'NONE', ( #122 ), #100, .T. ) ;
#102 = CIRCLE ( 'NONE', #302, 0.1250000000000000555 ) ;
#103 = LINE ( 'NONE', #209, #75 ) ;
#104 = CARTESIAN_POINT ( 'NONE',  ( 0.0000000000000000000, 0.0000000000000000000, 0.0000000000000000000 ) ) ;
#105 = SURFACE_STYLE_FILL_AREA ( #132 ) ;
#106 =( NAMED_UNIT ( * ) SI_UNIT ( $, .STERADIAN. ) SOLID_ANGLE_UNIT ( ) );
#107 = CONICAL_SURFACE ( 'NONE', #300, 0.1100000000000002087, 0.7853981633974528309 ) ;
#108 = ORIENTED_EDGE ( 'NONE', *, *, #80, .T. ) ;
#109 = VERTEX_POINT ( 'NONE', #339 ) ;
#110 =( LENGTH_UNIT ( ) NAMED_UNIT ( * ) SI_UNIT ( $, .METRE. ) );
#111 = VECTOR ( 'NONE', #310, 39.37007874015748143 ) ;
#112 = PRESENTATION_LAYER_ASSIGNMENT (  '', '', ( #57 ) ) ;
#113 = CARTESIAN_POINT ( 'NONE',  ( 0.1249500000000000610, 1.530196175534618635E-17, 0.1190056117270130026 ) ) ;
#114 = ORIENTED_EDGE ( 'NONE', *, *, #233, .F. ) ;
#115 = FILL_AREA_STYLE_COLOUR ( '', #59 ) ;
#116 = LINE ( 'NONE', #226, #46 ) ;
#117 = AXIS2_PLACEMENT_3D ( 'NONE', #178, #182, #157 ) ;
#118 = AXIS2_PLACEMENT_3D ( 'NONE', #258, #267, #133 ) ;
#119 = DIRECTION ( 'NONE',  ( 1.000000000000000000, 0.0000000000000000000, 0.0000000000000000000 ) ) ;
#120 = VERTEX_POINT ( 'NONE', #203 ) ;
#121 = PLANE ( 'NONE',  #28 ) ;
#122 = FACE_OUTER_BOUND ( 'NONE', #6, .T. ) ;
#123 = ADVANCED_FACE ( 'NONE', ( #316 ), #19, .T. ) ;
#124 = CIRCLE ( 'NONE', #254, 0.1249500000000000610 ) ;
#125 = CARTESIAN_POINT ( 'NONE',  ( 0.0000000000000000000, 0.0000000000000000000, 0.0000000000000000000 ) ) ;
#126 = CARTESIAN_POINT ( 'NONE',  ( 0.02149999999999999481, 0.0000000000000000000, 0.0000000000000000000 ) ) ;
#127 = SHAPE_DEFINITION_REPRESENTATION ( #194, #242 ) ;
#128 = CARTESIAN_POINT ( 'NONE',  ( 0.0000000000000000000, 0.0000000000000000000, 2.500000000000000000 ) ) ;
#129 = AXIS2_PLACEMENT_3D ( 'NONE', #79, #137, #344 ) ;
#130 = FACE_OUTER_BOUND ( 'NONE', #305, .T. ) ;
#131 = DIRECTION ( 'NONE',  ( -0.0000000000000000000, -0.0000000000000000000, -1.000000000000000000 ) ) ;
#132 = FILL_AREA_STYLE ('',( #246 ) ) ;
#133 = DIRECTION ( 'NONE',  ( 1.000000000000000000, 0.0000000000000000000, 0.0000000000000000000 ) ) ;
#134 = CIRCLE ( 'NONE', #343, 0.1249500000000001304 ) ;
#135 = CARTESIAN_POINT ( 'NONE',  ( -0.02149999999999999481, 8.967476186756496498E-18, 0.0000000000000000000 ) ) ;
#136 = ORIENTED_EDGE ( 'NONE', *, *, #298, .T. ) ;
#137 = DIRECTION ( 'NONE',  ( 0.0000000000000000000, 0.0000000000000000000, 1.000000000000000000 ) ) ;
#138 = SURFACE_STYLE_FILL_AREA ( #32 ) ;
#139 = ORIENTED_EDGE ( 'NONE', *, *, #39, .T. ) ;
#140 = VECTOR ( 'NONE', #208, 39.37007874015748143 ) ;
#141 = DIMENSIONAL_EXPONENTS ( 1.000000000000000000, 0.0000000000000000000, 0.0000000000000000000, 0.0000000000000000000, 0.0000000000000000000, 0.0000000000000000000, 0.0000000000000000000 ) ;
#142 = CARTESIAN_POINT ( 'NONE',  ( 0.0000000000000000000, 0.0000000000000000000, 0.0000000000000000000 ) ) ;
#143 = ORIENTED_EDGE ( 'NONE', *, *, #240, .T. ) ;
#144 = ADVANCED_FACE ( 'NONE', ( #154 ), #107, .T. ) ;
#145 = ORIENTED_EDGE ( 'NONE', *, *, #236, .F. ) ;
#146 = ORIENTED_EDGE ( 'NONE', *, *, #318, .F. ) ;
#147 = AXIS2_PLACEMENT_3D ( 'NONE', #296, #288, #185 ) ;
#148 = ADVANCED_FACE ( 'NONE', ( #21 ), #44, .T. ) ;
#149 = ORIENTED_EDGE ( 'NONE', *, *, #223, .F. ) ;
#150 = CARTESIAN_POINT ( 'NONE',  ( 0.0000000000000000000, 0.0000000000000000000, 0.0000000000000000000 ) ) ;
#151 = DIRECTION ( 'NONE',  ( 0.0000000000000000000, 0.0000000000000000000, 1.000000000000000000 ) ) ;
#152 = CONICAL_SURFACE ( 'NONE', #117, 0.1100000000000002087, 0.7853981633974528309 ) ;
#153 = CARTESIAN_POINT ( 'NONE',  ( 0.0000000000000000000, 0.0000000000000000000, 0.0000000000000000000 ) ) ;
#154 = FACE_OUTER_BOUND ( 'NONE', #282, .T. ) ;
#155 = PRODUCT_RELATED_PRODUCT_CATEGORY ( 'part', '', ( #4 ) ) ;
#156 = LINE ( 'NONE', #231, #12 ) ;
#157 = DIRECTION ( 'NONE',  ( -1.000000000000000000, 0.0000000000000000000, 0.0000000000000000000 ) ) ;
#158 = VECTOR ( 'NONE', #81, 39.37007874015748143 ) ;
#159 = CARTESIAN_POINT ( 'NONE',  ( 0.1250000000000000555, 1.530808498934192125E-17, 2.500000000000000000 ) ) ;
#160 = SURFACE_SIDE_STYLE ('',( #105 ) ) ;
#161 = DIRECTION ( 'NONE',  ( 0.0000000000000000000, 0.0000000000000000000, 1.000000000000000000 ) ) ;
#162 = STYLED_ITEM ( 'NONE', ( #212 ), #270 ) ;
#163 = ORIENTED_EDGE ( 'NONE', *, *, #230, .F. ) ;
#164 = DIRECTION ( 'NONE',  ( 1.000000000000000000, 0.0000000000000000000, 0.0000000000000000000 ) ) ;
#165 = CARTESIAN_POINT ( 'NONE',  ( 0.0000000000000000000, 0.0000000000000000000, 0.7500499999999999945 ) ) ;
#166 = ORIENTED_EDGE ( 'NONE', *, *, #188, .F. ) ;
#167 = DIRECTION ( 'NONE',  ( -0.0000000000000000000, -0.0000000000000000000, -1.000000000000000000 ) ) ;
#168 = AXIS2_PLACEMENT_3D ( 'NONE', #45, #232, #259 ) ;
#169 = DIRECTION ( 'NONE',  ( 0.0000000000000000000, 0.0000000000000000000, 1.000000000000000000 ) ) ;
#170 = CONICAL_SURFACE ( 'NONE', #314, 0.02149999999999999481, 0.7155849933176771094 ) ;
#171 = ORIENTED_EDGE ( 'NONE', *, *, #211, .F. ) ;
#172 = VERTEX_POINT ( 'NONE', #311 ) ;
#173 = ORIENTED_EDGE ( 'NONE', *, *, #202, .T. ) ;
#174 = PRODUCT_DEFINITION_FORMATION_WITH_SPECIFIED_SOURCE ( 'ANY', '', #4, .NOT_KNOWN. ) ;
#175 = DIRECTION ( 'NONE',  ( -1.000000000000000000, 0.0000000000000000000, 0.0000000000000000000 ) ) ;
#176 = PRODUCT_CONTEXT ( 'NONE', #277, 'mechanical' ) ;
#177 = ADVANCED_FACE ( 'NONE', ( #183 ), #261, .T. ) ;
#178 = CARTESIAN_POINT ( 'NONE',  ( 0.0000000000000000000, 0.0000000000000000000, 2.500000000000000000 ) ) ;
#179 = PRODUCT_DEFINITION ( 'UNKNOWN', '', #174, #269 ) ;
#180 = CARTESIAN_POINT ( 'NONE',  ( 0.1100000000000002087, 1.347111479062090938E-17, 2.500000000000000000 ) ) ;
#181 =( GEOMETRIC_REPRESENTATION_CONTEXT ( 3 ) GLOBAL_UNCERTAINTY_ASSIGNED_CONTEXT ( ( #16 ) ) GLOBAL_UNIT_ASSIGNED_CONTEXT ( ( #331, #86, #195 ) ) REPRESENTATION_CONTEXT ( 'NONE', 'WORKASPACE' ) );
#182 = DIRECTION ( 'NONE',  ( 0.0000000000000000000, 0.0000000000000000000, -1.000000000000000000 ) ) ;
#183 = FACE_OUTER_BOUND ( 'NONE', #228, .T. ) ;
#184 = EDGE_CURVE ( 'NONE', #172, #62, #342, .T. ) ;
#185 = DIRECTION ( 'NONE',  ( 1.000000000000000000, 0.0000000000000000000, 0.0000000000000000000 ) ) ;
#186 = ORIENTED_EDGE ( 'NONE', *, *, #9, .F. ) ;
#187 = CARTESIAN_POINT ( 'NONE',  ( 0.0000000000000000000, 0.0000000000000000000, 0.7500000000000001110 ) ) ;
#188 = EDGE_CURVE ( 'NONE', #34, #347, #192, .T. ) ;
#189 = ORIENTED_EDGE ( 'NONE', *, *, #326, .F. ) ;
#190 = CIRCLE ( 'NONE', #147, 0.1250000000000000555 ) ;
#191 = FACE_OUTER_BOUND ( 'NONE', #199, .T. ) ;
#192 = CIRCLE ( 'NONE', #341, 0.1249500000000001304 ) ;
#193 = ORIENTED_EDGE ( 'NONE', *, *, #233, .T. ) ;
#194 = PRODUCT_DEFINITION_SHAPE ( 'NONE', 'NONE',  #179 ) ;
#195 =( NAMED_UNIT ( * ) SI_UNIT ( $, .STERADIAN. ) SOLID_ANGLE_UNIT ( ) );
#196 = ORIENTED_EDGE ( 'NONE', *, *, #211, .T. ) ;
#197 = EDGE_LOOP ( 'NONE', ( #327, #143, #114, #33 ) ) ;
#198 = DIRECTION ( 'NONE',  ( -0.0000000000000000000, -0.0000000000000000000, -1.000000000000000000 ) ) ;
#199 = EDGE_LOOP ( 'NONE', ( #145, #85, #201, #303 ) ) ;
#200 = DIRECTION ( 'NONE',  ( -0.7071067811865551223, 8.659560562355026535E-17, 0.7071067811865398012 ) ) ;
#201 = ORIENTED_EDGE ( 'NONE', *, *, #9, .T. ) ;
#202 = EDGE_CURVE ( 'NONE', #347, #120, #103, .T. ) ;
#203 = CARTESIAN_POINT ( 'NONE',  ( 0.1250000000000000555, 1.530808498934192125E-17, 0.7500499999999999945 ) ) ;
#204 = DIRECTION ( 'NONE',  ( 1.000000000000000000, 0.0000000000000000000, 0.0000000000000000000 ) ) ;
#205 = CARTESIAN_POINT ( 'NONE',  ( 0.0000000000000000000, 0.0000000000000000000, 2.500000000000000000 ) ) ;
#206 = ADVANCED_FACE ( 'NONE', ( #283 ), #271, .T. ) ;
#207 = DIRECTION ( 'NONE',  ( 0.0000000000000000000, 0.0000000000000000000, -1.000000000000000000 ) ) ;
#208 = DIRECTION ( 'NONE',  ( 0.7071067811865507924, 8.659560562354973534E-17, -0.7071067811865443531 ) ) ;
#209 = CARTESIAN_POINT ( 'NONE',  ( 0.1249500000000001304, 0.0000000000000000000, 0.7500000000000001110 ) ) ;
#210 = LENGTH_MEASURE_WITH_UNIT ( LENGTH_MEASURE( 0.02539999999999999897 ), #52 );
#211 = EDGE_CURVE ( 'NONE', #109, #172, #190, .T. ) ;
#212 = PRESENTATION_STYLE_ASSIGNMENT (( #26 ) ) ;
#213 = LINE ( 'NONE', #322, #47 ) ;
#214 = CARTESIAN_POINT ( 'NONE',  ( 0.1249500000000000888, 1.530196175534618943E-17, 0.0000000000000000000 ) ) ;
#215 = DIRECTION ( 'NONE',  ( -0.0000000000000000000, -0.0000000000000000000, -1.000000000000000000 ) ) ;
#216 = ORIENTED_EDGE ( 'NONE', *, *, #78, .T. ) ;
#217 = AXIS2_PLACEMENT_3D ( 'NONE', #317, #66, #301 ) ;
#218 = LENGTH_MEASURE_WITH_UNIT ( LENGTH_MEASURE( 0.02539999999999999897 ), #110 );
#219 = VECTOR ( 'NONE', #72, 39.37007874015748143 ) ;
#220 = COLOUR_RGB ( '',0.7921568627450980005, 0.8196078431372548767, 0.9333333333333333481 ) ;
#221 =( NAMED_UNIT ( * ) SI_UNIT ( $, .STERADIAN. ) SOLID_ANGLE_UNIT ( ) );
#222 = ORIENTED_EDGE ( 'NONE', *, *, #230, .T. ) ;
#223 = EDGE_CURVE ( 'NONE', #89, #54, #265, .T. ) ;
#224 = VERTEX_POINT ( 'NONE', #135 ) ;
#225 = FACE_OUTER_BOUND ( 'NONE', #276, .T. ) ;
#226 = CARTESIAN_POINT ( 'NONE',  ( -0.1249500000000001304, 1.530196175534619251E-17, 0.7500000000000001110 ) ) ;
#227 = AXIS2_PLACEMENT_3D ( 'NONE', #165, #167, #119 ) ;
#228 = EDGE_LOOP ( 'NONE', ( #278, #196, #36, #43 ) ) ;
#229 = VERTEX_POINT ( 'NONE', #82 ) ;
#230 = EDGE_CURVE ( 'NONE', #34, #275, #1, .T. ) ;
#231 = CARTESIAN_POINT ( 'NONE',  ( -0.1100000000000002087, 0.0000000000000000000, 2.500000000000000000 ) ) ;
#232 = DIRECTION ( 'NONE',  ( -0.0000000000000000000, -0.0000000000000000000, -1.000000000000000000 ) ) ;
#233 = EDGE_CURVE ( 'NONE', #62, #120, #23, .T. ) ;
#234 = DIRECTION ( 'NONE',  ( 0.0000000000000000000, 0.0000000000000000000, 1.000000000000000000 ) ) ;
#235 = CARTESIAN_POINT ( 'NONE',  ( 0.0000000000000000000, 0.0000000000000000000, 0.7500000000000001110 ) ) ;
#236 = EDGE_CURVE ( 'NONE', #224, #229, #315, .T. ) ;
#237 = DIRECTION ( 'NONE',  ( -0.0000000000000000000, -0.0000000000000000000, -1.000000000000000000 ) ) ;
#238 =( GEOMETRIC_REPRESENTATION_CONTEXT ( 3 ) GLOBAL_UNCERTAINTY_ASSIGNED_CONTEXT ( ( #320 ) ) GLOBAL_UNIT_ASSIGNED_CONTEXT ( ( #319, #244, #106 ) ) REPRESENTATION_CONTEXT ( 'NONE', 'WORKASPACE' ) );
#239 = AXIS2_PLACEMENT_3D ( 'NONE', #125, #262, #17 ) ;
#240 = EDGE_CURVE ( 'NONE', #109, #120, #30, .T. ) ;
#241 = DIRECTION ( 'NONE',  ( 1.000000000000000000, 0.0000000000000000000, 0.0000000000000000000 ) ) ;
#242 = ADVANCED_BREP_SHAPE_REPRESENTATION ( 'Micro_SPD-250-082', ( #270, #29 ), #348 ) ;
#243 = DIRECTION ( 'NONE',  ( -1.000000000000000000, 0.0000000000000000000, 0.0000000000000000000 ) ) ;
#244 =( NAMED_UNIT ( * ) PLANE_ANGLE_UNIT ( ) SI_UNIT ( $, .RADIAN. ) );
#245 = MECHANICAL_DESIGN_GEOMETRIC_PRESENTATION_REPRESENTATION (  '', ( #162 ), #238 ) ;
#246 = FILL_AREA_STYLE_COLOUR ( '', #220 ) ;
#247 = ORIENTED_EDGE ( 'NONE', *, *, #202, .F. ) ;
#248 = SURFACE_STYLE_USAGE ( .BOTH. , #35 ) ;
#249 = CARTESIAN_POINT ( 'NONE',  ( 0.0000000000000000000, 0.0000000000000000000, 0.1190056117270130026 ) ) ;
#250 = EDGE_LOOP ( 'NONE', ( #38, #67, #222, #252 ) ) ;
#251 = DIRECTION ( 'NONE',  ( 1.000000000000000000, 0.0000000000000000000, 0.0000000000000000000 ) ) ;
#252 = ORIENTED_EDGE ( 'NONE', *, *, #298, .F. ) ;
#253 = CARTESIAN_POINT ( 'NONE',  ( 0.0000000000000000000, 0.0000000000000000000, 0.7500000000000001110 ) ) ;
#254 = AXIS2_PLACEMENT_3D ( 'NONE', #249, #332, #65 ) ;
#255 = ORIENTED_EDGE ( 'NONE', *, *, #345, .T. ) ;
#256 = MECHANICAL_DESIGN_GEOMETRIC_PRESENTATION_REPRESENTATION (  '', ( #57 ), #181 ) ;
#257 = EDGE_LOOP ( 'NONE', ( #166, #8, #193, #247 ) ) ;
#258 = CARTESIAN_POINT ( 'NONE',  ( 0.0000000000000000000, 0.0000000000000000000, 0.7500000000000001110 ) ) ;
#259 = DIRECTION ( 'NONE',  ( -1.000000000000000000, 0.0000000000000000000, 0.0000000000000000000 ) ) ;
#260 = AXIS2_PLACEMENT_3D ( 'NONE', #142, #306, #64 ) ;
#261 = CYLINDRICAL_SURFACE ( 'NONE', #308, 0.1250000000000000555 ) ;
#262 = DIRECTION ( 'NONE',  ( -0.0000000000000000000, -0.0000000000000000000, -1.000000000000000000 ) ) ;
#263 = FACE_OUTER_BOUND ( 'NONE', #15, .T. ) ;
#264 = AXIS2_PLACEMENT_3D ( 'NONE', #309, #237, #175 ) ;
#265 = CIRCLE ( 'NONE', #42, 0.1100000000000002087 ) ;
#266 = EDGE_CURVE ( 'NONE', #229, #224, #70, .T. ) ;
#267 = DIRECTION ( 'NONE',  ( 0.0000000000000000000, 0.0000000000000000000, 1.000000000000000000 ) ) ;
#268 = CARTESIAN_POINT ( 'NONE',  ( -0.1249500000000000888, 0.0000000000000000000, 0.0000000000000000000 ) ) ;
#269 = PRODUCT_DEFINITION_CONTEXT ( 'detailed design', #92, 'design' ) ;
#270 = MANIFOLD_SOLID_BREP ( 'Cut-Revolve2', #329 ) ;
#271 = CONICAL_SURFACE ( 'NONE', #118, 0.1249500000000001304, 0.7853981633974591592 ) ;
#272 = ORIENTED_EDGE ( 'NONE', *, *, #78, .F. ) ;
#273 = EDGE_CURVE ( 'NONE', #347, #14, #325, .T. ) ;
#274 = EDGE_CURVE ( 'NONE', #224, #275, #213, .T. ) ;
#275 = VERTEX_POINT ( 'NONE', #55 ) ;
#276 = EDGE_LOOP ( 'NONE', ( #290, #31 ) ) ;
#277 = APPLICATION_CONTEXT ( 'automotive_design' ) ;
#278 = ORIENTED_EDGE ( 'NONE', *, *, #240, .F. ) ;
#279 = DIRECTION ( 'NONE',  ( -1.000000000000000000, 0.0000000000000000000, 0.0000000000000000000 ) ) ;
#280 = ORIENTED_EDGE ( 'NONE', *, *, #51, .T. ) ;
#281 = CONICAL_SURFACE ( 'NONE', #295, 0.1249500000000001304, 0.7853981633974591592 ) ;
#282 = EDGE_LOOP ( 'NONE', ( #299, #216, #146, #336 ) ) ;
#283 = FACE_OUTER_BOUND ( 'NONE', #257, .T. ) ;
#284 = CARTESIAN_POINT ( 'NONE',  ( -0.1249500000000001304, 1.530502337234405688E-17, 0.7500000000000001110 ) ) ;
#285 = DIRECTION ( 'NONE',  ( -0.0000000000000000000, -0.0000000000000000000, -1.000000000000000000 ) ) ;
#286 = CARTESIAN_POINT ( 'NONE',  ( -0.1250000000000000555, 0.0000000000000000000, 2.500000000000000000 ) ) ;
#287 = ADVANCED_FACE ( 'NONE', ( #27 ), #281, .T. ) ;
#288 = DIRECTION ( 'NONE',  ( 0.0000000000000000000, 0.0000000000000000000, -1.000000000000000000 ) ) ;
#289 = CARTESIAN_POINT ( 'NONE',  ( 0.0000000000000000000, 0.0000000000000000000, 0.7500499999999999945 ) ) ;
#290 = ORIENTED_EDGE ( 'NONE', *, *, #266, .T. ) ;
#291 = DIRECTION ( 'NONE',  ( -0.6560590289905088301, 8.034405899049472288E-17, 0.7547095802227706818 ) ) ;
#292 = ADVANCED_FACE ( 'NONE', ( #191 ), #294, .T. ) ;
#293 = DIRECTION ( 'NONE',  ( 0.0000000000000000000, 0.0000000000000000000, 1.000000000000000000 ) ) ;
#294 = CONICAL_SURFACE ( 'NONE', #129, 0.02149999999999999481, 0.7155849933176771094 ) ;
#295 = AXIS2_PLACEMENT_3D ( 'NONE', #187, #293, #56 ) ;
#296 = CARTESIAN_POINT ( 'NONE',  ( 0.0000000000000000000, 0.0000000000000000000, 2.485000000000000320 ) ) ;
#297 = ORIENTED_EDGE ( 'NONE', *, *, #188, .T. ) ;
#298 = EDGE_CURVE ( 'NONE', #14, #275, #84, .T. ) ;
#299 = ORIENTED_EDGE ( 'NONE', *, *, #39, .F. ) ;
#300 = AXIS2_PLACEMENT_3D ( 'NONE', #99, #207, #50 ) ;
#301 = DIRECTION ( 'NONE',  ( -1.000000000000000000, 0.0000000000000000000, 0.0000000000000000000 ) ) ;
#302 = AXIS2_PLACEMENT_3D ( 'NONE', #41, #90, #251 ) ;
#303 = ORIENTED_EDGE ( 'NONE', *, *, #51, .F. ) ;
#304 =( CONVERSION_BASED_UNIT ( 'INCH', #87 ) LENGTH_UNIT ( ) NAMED_UNIT ( #141 ) );
#305 = EDGE_LOOP ( 'NONE', ( #95, #324, #280, #136 ) ) ;
#306 = DIRECTION ( 'NONE',  ( 0.0000000000000000000, 0.0000000000000000000, 1.000000000000000000 ) ) ;
#307 = ORIENTED_EDGE ( 'NONE', *, *, #273, .T. ) ;
#308 = AXIS2_PLACEMENT_3D ( 'NONE', #128, #285, #20 ) ;
#309 = CARTESIAN_POINT ( 'NONE',  ( 0.0000000000000000000, 0.0000000000000000000, 2.500000000000000000 ) ) ;
#310 = DIRECTION ( 'NONE',  ( -0.0000000000000000000, -0.0000000000000000000, -1.000000000000000000 ) ) ;
#311 = CARTESIAN_POINT ( 'NONE',  ( -0.1250000000000000555, 0.0000000000000000000, 2.485000000000000320 ) ) ;
#312 = APPLICATION_PROTOCOL_DEFINITION ( 'draft international standard', 'automotive_design', 1998, #92 ) ;
#313 = DIRECTION ( 'NONE',  ( -1.000000000000000000, 0.0000000000000000000, 0.0000000000000000000 ) ) ;
#314 = AXIS2_PLACEMENT_3D ( 'NONE', #150, #151, #98 ) ;
#315 = CIRCLE ( 'NONE', #330, 0.02149999999999999481 ) ;
#316 = FACE_OUTER_BOUND ( 'NONE', #250, .T. ) ;
#317 = CARTESIAN_POINT ( 'NONE',  ( 0.0000000000000000000, 0.0000000000000000000, 0.1190056117270130026 ) ) ;
#318 = EDGE_CURVE ( 'NONE', #172, #109, #102, .T. ) ;
#319 =( CONVERSION_BASED_UNIT ( 'INCH', #210 ) LENGTH_UNIT ( ) NAMED_UNIT ( #88 ) );
#320 = UNCERTAINTY_MEASURE_WITH_UNIT (LENGTH_MEASURE( 1.000000000000000082E-05 ), #319, 'distance_accuracy_value', 'NONE');
#321 = ADVANCED_FACE ( 'NONE', ( #225 ), #94, .F. ) ;
#322 = CARTESIAN_POINT ( 'NONE',  ( -0.02149999999999999481, 2.632990618166808958E-18, 0.0000000000000000000 ) ) ;
#323 = DIRECTION ( 'NONE',  ( -0.0000000000000000000, -0.0000000000000000000, -1.000000000000000000 ) ) ;
#324 = ORIENTED_EDGE ( 'NONE', *, *, #266, .F. ) ;
#325 = LINE ( 'NONE', #214, #63 ) ;
#326 = EDGE_CURVE ( 'NONE', #347, #34, #134, .T. ) ;
#327 = ORIENTED_EDGE ( 'NONE', *, *, #318, .T. ) ;
#328 = CIRCLE ( 'NONE', #227, 0.1250000000000000555 ) ;
#329 = CLOSED_SHELL ( 'NONE', ( #292, #101, #206, #144, #148, #177, #2, #73, #287, #123, #25, #321 ) ) ;
#330 = AXIS2_PLACEMENT_3D ( 'NONE', #60, #83, #243 ) ;
#331 =( CONVERSION_BASED_UNIT ( 'INCH', #218 ) LENGTH_UNIT ( ) NAMED_UNIT ( #5 ) );
#332 = DIRECTION ( 'NONE',  ( -0.0000000000000000000, -0.0000000000000000000, -1.000000000000000000 ) ) ;
#333 = CARTESIAN_POINT ( 'NONE',  ( 0.1249500000000001304, 0.0000000000000000000, 0.7500000000000001110 ) ) ;
#334 = VECTOR ( 'NONE', #53, 39.37007874015748143 ) ;
#335 = EDGE_LOOP ( 'NONE', ( #91, #139 ) ) ;
#336 = ORIENTED_EDGE ( 'NONE', *, *, #80, .F. ) ;
#337 = UNCERTAINTY_MEASURE_WITH_UNIT (LENGTH_MEASURE( 1.000000000000000082E-05 ), #304, 'distance_accuracy_value', 'NONE');
#338 = DIRECTION ( 'NONE',  ( 1.000000000000000000, 0.0000000000000000000, -0.0000000000000000000 ) ) ;
#339 = CARTESIAN_POINT ( 'NONE',  ( 0.1250000000000000555, 1.530808498934192125E-17, 2.485000000000000320 ) ) ;
#340 = DIRECTION ( 'NONE',  ( -0.0000000000000000000, -0.0000000000000000000, -1.000000000000000000 ) ) ;
#341 = AXIS2_PLACEMENT_3D ( 'NONE', #235, #340, #313 ) ;
#342 = LINE ( 'NONE', #286, #111 ) ;
#343 = AXIS2_PLACEMENT_3D ( 'NONE', #253, #198, #279 ) ;
#344 = DIRECTION ( 'NONE',  ( 1.000000000000000000, 0.0000000000000000000, 0.0000000000000000000 ) ) ;
#345 = EDGE_CURVE ( 'NONE', #120, #62, #328, .T. ) ;
#346 = DIRECTION ( 'NONE',  ( -1.000000000000000000, 0.0000000000000000000, 0.0000000000000000000 ) ) ;
#347 = VERTEX_POINT ( 'NONE', #333 ) ;
#348 =( GEOMETRIC_REPRESENTATION_CONTEXT ( 3 ) GLOBAL_UNCERTAINTY_ASSIGNED_CONTEXT ( ( #337 ) ) GLOBAL_UNIT_ASSIGNED_CONTEXT ( ( #304, #68, #221 ) ) REPRESENTATION_CONTEXT ( 'NONE', 'WORKASPACE' ) );
#349 = CARTESIAN_POINT ( 'NONE',  ( 0.0000000000000000000, 0.0000000000000000000, 2.500000000000000000 ) ) ;
ENDSEC;
END-ISO-10303-21;
