ISO-10303-21;
HEADER;
FILE_DESCRIPTION (( 'STEP AP214' ),
    '1' );
FILE_NAME ('Micro_CREM-060-080.STEP',
    '2021-09-02T15:19:00',
    ( '' ),
    ( '' ),
    'SwSTEP 2.0',
    'SolidWorks 2020',
    '' );
FILE_SCHEMA (( 'AUTOMOTIVE_DESIGN' ));
ENDSEC;

DATA;
#1 = AXIS2_PLACEMENT_3D ( 'NONE', #105, #279, #130 ) ;
#2 = LINE ( 'NONE', #107, #101 ) ;
#3 = CARTESIAN_POINT ( 'NONE',  ( 0.1181100000000000344, 1.446430334472939084E-17, 2.229093999999999465 ) ) ;
#4 = EDGE_CURVE ( 'NONE', #315, #40, #10, .T. ) ;
#5 =( NAMED_UNIT ( * ) PLANE_ANGLE_UNIT ( ) SI_UNIT ( $, .RADIAN. ) );
#6 = ORIENTED_EDGE ( 'NONE', *, *, #291, .F. ) ;
#7 = LENGTH_MEASURE_WITH_UNIT ( LENGTH_MEASURE( 0.02539999999999999897 ), #191 );
#8 = EDGE_CURVE ( 'NONE', #77, #55, #171, .T. ) ;
#9 = AXIS2_PLACEMENT_3D ( 'NONE', #34, #241, #215 ) ;
#10 = CIRCLE ( 'NONE', #233, 0.06101998323758127396 ) ;
#11 = ORIENTED_EDGE ( 'NONE', *, *, #235, .T. ) ;
#12 = MECHANICAL_DESIGN_GEOMETRIC_PRESENTATION_REPRESENTATION (  '', ( #138 ), #38 ) ;
#13 = CARTESIAN_POINT ( 'NONE',  ( 0.0000000000000000000, 0.0000000000000000000, 2.244094000000000033 ) ) ;
#14 =( NAMED_UNIT ( * ) PLANE_ANGLE_UNIT ( ) SI_UNIT ( $, .RADIAN. ) );
#15 = ORIENTED_EDGE ( 'NONE', *, *, #8, .F. ) ;
#16 = LENGTH_MEASURE_WITH_UNIT ( LENGTH_MEASURE( 0.02539999999999999897 ), #170 );
#17 = VERTEX_POINT ( 'NONE', #299 ) ;
#18 = FACE_OUTER_BOUND ( 'NONE', #146, .T. ) ;
#19 = CARTESIAN_POINT ( 'NONE',  ( 9.177030719781672087E-18, 0.0000000000000000000, 0.005117998791752708006 ) ) ;
#20 = APPLICATION_CONTEXT ( 'automotive_design' ) ;
#21 = PRODUCT_DEFINITION_SHAPE ( 'NONE', 'NONE',  #127 ) ;
#22 = DIRECTION ( 'NONE',  ( -1.250499981774462892E-16, -0.0000000000000000000, -1.000000000000000000 ) ) ;
#23 = CIRCLE ( 'NONE', #185, 0.1031100000000002709 ) ;
#24 = CARTESIAN_POINT ( 'NONE',  ( 0.02952398323758127080, 3.615645156998400008E-18, 0.005117998791752704536 ) ) ;
#25 = FILL_AREA_STYLE ('',( #44 ) ) ;
#26 = AXIS2_PLACEMENT_3D ( 'NONE', #196, #292, #319 ) ;
#27 = VECTOR ( 'NONE', #182, 39.37007874015748854 ) ;
#28 = DIRECTION ( 'NONE',  ( 0.0000000000000000000, 0.0000000000000000000, 1.000000000000000000 ) ) ;
#29 = VERTEX_POINT ( 'NONE', #93 ) ;
#30 = CARTESIAN_POINT ( 'NONE',  ( 0.0000000000000000000, 0.0000000000000000000, 2.244094000000000033 ) ) ;
#31 = CARTESIAN_POINT ( 'NONE',  ( 0.0000000000000000000, 0.0000000000000000000, 2.244094000000000033 ) ) ;
#32 = CLOSED_SHELL ( 'NONE', ( #131, #43, #197, #33, #192, #289, #120, #104, #78, #283, #54 ) ) ;
#33 = ADVANCED_FACE ( 'NONE', ( #66 ), #176, .T. ) ;
#34 = CARTESIAN_POINT ( 'NONE',  ( 0.0000000000000000000, 0.0000000000000000000, 2.229093999999999465 ) ) ;
#35 = FILL_AREA_STYLE ('',( #57 ) ) ;
#36 = AXIS2_PLACEMENT_3D ( 'NONE', #226, #258, #205 ) ;
#37 = EDGE_LOOP ( 'NONE', ( #97, #211 ) ) ;
#38 =( GEOMETRIC_REPRESENTATION_CONTEXT ( 3 ) GLOBAL_UNCERTAINTY_ASSIGNED_CONTEXT ( ( #230 ) ) GLOBAL_UNIT_ASSIGNED_CONTEXT ( ( #141, #14, #290 ) ) REPRESENTATION_CONTEXT ( 'NONE', 'WORKASPACE' ) );
#39 = DIRECTION ( 'NONE',  ( -1.250499981774462892E-16, -0.0000000000000000000, -1.000000000000000000 ) ) ;
#40 = VERTEX_POINT ( 'NONE', #276 ) ;
#41 =( LENGTH_UNIT ( ) NAMED_UNIT ( * ) SI_UNIT ( $, .METRE. ) );
#42 = DIRECTION ( 'NONE',  ( -1.250499981774462892E-16, -0.0000000000000000000, -1.000000000000000000 ) ) ;
#43 = ADVANCED_FACE ( 'NONE', ( #216 ), #318, .T. ) ;
#44 = FILL_AREA_STYLE_COLOUR ( '', #157 ) ;
#45 = ORIENTED_EDGE ( 'NONE', *, *, #329, .T. ) ;
#46 = DIRECTION ( 'NONE',  ( 0.7071067811865358044, 8.659560562354788645E-17, -0.7071067811865590080 ) ) ;
#47 = DIRECTION ( 'NONE',  ( 0.0000000000000000000, 0.0000000000000000000, -1.000000000000000000 ) ) ;
#48 = AXIS2_PLACEMENT_3D ( 'NONE', #312, #154, #72 ) ;
#49 = PRODUCT_DEFINITION_FORMATION_WITH_SPECIFIED_SOURCE ( 'ANY', '', #156, .NOT_KNOWN. ) ;
#50 = AXIS2_PLACEMENT_3D ( 'NONE', #272, #39, #207 ) ;
#51 = FACE_OUTER_BOUND ( 'NONE', #193, .T. ) ;
#52 = TOROIDAL_SURFACE ( 'NONE', #36, 0.06101998323758126702, 0.03149600000000000316 ) ;
#53 = CARTESIAN_POINT ( 'NONE',  ( 0.0000000000000000000, 0.0000000000000000000, 2.229093999999999465 ) ) ;
#54 = ADVANCED_FACE ( 'NONE', ( #18 ), #149, .F. ) ;
#55 = VERTEX_POINT ( 'NONE', #250 ) ;
#56 = CARTESIAN_POINT ( 'NONE',  ( 8.537024980200822558E-18, 0.0000000000000000000, 0.0000000000000000000 ) ) ;
#57 = FILL_AREA_STYLE_COLOUR ( '', #281 ) ;
#58 = SURFACE_STYLE_FILL_AREA ( #35 ) ;
#59 = ORIENTED_EDGE ( 'NONE', *, *, #123, .T. ) ;
#60 = FACE_OUTER_BOUND ( 'NONE', #239, .T. ) ;
#61 = DIRECTION ( 'NONE',  ( -1.000000000000000000, 0.0000000000000000000, 1.084333486377355109E-16 ) ) ;
#62 = FACE_OUTER_BOUND ( 'NONE', #313, .T. ) ;
#63 = AXIS2_PLACEMENT_3D ( 'NONE', #210, #22, #330 ) ;
#64 = EDGE_CURVE ( 'NONE', #163, #84, #284, .T. ) ;
#65 = ORIENTED_EDGE ( 'NONE', *, *, #155, .T. ) ;
#66 = FACE_OUTER_BOUND ( 'NONE', #297, .T. ) ;
#67 = CARTESIAN_POINT ( 'NONE',  ( 0.0000000000000000000, 0.0000000000000000000, 0.0000000000000000000 ) ) ;
#68 = PRODUCT_RELATED_PRODUCT_CATEGORY ( 'part', '', ( #156 ) ) ;
#69 =( CONVERSION_BASED_UNIT ( 'INCH', #96 ) LENGTH_UNIT ( ) NAMED_UNIT ( #252 ) );
#70 = DIMENSIONAL_EXPONENTS ( 1.000000000000000000, 0.0000000000000000000, 0.0000000000000000000, 0.0000000000000000000, 0.0000000000000000000, 0.0000000000000000000, 0.0000000000000000000 ) ;
#71 = VERTEX_POINT ( 'NONE', #293 ) ;
#72 = DIRECTION ( 'NONE',  ( -1.000000000000000000, 0.0000000000000000000, 1.084204340894185993E-16 ) ) ;
#73 = PLANE ( 'NONE',  #240 ) ;
#74 = ADVANCED_BREP_SHAPE_REPRESENTATION ( 'Micro_CREM-060-080', ( #257, #247 ), #214 ) ;
#75 = AXIS2_PLACEMENT_3D ( 'NONE', #280, #103, #188 ) ;
#76 = DIRECTION ( 'NONE',  ( 1.000000000000000000, 0.0000000000000000000, 0.0000000000000000000 ) ) ;
#77 = VERTEX_POINT ( 'NONE', #304 ) ;
#78 = ADVANCED_FACE ( 'NONE', ( #62 ), #172, .T. ) ;
#79 = FACE_OUTER_BOUND ( 'NONE', #190, .T. ) ;
#80 = ORIENTED_EDGE ( 'NONE', *, *, #111, .T. ) ;
#81 = PRESENTATION_STYLE_ASSIGNMENT (( #164 ) ) ;
#82 = ORIENTED_EDGE ( 'NONE', *, *, #64, .F. ) ;
#83 = VECTOR ( 'NONE', #173, 39.37007874015748143 ) ;
#84 = VERTEX_POINT ( 'NONE', #24 ) ;
#85 = CARTESIAN_POINT ( 'NONE',  ( 8.537024980200822558E-18, 0.0000000000000000000, 0.005117998791752701934 ) ) ;
#86 = ORIENTED_EDGE ( 'NONE', *, *, #181, .T. ) ;
#87 = EDGE_CURVE ( 'NONE', #84, #315, #270, .T. ) ;
#88 = DIRECTION ( 'NONE',  ( -0.0000000000000000000, -0.0000000000000000000, -1.000000000000000000 ) ) ;
#89 = DIRECTION ( 'NONE',  ( 1.000000000000000000, 0.0000000000000000000, 0.0000000000000000000 ) ) ;
#90 = CARTESIAN_POINT ( 'NONE',  ( 0.02952398323758127080, 3.615645156998400008E-18, 0.0000000000000000000 ) ) ;
#91 = AXIS2_PLACEMENT_3D ( 'NONE', #161, #263, #178 ) ;
#92 =( GEOMETRIC_REPRESENTATION_CONTEXT ( 3 ) GLOBAL_UNCERTAINTY_ASSIGNED_CONTEXT ( ( #184 ) ) GLOBAL_UNIT_ASSIGNED_CONTEXT ( ( #69, #298, #321 ) ) REPRESENTATION_CONTEXT ( 'NONE', 'WORKASPACE' ) );
#93 = CARTESIAN_POINT ( 'NONE',  ( -0.1181100000000000344, 0.0000000000000000000, 0.03661399879175269989 ) ) ;
#94 = APPLICATION_PROTOCOL_DEFINITION ( 'draft international standard', 'automotive_design', 1998, #20 ) ;
#95 = ORIENTED_EDGE ( 'NONE', *, *, #181, .F. ) ;
#96 = LENGTH_MEASURE_WITH_UNIT ( LENGTH_MEASURE( 0.02539999999999999897 ), #41 );
#97 = ORIENTED_EDGE ( 'NONE', *, *, #166, .T. ) ;
#98 = EDGE_CURVE ( 'NONE', #163, #40, #316, .T. ) ;
#99 = AXIS2_PLACEMENT_3D ( 'NONE', #201, #203, #89 ) ;
#100 = DIRECTION ( 'NONE',  ( -1.000000000000000000, 0.0000000000000000000, 1.399053970067792438E-16 ) ) ;
#101 = VECTOR ( 'NONE', #311, 39.37007874015748143 ) ;
#102 = DIRECTION ( 'NONE',  ( -1.000000000000000000, 0.0000000000000000000, 1.250499981774462892E-16 ) ) ;
#103 = DIRECTION ( 'NONE',  ( -0.0000000000000000000, -0.0000000000000000000, -1.000000000000000000 ) ) ;
#104 = ADVANCED_FACE ( 'NONE', ( #134, #153 ), #73, .T. ) ;
#105 = CARTESIAN_POINT ( 'NONE',  ( 0.06101998323758127396, 7.472792715592904953E-18, 0.005117998791752694128 ) ) ;
#106 = EDGE_CURVE ( 'NONE', #40, #315, #143, .T. ) ;
#107 = CARTESIAN_POINT ( 'NONE',  ( -0.1181100000000000344, 0.0000000000000000000, 2.244094000000000033 ) ) ;
#108 = CIRCLE ( 'NONE', #294, 0.02952398323758126386 ) ;
#109 = CARTESIAN_POINT ( 'NONE',  ( -0.02952398323758125345, 0.0000000000000000000, 0.005117998791752711475 ) ) ;
#110 = ORIENTED_EDGE ( 'NONE', *, *, #273, .F. ) ;
#111 = EDGE_CURVE ( 'NONE', #55, #262, #206, .T. ) ;
#112 = ORIENTED_EDGE ( 'NONE', *, *, #235, .F. ) ;
#113 = DIRECTION ( 'NONE',  ( -1.250499981774462892E-16, -0.0000000000000000000, -1.000000000000000000 ) ) ;
#114 = CIRCLE ( 'NONE', #48, 0.1181100000000000344 ) ;
#115 = LINE ( 'NONE', #268, #128 ) ;
#116 = DIRECTION ( 'NONE',  ( -0.0000000000000000000, -0.0000000000000000000, -1.000000000000000000 ) ) ;
#117 = EDGE_CURVE ( 'NONE', #77, #148, #309, .T. ) ;
#118 = CARTESIAN_POINT ( 'NONE',  ( -0.1181100000000000344, 0.0000000000000000000, 2.229093999999999465 ) ) ;
#119 = ORIENTED_EDGE ( 'NONE', *, *, #222, .F. ) ;
#120 = ADVANCED_FACE ( 'NONE', ( #305 ), #326, .T. ) ;
#121 = TOROIDAL_SURFACE ( 'NONE', #228, 0.06101998323758126702, 0.03149600000000000316 ) ;
#122 = ORIENTED_EDGE ( 'NONE', *, *, #4, .T. ) ;
#123 = EDGE_CURVE ( 'NONE', #55, #77, #23, .T. ) ;
#124 = ORIENTED_EDGE ( 'NONE', *, *, #117, .F. ) ;
#125 = ORIENTED_EDGE ( 'NONE', *, *, #4, .F. ) ;
#126 = AXIS2_PLACEMENT_3D ( 'NONE', #31, #47, #212 ) ;
#127 = PRODUCT_DEFINITION ( 'UNKNOWN', '', #49, #286 ) ;
#128 = VECTOR ( 'NONE', #88, 39.37007874015748143 ) ;
#129 = APPLICATION_PROTOCOL_DEFINITION ( 'draft international standard', 'automotive_design', 1998, #133 ) ;
#130 = DIRECTION ( 'NONE',  ( -1.000000000000000000, -1.224646799147353207E-16, 0.0000000000000000000 ) ) ;
#131 = ADVANCED_FACE ( 'NONE', ( #51 ), #52, .F. ) ;
#132 = AXIS2_PLACEMENT_3D ( 'NONE', #19, #204, #198 ) ;
#133 = APPLICATION_CONTEXT ( 'automotive_design' ) ;
#134 = FACE_BOUND ( 'NONE', #160, .T. ) ;
#135 = ORIENTED_EDGE ( 'NONE', *, *, #123, .F. ) ;
#136 = DIRECTION ( 'NONE',  ( 0.0000000000000000000, 0.0000000000000000000, -1.000000000000000000 ) ) ;
#137 = ORIENTED_EDGE ( 'NONE', *, *, #307, .T. ) ;
#138 = STYLED_ITEM ( 'NONE', ( #81 ), #257 ) ;
#139 = AXIS2_PLACEMENT_3D ( 'NONE', #144, #162, #61 ) ;
#140 = CARTESIAN_POINT ( 'NONE',  ( 0.0000000000000000000, 0.0000000000000000000, 2.244094000000000033 ) ) ;
#141 =( CONVERSION_BASED_UNIT ( 'INCH', #7 ) LENGTH_UNIT ( ) NAMED_UNIT ( #70 ) );
#142 = EDGE_LOOP ( 'NONE', ( #15, #237, #269, #310 ) ) ;
#143 = CIRCLE ( 'NONE', #63, 0.06101998323758127396 ) ;
#144 = CARTESIAN_POINT ( 'NONE',  ( 9.177030719781672087E-18, 0.0000000000000000000, 0.005117998791752708006 ) ) ;
#145 = ORIENTED_EDGE ( 'NONE', *, *, #87, .T. ) ;
#146 = EDGE_LOOP ( 'NONE', ( #322, #95 ) ) ;
#147 = EDGE_LOOP ( 'NONE', ( #331, #82, #209, #220 ) ) ;
#148 = VERTEX_POINT ( 'NONE', #3 ) ;
#149 = PLANE ( 'NONE',  #187 ) ;
#150 = SURFACE_STYLE_USAGE ( .BOTH. , #323 ) ;
#151 = UNCERTAINTY_MEASURE_WITH_UNIT (LENGTH_MEASURE( 1.000000000000000082E-05 ), #243, 'distance_accuracy_value', 'NONE');
#152 = DIRECTION ( 'NONE',  ( 0.0000000000000000000, 0.0000000000000000000, -1.000000000000000000 ) ) ;
#153 = FACE_OUTER_BOUND ( 'NONE', #37, .T. ) ;
#154 = DIRECTION ( 'NONE',  ( -1.250499981774462892E-16, -0.0000000000000000000, -1.000000000000000000 ) ) ;
#155 = EDGE_CURVE ( 'NONE', #262, #148, #199, .T. ) ;
#156 = PRODUCT ( 'Micro_CREM-060-080', 'Micro_CREM-060-080', '', ( #249 ) ) ;
#157 = COLOUR_RGB ( '',0.7921568627450980005, 0.8196078431372548767, 0.9333333333333333481 ) ;
#158 = VECTOR ( 'NONE', #46, 39.37007874015748854 ) ;
#159 = DIRECTION ( 'NONE',  ( 0.0000000000000000000, 0.0000000000000000000, -1.000000000000000000 ) ) ;
#160 = EDGE_LOOP ( 'NONE', ( #320, #125 ) ) ;
#161 = CARTESIAN_POINT ( 'NONE',  ( 0.0000000000000000000, 0.0000000000000000000, 0.03661399879175269295 ) ) ;
#162 = DIRECTION ( 'NONE',  ( -1.250499981774462892E-16, -0.0000000000000000000, -1.000000000000000000 ) ) ;
#163 = VERTEX_POINT ( 'NONE', #109 ) ;
#164 = SURFACE_STYLE_USAGE ( .BOTH. , #194 ) ;
#165 = ORIENTED_EDGE ( 'NONE', *, *, #8, .T. ) ;
#166 = EDGE_CURVE ( 'NONE', #29, #17, #114, .T. ) ;
#167 = DIRECTION ( 'NONE',  ( -1.250499981774462892E-16, -0.0000000000000000000, -1.000000000000000000 ) ) ;
#168 = ORIENTED_EDGE ( 'NONE', *, *, #222, .T. ) ;
#169 = AXIS2_PLACEMENT_3D ( 'NONE', #327, #189, #152 ) ;
#170 =( LENGTH_UNIT ( ) NAMED_UNIT ( * ) SI_UNIT ( $, .METRE. ) );
#171 = CIRCLE ( 'NONE', #99, 0.1031100000000002709 ) ;
#172 = CYLINDRICAL_SURFACE ( 'NONE', #50, 0.02952398323758126386 ) ;
#173 = DIRECTION ( 'NONE',  ( -1.250499981774462892E-16, -0.0000000000000000000, -1.000000000000000000 ) ) ;
#174 = EDGE_LOOP ( 'NONE', ( #124, #135, #80, #244 ) ) ;
#175 = PRESENTATION_STYLE_ASSIGNMENT (( #150 ) ) ;
#176 = CYLINDRICAL_SURFACE ( 'NONE', #303, 0.1181100000000000344 ) ;
#177 = DIRECTION ( 'NONE',  ( 0.0000000000000000000, 0.0000000000000000000, 1.000000000000000000 ) ) ;
#178 = DIRECTION ( 'NONE',  ( -1.000000000000000000, 0.0000000000000000000, 1.084204340894185993E-16 ) ) ;
#179 = EDGE_CURVE ( 'NONE', #71, #267, #254, .T. ) ;
#180 = DIRECTION ( 'NONE',  ( 1.000000000000000000, 0.0000000000000000000, 0.0000000000000000000 ) ) ;
#181 = EDGE_CURVE ( 'NONE', #267, #71, #108, .T. ) ;
#182 = DIRECTION ( 'NONE',  ( -0.7071067811865358044, 0.0000000000000000000, -0.7071067811865590080 ) ) ;
#183 = STYLED_ITEM ( 'NONE', ( #175 ), #74 ) ;
#184 = UNCERTAINTY_MEASURE_WITH_UNIT (LENGTH_MEASURE( 1.000000000000000082E-05 ), #69, 'distance_accuracy_value', 'NONE');
#185 = AXIS2_PLACEMENT_3D ( 'NONE', #140, #282, #76 ) ;
#186 = MECHANICAL_DESIGN_GEOMETRIC_PRESENTATION_REPRESENTATION (  '', ( #183 ), #92 ) ;
#187 = AXIS2_PLACEMENT_3D ( 'NONE', #67, #177, #278 ) ;
#188 = DIRECTION ( 'NONE',  ( -1.000000000000000000, 0.0000000000000000000, 0.0000000000000000000 ) ) ;
#189 = DIRECTION ( 'NONE',  ( 0.0000000000000000000, -1.000000000000000000, 0.0000000000000000000 ) ) ;
#190 = EDGE_LOOP ( 'NONE', ( #110, #45, #168, #325 ) ) ;
#191 =( LENGTH_UNIT ( ) NAMED_UNIT ( * ) SI_UNIT ( $, .METRE. ) );
#192 = ADVANCED_FACE ( 'NONE', ( #79 ), #231, .T. ) ;
#193 = EDGE_LOOP ( 'NONE', ( #6, #145, #122, #195 ) ) ;
#194 = SURFACE_SIDE_STYLE ('',( #58 ) ) ;
#195 = ORIENTED_EDGE ( 'NONE', *, *, #98, .F. ) ;
#196 = CARTESIAN_POINT ( 'NONE',  ( 0.0000000000000000000, 0.0000000000000000000, 2.244094000000000033 ) ) ;
#197 = ADVANCED_FACE ( 'NONE', ( #261 ), #308, .T. ) ;
#198 = DIRECTION ( 'NONE',  ( -1.000000000000000000, 0.0000000000000000000, 1.084333486377355109E-16 ) ) ;
#199 = CIRCLE ( 'NONE', #208, 0.1181100000000000344 ) ;
#200 = CARTESIAN_POINT ( 'NONE',  ( 8.537024980200822558E-18, 0.0000000000000000000, -5.510910596163092637E-18 ) ) ;
#201 = CARTESIAN_POINT ( 'NONE',  ( 0.0000000000000000000, 0.0000000000000000000, 2.244094000000000033 ) ) ;
#202 = CARTESIAN_POINT ( 'NONE',  ( 0.0000000000000000000, 0.0000000000000000000, 0.0000000000000000000 ) ) ;
#203 = DIRECTION ( 'NONE',  ( 0.0000000000000000000, 0.0000000000000000000, 1.000000000000000000 ) ) ;
#204 = DIRECTION ( 'NONE',  ( -1.250499981774462892E-16, -0.0000000000000000000, -1.000000000000000000 ) ) ;
#205 = DIRECTION ( 'NONE',  ( -1.000000000000000000, 0.0000000000000000000, 1.250499981774462892E-16 ) ) ;
#206 = LINE ( 'NONE', #287, #27 ) ;
#207 = DIRECTION ( 'NONE',  ( -1.000000000000000000, 0.0000000000000000000, 1.250499981774462892E-16 ) ) ;
#208 = AXIS2_PLACEMENT_3D ( 'NONE', #53, #159, #227 ) ;
#209 = ORIENTED_EDGE ( 'NONE', *, *, #98, .T. ) ;
#210 = CARTESIAN_POINT ( 'NONE',  ( 1.311560546237851870E-17, 0.0000000000000000000, 0.03661399879175269989 ) ) ;
#211 = ORIENTED_EDGE ( 'NONE', *, *, #229, .T. ) ;
#212 = DIRECTION ( 'NONE',  ( -1.000000000000000000, 0.0000000000000000000, 0.0000000000000000000 ) ) ;
#213 = ORIENTED_EDGE ( 'NONE', *, *, #291, .T. ) ;
#214 =( GEOMETRIC_REPRESENTATION_CONTEXT ( 3 ) GLOBAL_UNCERTAINTY_ASSIGNED_CONTEXT ( ( #151 ) ) GLOBAL_UNIT_ASSIGNED_CONTEXT ( ( #243, #5, #314 ) ) REPRESENTATION_CONTEXT ( 'NONE', 'WORKASPACE' ) );
#215 = DIRECTION ( 'NONE',  ( 1.000000000000000000, 0.0000000000000000000, 0.0000000000000000000 ) ) ;
#216 = FACE_OUTER_BOUND ( 'NONE', #234, .T. ) ;
#217 = LINE ( 'NONE', #238, #271 ) ;
#218 = ORIENTED_EDGE ( 'NONE', *, *, #179, .T. ) ;
#219 = CIRCLE ( 'NONE', #9, 0.1181100000000000344 ) ;
#220 = ORIENTED_EDGE ( 'NONE', *, *, #106, .T. ) ;
#221 = DIRECTION ( 'NONE',  ( 0.0000000000000000000, 0.0000000000000000000, 1.000000000000000000 ) ) ;
#222 = EDGE_CURVE ( 'NONE', #262, #29, #2, .T. ) ;
#223 = CARTESIAN_POINT ( 'NONE',  ( 1.311560546237851870E-17, 0.0000000000000000000, 0.03661399879175269989 ) ) ;
#224 = ORIENTED_EDGE ( 'NONE', *, *, #273, .T. ) ;
#225 = AXIS2_PLACEMENT_3D ( 'NONE', #30, #136, #232 ) ;
#226 = CARTESIAN_POINT ( 'NONE',  ( 8.537024980200822558E-18, 0.0000000000000000000, 0.005117998791752701934 ) ) ;
#227 = DIRECTION ( 'NONE',  ( 1.000000000000000000, 0.0000000000000000000, 0.0000000000000000000 ) ) ;
#228 = AXIS2_PLACEMENT_3D ( 'NONE', #85, #167, #296 ) ;
#229 = EDGE_CURVE ( 'NONE', #17, #29, #260, .T. ) ;
#230 = UNCERTAINTY_MEASURE_WITH_UNIT (LENGTH_MEASURE( 1.000000000000000082E-05 ), #141, 'distance_accuracy_value', 'NONE');
#231 = CYLINDRICAL_SURFACE ( 'NONE', #75, 0.1181100000000000344 ) ;
#232 = DIRECTION ( 'NONE',  ( -1.000000000000000000, 0.0000000000000000000, 0.0000000000000000000 ) ) ;
#233 = AXIS2_PLACEMENT_3D ( 'NONE', #223, #242, #100 ) ;
#234 = EDGE_LOOP ( 'NONE', ( #246, #11, #86, #274 ) ) ;
#235 = EDGE_CURVE ( 'NONE', #84, #267, #217, .T. ) ;
#236 = DIRECTION ( 'NONE',  ( 0.0000000000000000000, 0.0000000000000000000, 1.000000000000000000 ) ) ;
#237 = ORIENTED_EDGE ( 'NONE', *, *, #117, .T. ) ;
#238 = CARTESIAN_POINT ( 'NONE',  ( 0.02952398323758127080, 3.615645156998400008E-18, -9.202884646213584237E-18 ) ) ;
#239 = EDGE_LOOP ( 'NONE', ( #59, #165 ) ) ;
#240 = AXIS2_PLACEMENT_3D ( 'NONE', #306, #253, #102 ) ;
#241 = DIRECTION ( 'NONE',  ( 0.0000000000000000000, 0.0000000000000000000, -1.000000000000000000 ) ) ;
#242 = DIRECTION ( 'NONE',  ( -1.250499981774462892E-16, -0.0000000000000000000, -1.000000000000000000 ) ) ;
#243 =( CONVERSION_BASED_UNIT ( 'INCH', #16 ) LENGTH_UNIT ( ) NAMED_UNIT ( #275 ) );
#244 = ORIENTED_EDGE ( 'NONE', *, *, #329, .F. ) ;
#245 = CARTESIAN_POINT ( 'NONE',  ( 0.06101998323758128090, 7.472792715592904953E-18, 0.03661399879175269989 ) ) ;
#246 = ORIENTED_EDGE ( 'NONE', *, *, #64, .T. ) ;
#247 = AXIS2_PLACEMENT_3D ( 'NONE', #202, #221, #251 ) ;
#248 = DIRECTION ( 'NONE',  ( -1.000000000000000000, 0.0000000000000000000, 1.250499981774462892E-16 ) ) ;
#249 = PRODUCT_CONTEXT ( 'NONE', #133, 'mechanical' ) ;
#250 = CARTESIAN_POINT ( 'NONE',  ( -0.1031100000000002709, 0.0000000000000000000, 2.244094000000000033 ) ) ;
#251 = DIRECTION ( 'NONE',  ( 1.000000000000000000, 0.0000000000000000000, 0.0000000000000000000 ) ) ;
#252 = DIMENSIONAL_EXPONENTS ( 1.000000000000000000, 0.0000000000000000000, 0.0000000000000000000, 0.0000000000000000000, 0.0000000000000000000, 0.0000000000000000000, 0.0000000000000000000 ) ;
#253 = DIRECTION ( 'NONE',  ( -1.250499981774462892E-16, 0.0000000000000000000, -1.000000000000000000 ) ) ;
#254 = CIRCLE ( 'NONE', #255, 0.02952398323758126386 ) ;
#255 = AXIS2_PLACEMENT_3D ( 'NONE', #328, #28, #256 ) ;
#256 = DIRECTION ( 'NONE',  ( 1.000000000000000000, 0.0000000000000000000, 0.0000000000000000000 ) ) ;
#257 = MANIFOLD_SOLID_BREP ( 'Cut-Revolve1', #32 ) ;
#258 = DIRECTION ( 'NONE',  ( -1.250499981774462892E-16, -0.0000000000000000000, -1.000000000000000000 ) ) ;
#259 = PRESENTATION_LAYER_ASSIGNMENT (  '', '', ( #183 ) ) ;
#260 = CIRCLE ( 'NONE', #91, 0.1181100000000000344 ) ;
#261 = FACE_OUTER_BOUND ( 'NONE', #142, .T. ) ;
#262 = VERTEX_POINT ( 'NONE', #118 ) ;
#263 = DIRECTION ( 'NONE',  ( -1.250499981774462892E-16, -0.0000000000000000000, -1.000000000000000000 ) ) ;
#264 = CIRCLE ( 'NONE', #139, 0.02952398323758126386 ) ;
#265 = CARTESIAN_POINT ( 'NONE',  ( -0.02952398323758125345, 0.0000000000000000000, -1.818936546112600652E-18 ) ) ;
#266 = LINE ( 'NONE', #265, #83 ) ;
#267 = VERTEX_POINT ( 'NONE', #90 ) ;
#268 = CARTESIAN_POINT ( 'NONE',  ( 0.1181100000000000344, 1.446430334472939084E-17, 2.244094000000000033 ) ) ;
#269 = ORIENTED_EDGE ( 'NONE', *, *, #155, .F. ) ;
#270 = CIRCLE ( 'NONE', #1, 0.03149600000000000316 ) ;
#271 = VECTOR ( 'NONE', #113, 39.37007874015748143 ) ;
#272 = CARTESIAN_POINT ( 'NONE',  ( 8.537024980200822558E-18, 0.0000000000000000000, -5.510910596163092637E-18 ) ) ;
#273 = EDGE_CURVE ( 'NONE', #148, #17, #115, .T. ) ;
#274 = ORIENTED_EDGE ( 'NONE', *, *, #307, .F. ) ;
#275 = DIMENSIONAL_EXPONENTS ( 1.000000000000000000, 0.0000000000000000000, 0.0000000000000000000, 0.0000000000000000000, 0.0000000000000000000, 0.0000000000000000000, 0.0000000000000000000 ) ;
#276 = CARTESIAN_POINT ( 'NONE',  ( -0.06101998323758125314, 0.0000000000000000000, 0.03661399879175271377 ) ) ;
#277 = PRESENTATION_LAYER_ASSIGNMENT (  '', '', ( #138 ) ) ;
#278 = DIRECTION ( 'NONE',  ( 1.000000000000000000, 0.0000000000000000000, -0.0000000000000000000 ) ) ;
#279 = DIRECTION ( 'NONE',  ( -1.224646799147353207E-16, 1.000000000000000000, 1.531420800013919374E-32 ) ) ;
#280 = CARTESIAN_POINT ( 'NONE',  ( 0.0000000000000000000, 0.0000000000000000000, 2.244094000000000033 ) ) ;
#281 = COLOUR_RGB ( '',0.7921568627450980005, 0.8196078431372548767, 0.9333333333333333481 ) ;
#282 = DIRECTION ( 'NONE',  ( 0.0000000000000000000, 0.0000000000000000000, 1.000000000000000000 ) ) ;
#283 = ADVANCED_FACE ( 'NONE', ( #317 ), #121, .F. ) ;
#284 = CIRCLE ( 'NONE', #132, 0.02952398323758126386 ) ;
#285 = CARTESIAN_POINT ( 'NONE',  ( 0.1031100000000002709, 1.262733314600839129E-17, 2.244094000000000033 ) ) ;
#286 = PRODUCT_DEFINITION_CONTEXT ( 'detailed design', #20, 'design' ) ;
#287 = CARTESIAN_POINT ( 'NONE',  ( -0.1031100000000002709, 0.0000000000000000000, 2.244094000000000033 ) ) ;
#288 = PLANE ( 'NONE',  #26 ) ;
#289 = ADVANCED_FACE ( 'NONE', ( #60 ), #288, .T. ) ;
#290 =( NAMED_UNIT ( * ) SI_UNIT ( $, .STERADIAN. ) SOLID_ANGLE_UNIT ( ) );
#291 = EDGE_CURVE ( 'NONE', #84, #163, #264, .T. ) ;
#292 = DIRECTION ( 'NONE',  ( 0.0000000000000000000, 0.0000000000000000000, 1.000000000000000000 ) ) ;
#293 = CARTESIAN_POINT ( 'NONE',  ( -0.02952398323758125345, 0.0000000000000000000, 0.0000000000000000000 ) ) ;
#294 = AXIS2_PLACEMENT_3D ( 'NONE', #56, #236, #180 ) ;
#295 = AXIS2_PLACEMENT_3D ( 'NONE', #200, #42, #248 ) ;
#296 = DIRECTION ( 'NONE',  ( -1.000000000000000000, 0.0000000000000000000, 1.250499981774462892E-16 ) ) ;
#297 = EDGE_LOOP ( 'NONE', ( #65, #224, #324, #119 ) ) ;
#298 =( NAMED_UNIT ( * ) PLANE_ANGLE_UNIT ( ) SI_UNIT ( $, .RADIAN. ) );
#299 = CARTESIAN_POINT ( 'NONE',  ( 0.1181100000000000344, 1.446430334472939084E-17, 0.03661399879175267907 ) ) ;
#300 = SHAPE_DEFINITION_REPRESENTATION ( #21, #74 ) ;
#301 = DIRECTION ( 'NONE',  ( -1.000000000000000000, 0.0000000000000000000, 0.0000000000000000000 ) ) ;
#302 = SURFACE_STYLE_FILL_AREA ( #25 ) ;
#303 = AXIS2_PLACEMENT_3D ( 'NONE', #13, #116, #301 ) ;
#304 = CARTESIAN_POINT ( 'NONE',  ( 0.1031100000000002709, 1.354581824536889030E-17, 2.244094000000000033 ) ) ;
#305 = FACE_OUTER_BOUND ( 'NONE', #174, .T. ) ;
#306 = CARTESIAN_POINT ( 'NONE',  ( -0.06101998323758125314, 0.0000000000000000000, 0.03661399879175271377 ) ) ;
#307 = EDGE_CURVE ( 'NONE', #163, #71, #266, .T. ) ;
#308 = CONICAL_SURFACE ( 'NONE', #225, 0.1031100000000002709, 0.7853981633974318477 ) ;
#309 = LINE ( 'NONE', #285, #158 ) ;
#310 = ORIENTED_EDGE ( 'NONE', *, *, #111, .F. ) ;
#311 = DIRECTION ( 'NONE',  ( -0.0000000000000000000, -0.0000000000000000000, -1.000000000000000000 ) ) ;
#312 = CARTESIAN_POINT ( 'NONE',  ( 0.0000000000000000000, 0.0000000000000000000, 0.03661399879175269295 ) ) ;
#313 = EDGE_LOOP ( 'NONE', ( #112, #213, #137, #218 ) ) ;
#314 =( NAMED_UNIT ( * ) SI_UNIT ( $, .STERADIAN. ) SOLID_ANGLE_UNIT ( ) );
#315 = VERTEX_POINT ( 'NONE', #245 ) ;
#316 = CIRCLE ( 'NONE', #169, 0.03149600000000000316 ) ;
#317 = FACE_OUTER_BOUND ( 'NONE', #147, .T. ) ;
#318 = CYLINDRICAL_SURFACE ( 'NONE', #295, 0.02952398323758126386 ) ;
#319 = DIRECTION ( 'NONE',  ( 1.000000000000000000, 0.0000000000000000000, -0.0000000000000000000 ) ) ;
#320 = ORIENTED_EDGE ( 'NONE', *, *, #106, .F. ) ;
#321 =( NAMED_UNIT ( * ) SI_UNIT ( $, .STERADIAN. ) SOLID_ANGLE_UNIT ( ) );
#322 = ORIENTED_EDGE ( 'NONE', *, *, #179, .F. ) ;
#323 = SURFACE_SIDE_STYLE ('',( #302 ) ) ;
#324 = ORIENTED_EDGE ( 'NONE', *, *, #166, .F. ) ;
#325 = ORIENTED_EDGE ( 'NONE', *, *, #229, .F. ) ;
#326 = CONICAL_SURFACE ( 'NONE', #126, 0.1031100000000002709, 0.7853981633974318477 ) ;
#327 = CARTESIAN_POINT ( 'NONE',  ( -0.06101998323758125314, 0.0000000000000000000, 0.005117998791752708873 ) ) ;
#328 = CARTESIAN_POINT ( 'NONE',  ( 8.537024980200822558E-18, 0.0000000000000000000, 0.0000000000000000000 ) ) ;
#329 = EDGE_CURVE ( 'NONE', #148, #262, #219, .T. ) ;
#330 = DIRECTION ( 'NONE',  ( -1.000000000000000000, 0.0000000000000000000, 1.399053970067792438E-16 ) ) ;
#331 = ORIENTED_EDGE ( 'NONE', *, *, #87, .F. ) ;
ENDSEC;
END-ISO-10303-21;
