ISO-10303-21;
HEADER;
FILE_DESCRIPTION (( 'STEP AP214' ),
    '1' );
FILE_NAME ('84082.STEP',
    '2023-06-23T11:27:22',
    ( '' ),
    ( '' ),
    'SwSTEP 2.0',
    'SolidWorks 2023',
    '' );
FILE_SCHEMA (( 'AUTOMOTIVE_DESIGN' ));
ENDSEC;

DATA;
#1 = CYLINDRICAL_SURFACE ( 'NONE', #72, 0.1250000000000000278 ) ;
#2 =( GEOMETRIC_REPRESENTATION_CONTEXT ( 3 ) GLOBAL_UNCERTAINTY_ASSIGNED_CONTEXT ( ( #235 ) ) GLOBAL_UNIT_ASSIGNED_CONTEXT ( ( #219, #55, #86 ) ) REPRESENTATION_CONTEXT ( 'NONE', 'WORKASPACE' ) );
#3 = DIRECTION ( 'NONE',  ( -0.2588190451025215166, 0.9659258262890679791, 0.000000000000000000 ) ) ;
#4 = ORIENTED_EDGE ( 'NONE', *, *, #131, .F. ) ;
#5 = STYLED_ITEM ( 'NONE', ( #123 ), #261 ) ;
#6 = CARTESIAN_POINT ( 'NONE',  ( 5.323720112664215538E-36, 0.1562000000000000055, 0.000000000000000000 ) ) ;
#7 = DIMENSIONAL_EXPONENTS ( 1.000000000000000000, 0.000000000000000000, 0.000000000000000000, 0.000000000000000000, 0.000000000000000000, 0.000000000000000000, 0.000000000000000000 ) ;
#8 = CYLINDRICAL_SURFACE ( 'NONE', #218, 0.01559999999999999928 ) ;
#9 = ORIENTED_EDGE ( 'NONE', *, *, #333, .F. ) ;
#10 = FILL_AREA_STYLE ('',( #73 ) ) ;
#11 = DIMENSIONAL_EXPONENTS ( 1.000000000000000000, 0.000000000000000000, 0.000000000000000000, 0.000000000000000000, 0.000000000000000000, 0.000000000000000000, 0.000000000000000000 ) ;
#12 = EDGE_CURVE ( 'NONE', #49, #180, #62, .T. ) ;
#13 = EDGE_LOOP ( 'NONE', ( #162, #126, #204, #125 ) ) ;
#14 =( LENGTH_UNIT ( ) NAMED_UNIT ( * ) SI_UNIT ( $, .METRE. ) );
#15 = VERTEX_POINT ( 'NONE', #244 ) ;
#16 = AXIS2_PLACEMENT_3D ( 'NONE', #328, #346, #133 ) ;
#17 = CARTESIAN_POINT ( 'NONE',  ( -0.1250000000000001388, 2.500000000000000000, 0.000000000000000000 ) ) ;
#18 = EDGE_CURVE ( 'NONE', #23, #232, #284, .T. ) ;
#19 = CARTESIAN_POINT ( 'NONE',  ( 0.000000000000000000, 0.000000000000000000, 0.000000000000000000 ) ) ;
#20 = DIMENSIONAL_EXPONENTS ( 1.000000000000000000, 0.000000000000000000, 0.000000000000000000, 0.000000000000000000, 0.000000000000000000, 0.000000000000000000, 0.000000000000000000 ) ;
#21 = APPLICATION_PROTOCOL_DEFINITION ( 'draft international standard', 'automotive_design', 1998, #39 ) ;
#22 = DIRECTION ( 'NONE',  ( 0.000000000000000000, 0.000000000000000000, -1.000000000000000000 ) ) ;
#23 = VERTEX_POINT ( 'NONE', #17 ) ;
#24 = FACE_OUTER_BOUND ( 'NONE', #278, .T. ) ;
#25 = MECHANICAL_DESIGN_GEOMETRIC_PRESENTATION_REPRESENTATION (  '', ( #350 ), #320 ) ;
#26 =( GEOMETRIC_REPRESENTATION_CONTEXT ( 3 ) GLOBAL_UNCERTAINTY_ASSIGNED_CONTEXT ( ( #253 ) ) GLOBAL_UNIT_ASSIGNED_CONTEXT ( ( #198, #52, #342 ) ) REPRESENTATION_CONTEXT ( 'NONE', 'WORKASPACE' ) );
#27 = DIRECTION ( 'NONE',  ( -1.000000000000000000, 0.000000000000000000, 0.000000000000000000 ) ) ;
#28 = ADVANCED_BREP_SHAPE_REPRESENTATION ( '84082', ( #261, #268, #286 ), #89 ) ;
#29 = CARTESIAN_POINT ( 'NONE',  ( -0.1250000000000000000, 0.5644863583480339564, 0.000000000000000000 ) ) ;
#30 = PLANE ( 'NONE',  #288 ) ;
#31 = DIRECTION ( 'NONE',  ( -0.000000000000000000, -1.000000000000000000, -0.000000000000000000 ) ) ;
#32 = CARTESIAN_POINT ( 'NONE',  ( 0.000000000000000000, 0.000000000000000000, 0.000000000000000000 ) ) ;
#33 = CLOSED_SHELL ( 'NONE', ( #122, #168, #237, #324 ) ) ;
#34 = SURFACE_STYLE_USAGE ( .BOTH. , #166 ) ;
#35 = FILL_AREA_STYLE ('',( #222 ) ) ;
#36 = VECTOR ( 'NONE', #312, 39.37007874015748143 ) ;
#37 = MECHANICAL_DESIGN_GEOMETRIC_PRESENTATION_REPRESENTATION (  '', ( #234 ), #26 ) ;
#38 = FILL_AREA_STYLE ('',( #193 ) ) ;
#39 = APPLICATION_CONTEXT ( 'automotive_design' ) ;
#40 = CARTESIAN_POINT ( 'NONE',  ( -1.066657952654767309E-17, 0.5644863583480339564, 0.000000000000000000 ) ) ;
#41 = EDGE_LOOP ( 'NONE', ( #236, #80, #150, #296 ) ) ;
#42 = ORIENTED_EDGE ( 'NONE', *, *, #18, .T. ) ;
#43 = CIRCLE ( 'NONE', #102, 0.01559999999999999928 ) ;
#44 =( NAMED_UNIT ( * ) PLANE_ANGLE_UNIT ( ) SI_UNIT ( $, .RADIAN. ) );
#45 = COLOUR_RGB ( '',1.000000000000000000, 0.000000000000000000, 0.000000000000000000 ) ;
#46 = EDGE_CURVE ( 'NONE', #180, #49, #88, .T. ) ;
#47 = PLANE ( 'NONE',  #70 ) ;
#48 =( LENGTH_UNIT ( ) NAMED_UNIT ( * ) SI_UNIT ( $, .METRE. ) );
#49 = VERTEX_POINT ( 'NONE', #184 ) ;
#50 = EDGE_CURVE ( 'NONE', #15, #232, #359, .T. ) ;
#51 = VERTEX_POINT ( 'NONE', #299 ) ;
#52 =( NAMED_UNIT ( * ) PLANE_ANGLE_UNIT ( ) SI_UNIT ( $, .RADIAN. ) );
#53 = VECTOR ( 'NONE', #92, 39.37007874015748143 ) ;
#54 = ORIENTED_EDGE ( 'NONE', *, *, #164, .T. ) ;
#55 =( NAMED_UNIT ( * ) PLANE_ANGLE_UNIT ( ) SI_UNIT ( $, .RADIAN. ) );
#56 = DIMENSIONAL_EXPONENTS ( 1.000000000000000000, 0.000000000000000000, 0.000000000000000000, 0.000000000000000000, 0.000000000000000000, 0.000000000000000000, 0.000000000000000000 ) ;
#57 = FACE_OUTER_BOUND ( 'NONE', #130, .T. ) ;
#58 = VERTEX_POINT ( 'NONE', #319 ) ;
#59 = FACE_OUTER_BOUND ( 'NONE', #192, .T. ) ;
#60 = EDGE_CURVE ( 'NONE', #58, #145, #147, .T. ) ;
#61 = DIRECTION ( 'NONE',  ( -2.612524104333461037E-17, 1.000000000000000000, -0.000000000000000000 ) ) ;
#62 = CIRCLE ( 'NONE', #16, 0.01559999999999999928 ) ;
#63 = CARTESIAN_POINT ( 'NONE',  ( 0.000000000000000000, 0.1562000000000000055, 0.000000000000000000 ) ) ;
#64 =( NAMED_UNIT ( * ) PLANE_ANGLE_UNIT ( ) SI_UNIT ( $, .RADIAN. ) );
#65 = PRESENTATION_LAYER_ASSIGNMENT (  '', '', ( #350 ) ) ;
#66 = CONICAL_SURFACE ( 'NONE', #321, 0.01559999999999999928, 0.2617993877991502405 ) ;
#67 = EDGE_CURVE ( 'NONE', #51, #58, #118, .T. ) ;
#68 = PRESENTATION_STYLE_ASSIGNMENT (( #34 ) ) ;
#69 = VECTOR ( 'NONE', #190, 39.37007874015748143 ) ;
#70 = AXIS2_PLACEMENT_3D ( 'NONE', #75, #337, #176 ) ;
#71 = FACE_OUTER_BOUND ( 'NONE', #322, .T. ) ;
#72 = AXIS2_PLACEMENT_3D ( 'NONE', #281, #119, #251 ) ;
#73 = FILL_AREA_STYLE_COLOUR ( '', #45 ) ;
#74 = SURFACE_SIDE_STYLE ('',( #201 ) ) ;
#75 = CARTESIAN_POINT ( 'NONE',  ( 0.1250000000000000000, 2.500000000000000000, 0.000000000000000000 ) ) ;
#76 = UNCERTAINTY_MEASURE_WITH_UNIT (LENGTH_MEASURE( 1.000000000000000082E-05 ), #83, 'distance_accuracy_value', 'NONE');
#77 = CARTESIAN_POINT ( 'NONE',  ( -6.123233995736766036E-17, 2.500000000000000000, 0.000000000000000000 ) ) ;
#78 = DIRECTION ( 'NONE',  ( 0.000000000000000000, 0.000000000000000000, -1.000000000000000000 ) ) ;
#79 = DIMENSIONAL_EXPONENTS ( 1.000000000000000000, 0.000000000000000000, 0.000000000000000000, 0.000000000000000000, 0.000000000000000000, 0.000000000000000000, 0.000000000000000000 ) ;
#80 = ORIENTED_EDGE ( 'NONE', *, *, #50, .T. ) ;
#81 = VECTOR ( 'NONE', #3, 39.37007874015748143 ) ;
#82 = SURFACE_SIDE_STYLE ('',( #161 ) ) ;
#83 =( CONVERSION_BASED_UNIT ( 'INCH', #185 ) LENGTH_UNIT ( ) NAMED_UNIT ( #11 ) );
#84 = DIRECTION ( 'NONE',  ( 0.000000000000000000, -0.000000000000000000, 1.000000000000000000 ) ) ;
#85 = ORIENTED_EDGE ( 'NONE', *, *, #50, .F. ) ;
#86 =( NAMED_UNIT ( * ) SI_UNIT ( $, .STERADIAN. ) SOLID_ANGLE_UNIT ( ) );
#87 = DIRECTION ( 'NONE',  ( -2.612524104333461037E-17, 1.000000000000000000, -0.000000000000000000 ) ) ;
#88 = CIRCLE ( 'NONE', #356, 0.01559999999999999928 ) ;
#89 =( GEOMETRIC_REPRESENTATION_CONTEXT ( 3 ) GLOBAL_UNCERTAINTY_ASSIGNED_CONTEXT ( ( #76 ) ) GLOBAL_UNIT_ASSIGNED_CONTEXT ( ( #83, #267, #347 ) ) REPRESENTATION_CONTEXT ( 'NONE', 'WORKASPACE' ) );
#90 = CARTESIAN_POINT ( 'NONE',  ( -0.1250000000000001110, 2.500000000000000000, 0.000000000000000000 ) ) ;
#91 =( NAMED_UNIT ( * ) PLANE_ANGLE_UNIT ( ) SI_UNIT ( $, .RADIAN. ) );
#92 = DIRECTION ( 'NONE',  ( -0.000000000000000000, -1.000000000000000000, -0.000000000000000000 ) ) ;
#93 = CIRCLE ( 'NONE', #263, 0.1250000000000000278 ) ;
#94 = PRODUCT ( '84082', '84082', '', ( #275 ) ) ;
#95 =( NAMED_UNIT ( * ) SI_UNIT ( $, .STERADIAN. ) SOLID_ANGLE_UNIT ( ) );
#96 = FILL_AREA_STYLE ('',( #332 ) ) ;
#97 = SURFACE_STYLE_FILL_AREA ( #35 ) ;
#98 = AXIS2_PLACEMENT_3D ( 'NONE', #246, #208, #247 ) ;
#99 = CARTESIAN_POINT ( 'NONE',  ( 1.910449006669871164E-18, 0.1562000000000000055, 0.01559999999999999928 ) ) ;
#100 = SURFACE_STYLE_USAGE ( .BOTH. , #174 ) ;
#101 = FILL_AREA_STYLE_COLOUR ( '', #301 ) ;
#102 = AXIS2_PLACEMENT_3D ( 'NONE', #63, #353, #22 ) ;
#103 = DIRECTION ( 'NONE',  ( -2.612524104333461037E-17, 1.000000000000000000, -0.000000000000000000 ) ) ;
#104 = ORIENTED_EDGE ( 'NONE', *, *, #111, .F. ) ;
#105 = DIRECTION ( 'NONE',  ( -0.000000000000000000, -1.000000000000000000, -0.000000000000000000 ) ) ;
#106 = CARTESIAN_POINT ( 'NONE',  ( 1.910449006669871164E-18, 0.000000000000000000, 0.01559999999999999928 ) ) ;
#107 = CARTESIAN_POINT ( 'NONE',  ( 0.1249999999999999584, 2.500000000000000000, 1.530808498934191817E-17 ) ) ;
#108 = SHAPE_DEFINITION_REPRESENTATION ( #211, #28 ) ;
#109 = AXIS2_PLACEMENT_3D ( 'NONE', #271, #87, #135 ) ;
#110 = DIRECTION ( 'NONE',  ( 0.2588190451025215166, 0.9659258262890679791, 3.169619151431774186E-17 ) ) ;
#111 = EDGE_CURVE ( 'NONE', #315, #145, #260, .T. ) ;
#112 = DIRECTION ( 'NONE',  ( -1.000000000000000000, 0.000000000000000000, 0.000000000000000000 ) ) ;
#113 = DIRECTION ( 'NONE',  ( -1.000000000000000000, 0.000000000000000000, 0.000000000000000000 ) ) ;
#114 =( NAMED_UNIT ( * ) SI_UNIT ( $, .STERADIAN. ) SOLID_ANGLE_UNIT ( ) );
#115 =( CONVERSION_BASED_UNIT ( 'INCH', #153 ) LENGTH_UNIT ( ) NAMED_UNIT ( #56 ) );
#116 = PRESENTATION_LAYER_ASSIGNMENT (  '', '', ( #330 ) ) ;
#117 = AXIS2_PLACEMENT_3D ( 'NONE', #146, #189, #113 ) ;
#118 = LINE ( 'NONE', #221, #53 ) ;
#119 = DIRECTION ( 'NONE',  ( -2.612524104333461037E-17, 1.000000000000000000, -0.000000000000000000 ) ) ;
#120 = CIRCLE ( 'NONE', #279, 0.1250000000000000278 ) ;
#121 = CIRCLE ( 'NONE', #187, 0.01559999999999999928 ) ;
#122 = ADVANCED_FACE ( 'NONE', ( #339 ), #8, .T. ) ;
#123 = PRESENTATION_STYLE_ASSIGNMENT (( #309 ) ) ;
#124 = SURFACE_SIDE_STYLE ('',( #305 ) ) ;
#125 = ORIENTED_EDGE ( 'NONE', *, *, #67, .F. ) ;
#126 = ORIENTED_EDGE ( 'NONE', *, *, #111, .T. ) ;
#127 = LENGTH_MEASURE_WITH_UNIT ( LENGTH_MEASURE( 0.02539999999999999897 ), #335 );
#128 = ORIENTED_EDGE ( 'NONE', *, *, #329, .F. ) ;
#129 = UNCERTAINTY_MEASURE_WITH_UNIT (LENGTH_MEASURE( 1.000000000000000082E-05 ), #203, 'distance_accuracy_value', 'NONE');
#130 = EDGE_LOOP ( 'NONE', ( #104, #54, #295, #128 ) ) ;
#131 = EDGE_CURVE ( 'NONE', #51, #315, #43, .T. ) ;
#132 = DIRECTION ( 'NONE',  ( 0.000000000000000000, 1.000000000000000000, 0.000000000000000000 ) ) ;
#133 = DIRECTION ( 'NONE',  ( -1.000000000000000000, 0.000000000000000000, 0.000000000000000000 ) ) ;
#134 = VECTOR ( 'NONE', #110, 39.37007874015748143 ) ;
#135 = DIRECTION ( 'NONE',  ( -1.000000000000000000, 0.000000000000000000, 0.000000000000000000 ) ) ;
#136 = DIRECTION ( 'NONE',  ( 0.000000000000000000, 0.000000000000000000, 1.000000000000000000 ) ) ;
#137 = PRODUCT_RELATED_PRODUCT_CATEGORY ( 'part', '', ( #94 ) ) ;
#138 =( GEOMETRIC_REPRESENTATION_CONTEXT ( 3 ) GLOBAL_UNCERTAINTY_ASSIGNED_CONTEXT ( ( #265 ) ) GLOBAL_UNIT_ASSIGNED_CONTEXT ( ( #140, #307, #95 ) ) REPRESENTATION_CONTEXT ( 'NONE', 'WORKASPACE' ) );
#139 = DIRECTION ( 'NONE',  ( -0.000000000000000000, -1.000000000000000000, -0.000000000000000000 ) ) ;
#140 =( CONVERSION_BASED_UNIT ( 'INCH', #223 ) LENGTH_UNIT ( ) NAMED_UNIT ( #318 ) );
#141 = ADVANCED_FACE ( 'NONE', ( #24 ), #343, .T. ) ;
#142 = FACE_OUTER_BOUND ( 'NONE', #351, .T. ) ;
#143 = UNCERTAINTY_MEASURE_WITH_UNIT (LENGTH_MEASURE( 1.000000000000000082E-05 ), #115, 'distance_accuracy_value', 'NONE');
#144 =( CONVERSION_BASED_UNIT ( 'INCH', #250 ) LENGTH_UNIT ( ) NAMED_UNIT ( #79 ) );
#145 = VERTEX_POINT ( 'NONE', #188 ) ;
#146 = CARTESIAN_POINT ( 'NONE',  ( -6.123233995736766036E-17, 2.500000000000000000, 0.000000000000000000 ) ) ;
#147 = CIRCLE ( 'NONE', #194, 0.01559999999999999928 ) ;
#148 =( NAMED_UNIT ( * ) SI_UNIT ( $, .STERADIAN. ) SOLID_ANGLE_UNIT ( ) );
#149 = ORIENTED_EDGE ( 'NONE', *, *, #175, .T. ) ;
#150 = ORIENTED_EDGE ( 'NONE', *, *, #18, .F. ) ;
#151 = CLOSED_SHELL ( 'NONE', ( #297, #354, #277, #141, #248, #310 ) ) ;
#152 = DIRECTION ( 'NONE',  ( -2.612524104333461037E-17, 1.000000000000000000, -0.000000000000000000 ) ) ;
#153 = LENGTH_MEASURE_WITH_UNIT ( LENGTH_MEASURE( 0.02539999999999999897 ), #48 );
#154 = ORIENTED_EDGE ( 'NONE', *, *, #205, .F. ) ;
#155 = APPLICATION_PROTOCOL_DEFINITION ( 'draft international standard', 'automotive_design', 1998, #302 ) ;
#156 = EDGE_LOOP ( 'NONE', ( #182, #270 ) ) ;
#157 = CARTESIAN_POINT ( 'NONE',  ( 0.1250000000000000278, 2.500000000000000000, 1.530808498934192125E-17 ) ) ;
#158 = MECHANICAL_DESIGN_GEOMETRIC_PRESENTATION_REPRESENTATION (  '', ( #5 ), #138 ) ;
#159 = LENGTH_MEASURE_WITH_UNIT ( LENGTH_MEASURE( 0.02539999999999999897 ), #183 );
#160 = FILL_AREA_STYLE_COLOUR ( '', #272 ) ;
#161 = SURFACE_STYLE_FILL_AREA ( #325 ) ;
#162 = ORIENTED_EDGE ( 'NONE', *, *, #131, .T. ) ;
#163 = STYLED_ITEM ( 'NONE', ( #276 ), #168 ) ;
#164 = EDGE_CURVE ( 'NONE', #315, #51, #304, .T. ) ;
#165 =( NAMED_UNIT ( * ) SI_UNIT ( $, .STERADIAN. ) SOLID_ANGLE_UNIT ( ) );
#166 = SURFACE_SIDE_STYLE ('',( #97 ) ) ;
#167 =( LENGTH_UNIT ( ) NAMED_UNIT ( * ) SI_UNIT ( $, .METRE. ) );
#168 = ADVANCED_FACE ( 'NONE', ( #355 ), #30, .T. ) ;
#169 = SURFACE_STYLE_USAGE ( .BOTH. , #197 ) ;
#170 = ORIENTED_EDGE ( 'NONE', *, *, #259, .F. ) ;
#171 = SURFACE_STYLE_FILL_AREA ( #10 ) ;
#172 = VECTOR ( 'NONE', #207, 39.37007874015748143 ) ;
#173 = EDGE_LOOP ( 'NONE', ( #4, #289 ) ) ;
#174 = SURFACE_SIDE_STYLE ('',( #171 ) ) ;
#175 = EDGE_CURVE ( 'NONE', #15, #177, #93, .T. ) ;
#176 = DIRECTION ( 'NONE',  ( 1.000000000000000000, 2.612524104333461037E-17, 0.000000000000000000 ) ) ;
#177 = VERTEX_POINT ( 'NONE', #29 ) ;
#178 = LINE ( 'NONE', #293, #81 ) ;
#179 = AXIS2_PLACEMENT_3D ( 'NONE', #252, #327, #285 ) ;
#180 = VERTEX_POINT ( 'NONE', #326 ) ;
#181 = SURFACE_STYLE_USAGE ( .BOTH. , #82 ) ;
#182 = ORIENTED_EDGE ( 'NONE', *, *, #60, .T. ) ;
#183 =( LENGTH_UNIT ( ) NAMED_UNIT ( * ) SI_UNIT ( $, .METRE. ) );
#184 = CARTESIAN_POINT ( 'NONE',  ( 0.01559999999999999928, 0.1562000000000000888, 8.609266998005893705E-18 ) ) ;
#185 = LENGTH_MEASURE_WITH_UNIT ( LENGTH_MEASURE( 0.02539999999999999897 ), #349 );
#186 = PRESENTATION_LAYER_ASSIGNMENT (  '', '', ( #163 ) ) ;
#187 = AXIS2_PLACEMENT_3D ( 'NONE', #345, #105, #317 ) ;
#188 = CARTESIAN_POINT ( 'NONE',  ( 1.910449006669871164E-18, 0.000000000000000000, 0.01559999999999999928 ) ) ;
#189 = DIRECTION ( 'NONE',  ( -2.612524104333461037E-17, 1.000000000000000000, -0.000000000000000000 ) ) ;
#190 = DIRECTION ( 'NONE',  ( -2.612524104333461037E-17, 1.000000000000000000, -0.000000000000000000 ) ) ;
#191 = CYLINDRICAL_SURFACE ( 'NONE', #179, 0.01559999999999999928 ) ;
#192 = EDGE_LOOP ( 'NONE', ( #257, #266, #170, #9 ) ) ;
#193 = FILL_AREA_STYLE_COLOUR ( '', #314 ) ;
#194 = AXIS2_PLACEMENT_3D ( 'NONE', #32, #139, #249 ) ;
#195 = AXIS2_PLACEMENT_3D ( 'NONE', #254, #103, #313 ) ;
#196 = SURFACE_STYLE_FILL_AREA ( #96 ) ;
#197 = SURFACE_SIDE_STYLE ('',( #196 ) ) ;
#198 =( CONVERSION_BASED_UNIT ( 'INCH', #228 ) LENGTH_UNIT ( ) NAMED_UNIT ( #7 ) );
#199 = FACE_OUTER_BOUND ( 'NONE', #156, .T. ) ;
#200 = CYLINDRICAL_SURFACE ( 'NONE', #195, 0.1250000000000000278 ) ;
#201 = SURFACE_STYLE_FILL_AREA ( #239 ) ;
#202 = ORIENTED_EDGE ( 'NONE', *, *, #231, .T. ) ;
#203 =( CONVERSION_BASED_UNIT ( 'INCH', #127 ) LENGTH_UNIT ( ) NAMED_UNIT ( #20 ) );
#204 = ORIENTED_EDGE ( 'NONE', *, *, #60, .F. ) ;
#205 = EDGE_CURVE ( 'NONE', #49, #15, #298, .T. ) ;
#206 = PRESENTATION_STYLE_ASSIGNMENT (( #262 ) ) ;
#207 = DIRECTION ( 'NONE',  ( -2.612524104333461037E-17, 1.000000000000000000, -0.000000000000000000 ) ) ;
#208 = DIRECTION ( 'NONE',  ( -0.000000000000000000, -1.000000000000000000, -0.000000000000000000 ) ) ;
#209 = PRESENTATION_LAYER_ASSIGNMENT (  '', '', ( #5 ) ) ;
#210 = PRODUCT_DEFINITION_FORMATION_WITH_SPECIFIED_SOURCE ( 'ANY', '', #94, .NOT_KNOWN. ) ;
#211 = PRODUCT_DEFINITION_SHAPE ( 'NONE', 'NONE',  #283 ) ;
#212 = CARTESIAN_POINT ( 'NONE',  ( 0.000000000000000000, 0.1562000000000000888, 0.000000000000000000 ) ) ;
#213 = LINE ( 'NONE', #90, #69 ) ;
#214 = DIMENSIONAL_EXPONENTS ( 1.000000000000000000, 0.000000000000000000, 0.000000000000000000, 0.000000000000000000, 0.000000000000000000, 0.000000000000000000, 0.000000000000000000 ) ;
#215 = DIRECTION ( 'NONE',  ( -2.612524104333461037E-17, 1.000000000000000000, -0.000000000000000000 ) ) ;
#216 = DIRECTION ( 'NONE',  ( 0.000000000000000000, 0.000000000000000000, -1.000000000000000000 ) ) ;
#217 = CARTESIAN_POINT ( 'NONE',  ( 0.000000000000000000, 0.000000000000000000, 0.000000000000000000 ) ) ;
#218 = AXIS2_PLACEMENT_3D ( 'NONE', #217, #31, #216 ) ;
#219 =( CONVERSION_BASED_UNIT ( 'INCH', #159 ) LENGTH_UNIT ( ) NAMED_UNIT ( #214 ) );
#220 = PRESENTATION_STYLE_ASSIGNMENT (( #169 ) ) ;
#221 = CARTESIAN_POINT ( 'NONE',  ( 0.000000000000000000, 0.000000000000000000, -0.01559999999999999928 ) ) ;
#222 = FILL_AREA_STYLE_COLOUR ( '', #224 ) ;
#223 = LENGTH_MEASURE_WITH_UNIT ( LENGTH_MEASURE( 0.02539999999999999897 ), #282 );
#224 = COLOUR_RGB ( '',1.000000000000000000, 0.000000000000000000, 0.000000000000000000 ) ;
#225 = PRESENTATION_LAYER_ASSIGNMENT (  '', '', ( #245 ) ) ;
#226 = PLANE ( 'NONE',  #230 ) ;
#227 = UNCERTAINTY_MEASURE_WITH_UNIT (LENGTH_MEASURE( 1.000000000000000082E-05 ), #144, 'distance_accuracy_value', 'NONE');
#228 = LENGTH_MEASURE_WITH_UNIT ( LENGTH_MEASURE( 0.02539999999999999897 ), #14 );
#229 = MECHANICAL_DESIGN_GEOMETRIC_PRESENTATION_REPRESENTATION (  '', ( #163 ), #2 ) ;
#230 = AXIS2_PLACEMENT_3D ( 'NONE', #6, #311, #256 ) ;
#231 = EDGE_CURVE ( 'NONE', #177, #23, #213, .T. ) ;
#232 = VERTEX_POINT ( 'NONE', #157 ) ;
#233 = PLANE ( 'NONE',  #273 ) ;
#234 = STYLED_ITEM ( 'NONE', ( #220 ), #268 ) ;
#235 = UNCERTAINTY_MEASURE_WITH_UNIT (LENGTH_MEASURE( 1.000000000000000082E-05 ), #219, 'distance_accuracy_value', 'NONE');
#236 = ORIENTED_EDGE ( 'NONE', *, *, #259, .T. ) ;
#237 = ADVANCED_FACE ( 'NONE', ( #57 ), #191, .T. ) ;
#238 = DIRECTION ( 'NONE',  ( 0.000000000000000000, -1.000000000000000000, -0.000000000000000000 ) ) ;
#239 = FILL_AREA_STYLE ('',( #101 ) ) ;
#240 = CARTESIAN_POINT ( 'NONE',  ( 0.000000000000000000, 0.1562000000000000888, 0.000000000000000000 ) ) ;
#241 = DIRECTION ( 'NONE',  ( 1.000000000000000000, 0.000000000000000000, 0.000000000000000000 ) ) ;
#242 = ORIENTED_EDGE ( 'NONE', *, *, #12, .T. ) ;
#243 = CARTESIAN_POINT ( 'NONE',  ( 0.01559999999999999928, 0.1562000000000000888, 1.910449006669871164E-18 ) ) ;
#244 = CARTESIAN_POINT ( 'NONE',  ( 0.1250000000000000000, 0.5644863583480339564, 1.530808498934191509E-17 ) ) ;
#245 = STYLED_ITEM ( 'NONE', ( #258 ), #324 ) ;
#246 = CARTESIAN_POINT ( 'NONE',  ( 0.000000000000000000, 0.1562000000000000055, 0.000000000000000000 ) ) ;
#247 = DIRECTION ( 'NONE',  ( 0.000000000000000000, 0.000000000000000000, -1.000000000000000000 ) ) ;
#248 = ADVANCED_FACE ( 'NONE', ( #142 ), #1, .T. ) ;
#249 = DIRECTION ( 'NONE',  ( 0.000000000000000000, 0.000000000000000000, -1.000000000000000000 ) ) ;
#250 = LENGTH_MEASURE_WITH_UNIT ( LENGTH_MEASURE( 0.02539999999999999897 ), #167 );
#251 = DIRECTION ( 'NONE',  ( -1.000000000000000000, 0.000000000000000000, 0.000000000000000000 ) ) ;
#252 = CARTESIAN_POINT ( 'NONE',  ( 0.000000000000000000, 0.000000000000000000, 0.000000000000000000 ) ) ;
#253 = UNCERTAINTY_MEASURE_WITH_UNIT (LENGTH_MEASURE( 1.000000000000000082E-05 ), #198, 'distance_accuracy_value', 'NONE');
#254 = CARTESIAN_POINT ( 'NONE',  ( -6.123233995736766036E-17, 2.500000000000000000, 0.000000000000000000 ) ) ;
#255 = FACE_OUTER_BOUND ( 'NONE', #41, .T. ) ;
#256 = DIRECTION ( 'NONE',  ( -1.000000000000000000, -2.612524104333461037E-17, 0.000000000000000000 ) ) ;
#257 = ORIENTED_EDGE ( 'NONE', *, *, #46, .T. ) ;
#258 = PRESENTATION_STYLE_ASSIGNMENT (( #100 ) ) ;
#259 = EDGE_CURVE ( 'NONE', #177, #15, #120, .T. ) ;
#260 = LINE ( 'NONE', #106, #36 ) ;
#261 = MANIFOLD_SOLID_BREP ( 'Revolve - Cutting Edge', #33 ) ;
#262 = SURFACE_STYLE_USAGE ( .BOTH. , #74 ) ;
#263 = AXIS2_PLACEMENT_3D ( 'NONE', #300, #61, #274 ) ;
#264 = PRESENTATION_LAYER_ASSIGNMENT (  '', '', ( #234 ) ) ;
#265 = UNCERTAINTY_MEASURE_WITH_UNIT (LENGTH_MEASURE( 1.000000000000000082E-05 ), #140, 'distance_accuracy_value', 'NONE');
#266 = ORIENTED_EDGE ( 'NONE', *, *, #205, .T. ) ;
#267 =( NAMED_UNIT ( * ) PLANE_ANGLE_UNIT ( ) SI_UNIT ( $, .RADIAN. ) );
#268 = MANIFOLD_SOLID_BREP ( 'Revolve - Tool Body (Reduced Cut Diameter)', #151 ) ;
#269 = CARTESIAN_POINT ( 'NONE',  ( 0.000000000000000000, 0.1562000000000000055, 0.000000000000000000 ) ) ;
#270 = ORIENTED_EDGE ( 'NONE', *, *, #329, .T. ) ;
#271 = CARTESIAN_POINT ( 'NONE',  ( 0.000000000000000000, 0.1562000000000000888, 0.000000000000000000 ) ) ;
#272 = COLOUR_RGB ( '',1.000000000000000000, 0.000000000000000000, 0.000000000000000000 ) ;
#273 = AXIS2_PLACEMENT_3D ( 'NONE', #338, #238, #78 ) ;
#274 = DIRECTION ( 'NONE',  ( -1.000000000000000000, 0.000000000000000000, 0.000000000000000000 ) ) ;
#275 = PRODUCT_CONTEXT ( 'NONE', #39, 'mechanical' ) ;
#276 = PRESENTATION_STYLE_ASSIGNMENT (( #181 ) ) ;
#277 = ADVANCED_FACE ( 'NONE', ( #303 ), #226, .F. ) ;
#278 = EDGE_LOOP ( 'NONE', ( #154, #242, #316, #290 ) ) ;
#279 = AXIS2_PLACEMENT_3D ( 'NONE', #40, #306, #358 ) ;
#280 = CIRCLE ( 'NONE', #117, 0.1250000000000000555 ) ;
#281 = CARTESIAN_POINT ( 'NONE',  ( -6.123233995736766036E-17, 2.500000000000000000, 0.000000000000000000 ) ) ;
#282 =( LENGTH_UNIT ( ) NAMED_UNIT ( * ) SI_UNIT ( $, .METRE. ) );
#283 = PRODUCT_DEFINITION ( 'UNKNOWN', '', #210, #291 ) ;
#284 = CIRCLE ( 'NONE', #308, 0.1250000000000000555 ) ;
#285 = DIRECTION ( 'NONE',  ( 0.000000000000000000, 0.000000000000000000, -1.000000000000000000 ) ) ;
#286 = AXIS2_PLACEMENT_3D ( 'NONE', #19, #136, #241 ) ;
#287 = ORIENTED_EDGE ( 'NONE', *, *, #46, .F. ) ;
#288 = AXIS2_PLACEMENT_3D ( 'NONE', #269, #132, #84 ) ;
#289 = ORIENTED_EDGE ( 'NONE', *, *, #164, .F. ) ;
#290 = ORIENTED_EDGE ( 'NONE', *, *, #175, .F. ) ;
#291 = PRODUCT_DEFINITION_CONTEXT ( 'detailed design', #302, 'design' ) ;
#292 = ORIENTED_EDGE ( 'NONE', *, *, #340, .T. ) ;
#293 = CARTESIAN_POINT ( 'NONE',  ( -0.01559999999999999928, 0.1562000000000000888, 0.000000000000000000 ) ) ;
#294 = MECHANICAL_DESIGN_GEOMETRIC_PRESENTATION_REPRESENTATION (  '', ( #330 ), #334 ) ;
#295 = ORIENTED_EDGE ( 'NONE', *, *, #67, .T. ) ;
#296 = ORIENTED_EDGE ( 'NONE', *, *, #231, .F. ) ;
#297 = ADVANCED_FACE ( 'NONE', ( #255 ), #200, .T. ) ;
#298 = LINE ( 'NONE', #243, #134 ) ;
#299 = CARTESIAN_POINT ( 'NONE',  ( 0.000000000000000000, 0.1562000000000000055, -0.01559999999999999928 ) ) ;
#300 = CARTESIAN_POINT ( 'NONE',  ( -1.066657952654767309E-17, 0.5644863583480339564, 0.000000000000000000 ) ) ;
#301 = COLOUR_RGB ( '',1.000000000000000000, 0.000000000000000000, 0.000000000000000000 ) ;
#302 = APPLICATION_CONTEXT ( 'automotive_design' ) ;
#303 = FACE_OUTER_BOUND ( 'NONE', #341, .T. ) ;
#304 = CIRCLE ( 'NONE', #98, 0.01559999999999999928 ) ;
#305 = SURFACE_STYLE_FILL_AREA ( #38 ) ;
#306 = DIRECTION ( 'NONE',  ( -2.612524104333461037E-17, 1.000000000000000000, -0.000000000000000000 ) ) ;
#307 =( NAMED_UNIT ( * ) PLANE_ANGLE_UNIT ( ) SI_UNIT ( $, .RADIAN. ) );
#308 = AXIS2_PLACEMENT_3D ( 'NONE', #77, #152, #112 ) ;
#309 = SURFACE_STYLE_USAGE ( .BOTH. , #124 ) ;
#310 = ADVANCED_FACE ( 'NONE', ( #71 ), #47, .F. ) ;
#311 = DIRECTION ( 'NONE',  ( -2.612524104333461037E-17, 1.000000000000000000, 0.000000000000000000 ) ) ;
#312 = DIRECTION ( 'NONE',  ( -0.000000000000000000, -1.000000000000000000, -0.000000000000000000 ) ) ;
#313 = DIRECTION ( 'NONE',  ( -1.000000000000000000, 0.000000000000000000, 0.000000000000000000 ) ) ;
#314 = COLOUR_RGB ( '',0.7921568627450980005, 0.8196078431372548767, 0.9333333333333333481 ) ;
#315 = VERTEX_POINT ( 'NONE', #99 ) ;
#316 = ORIENTED_EDGE ( 'NONE', *, *, #333, .T. ) ;
#317 = DIRECTION ( 'NONE',  ( 0.000000000000000000, 0.000000000000000000, -1.000000000000000000 ) ) ;
#318 = DIMENSIONAL_EXPONENTS ( 1.000000000000000000, 0.000000000000000000, 0.000000000000000000, 0.000000000000000000, 0.000000000000000000, 0.000000000000000000, 0.000000000000000000 ) ;
#319 = CARTESIAN_POINT ( 'NONE',  ( 0.000000000000000000, 0.000000000000000000, -0.01559999999999999928 ) ) ;
#320 =( GEOMETRIC_REPRESENTATION_CONTEXT ( 3 ) GLOBAL_UNCERTAINTY_ASSIGNED_CONTEXT ( ( #143 ) ) GLOBAL_UNIT_ASSIGNED_CONTEXT ( ( #115, #64, #114 ) ) REPRESENTATION_CONTEXT ( 'NONE', 'WORKASPACE' ) );
#321 = AXIS2_PLACEMENT_3D ( 'NONE', #212, #352, #27 ) ;
#322 = EDGE_LOOP ( 'NONE', ( #42, #292 ) ) ;
#323 = DIRECTION ( 'NONE',  ( -1.000000000000000000, 0.000000000000000000, 0.000000000000000000 ) ) ;
#324 = ADVANCED_FACE ( 'NONE', ( #199 ), #233, .T. ) ;
#325 = FILL_AREA_STYLE ('',( #160 ) ) ;
#326 = CARTESIAN_POINT ( 'NONE',  ( -0.01559999999999999928, 0.1562000000000000888, 0.000000000000000000 ) ) ;
#327 = DIRECTION ( 'NONE',  ( -0.000000000000000000, -1.000000000000000000, -0.000000000000000000 ) ) ;
#328 = CARTESIAN_POINT ( 'NONE',  ( 0.000000000000000000, 0.1562000000000000888, 0.000000000000000000 ) ) ;
#329 = EDGE_CURVE ( 'NONE', #145, #58, #121, .T. ) ;
#330 = STYLED_ITEM ( 'NONE', ( #68 ), #237 ) ;
#331 = COLOUR_RGB ( '',0.7921568627450980005, 0.8196078431372548767, 0.9333333333333333481 ) ;
#332 = FILL_AREA_STYLE_COLOUR ( '', #331 ) ;
#333 = EDGE_CURVE ( 'NONE', #180, #177, #178, .T. ) ;
#334 =( GEOMETRIC_REPRESENTATION_CONTEXT ( 3 ) GLOBAL_UNCERTAINTY_ASSIGNED_CONTEXT ( ( #227 ) ) GLOBAL_UNIT_ASSIGNED_CONTEXT ( ( #144, #91, #165 ) ) REPRESENTATION_CONTEXT ( 'NONE', 'WORKASPACE' ) );
#335 =( LENGTH_UNIT ( ) NAMED_UNIT ( * ) SI_UNIT ( $, .METRE. ) );
#336 = MECHANICAL_DESIGN_GEOMETRIC_PRESENTATION_REPRESENTATION (  '', ( #245 ), #357 ) ;
#337 = DIRECTION ( 'NONE',  ( 2.612524104333461037E-17, -1.000000000000000000, 0.000000000000000000 ) ) ;
#338 = CARTESIAN_POINT ( 'NONE',  ( 0.000000000000000000, 0.000000000000000000, 0.000000000000000000 ) ) ;
#339 = FACE_OUTER_BOUND ( 'NONE', #13, .T. ) ;
#340 = EDGE_CURVE ( 'NONE', #232, #23, #280, .T. ) ;
#341 = EDGE_LOOP ( 'NONE', ( #287, #344 ) ) ;
#342 =( NAMED_UNIT ( * ) SI_UNIT ( $, .STERADIAN. ) SOLID_ANGLE_UNIT ( ) );
#343 = CONICAL_SURFACE ( 'NONE', #109, 0.01559999999999999928, 0.2617993877991502405 ) ;
#344 = ORIENTED_EDGE ( 'NONE', *, *, #12, .F. ) ;
#345 = CARTESIAN_POINT ( 'NONE',  ( 0.000000000000000000, 0.000000000000000000, 0.000000000000000000 ) ) ;
#346 = DIRECTION ( 'NONE',  ( -2.612524104333461037E-17, 1.000000000000000000, -0.000000000000000000 ) ) ;
#347 =( NAMED_UNIT ( * ) SI_UNIT ( $, .STERADIAN. ) SOLID_ANGLE_UNIT ( ) );
#348 = ORIENTED_EDGE ( 'NONE', *, *, #340, .F. ) ;
#349 =( LENGTH_UNIT ( ) NAMED_UNIT ( * ) SI_UNIT ( $, .METRE. ) );
#350 = STYLED_ITEM ( 'NONE', ( #206 ), #122 ) ;
#351 = EDGE_LOOP ( 'NONE', ( #85, #149, #202, #348 ) ) ;
#352 = DIRECTION ( 'NONE',  ( -2.612524104333461037E-17, 1.000000000000000000, -0.000000000000000000 ) ) ;
#353 = DIRECTION ( 'NONE',  ( -0.000000000000000000, -1.000000000000000000, -0.000000000000000000 ) ) ;
#354 = ADVANCED_FACE ( 'NONE', ( #59 ), #66, .T. ) ;
#355 = FACE_OUTER_BOUND ( 'NONE', #173, .T. ) ;
#356 = AXIS2_PLACEMENT_3D ( 'NONE', #240, #215, #323 ) ;
#357 =( GEOMETRIC_REPRESENTATION_CONTEXT ( 3 ) GLOBAL_UNCERTAINTY_ASSIGNED_CONTEXT ( ( #129 ) ) GLOBAL_UNIT_ASSIGNED_CONTEXT ( ( #203, #44, #148 ) ) REPRESENTATION_CONTEXT ( 'NONE', 'WORKASPACE' ) );
#358 = DIRECTION ( 'NONE',  ( -1.000000000000000000, 0.000000000000000000, 0.000000000000000000 ) ) ;
#359 = LINE ( 'NONE', #107, #172 ) ;
ENDSEC;
END-ISO-10303-21;
