ISO-10303-21;
HEADER;
FILE_DESCRIPTION (( 'STEP AP214' ),
    '1' );
FILE_NAME ('Micro_GEM-125-2.STEP',
    '2021-09-01T19:32:06',
    ( '' ),
    ( '' ),
    'SwSTEP 2.0',
    'SolidWorks 2020',
    '' );
FILE_SCHEMA (( 'AUTOMOTIVE_DESIGN' ));
ENDSEC;

DATA;
#1 = AXIS2_PLACEMENT_3D ( 'NONE', #222, #275, #9 ) ;
#2 = CARTESIAN_POINT ( 'NONE',  ( -0.06250000000000002776, 0.0000000000000000000, 1.485000000000000764 ) ) ;
#3 = CARTESIAN_POINT ( 'NONE',  ( 0.0000000000000000000, 0.0000000000000000000, 1.500000000000000222 ) ) ;
#4 = AXIS2_PLACEMENT_3D ( 'NONE', #156, #92, #71 ) ;
#5 = DIRECTION ( 'NONE',  ( -1.224646799147353700E-16, -0.0000000000000000000, -1.000000000000000000 ) ) ;
#6 = UNCERTAINTY_MEASURE_WITH_UNIT (LENGTH_MEASURE( 1.000000000000000082E-05 ), #25, 'distance_accuracy_value', 'NONE');
#7 = CARTESIAN_POINT ( 'NONE',  ( -0.04750000000000064587, 0.0000000000000000000, 1.500000000000000222 ) ) ;
#8 = EDGE_LOOP ( 'NONE', ( #285, #120, #290, #79 ) ) ;
#9 = DIRECTION ( 'NONE',  ( -1.000000000000000000, 0.0000000000000000000, 0.0000000000000000000 ) ) ;
#10 = ORIENTED_EDGE ( 'NONE', *, *, #270, .F. ) ;
#11 = DIRECTION ( 'NONE',  ( -1.000000000000000000, 0.0000000000000000000, 1.224646799147353947E-16 ) ) ;
#12 = AXIS2_PLACEMENT_3D ( 'NONE', #291, #77, #244 ) ;
#13 = DIRECTION ( 'NONE',  ( 1.000000000000000000, 0.0000000000000000000, 0.0000000000000000000 ) ) ;
#14 = DIRECTION ( 'NONE',  ( 1.000000000000000000, 0.0000000000000000000, 0.0000000000000000000 ) ) ;
#15 = ORIENTED_EDGE ( 'NONE', *, *, #96, .T. ) ;
#16 = PRODUCT_DEFINITION ( 'UNKNOWN', '', #125, #114 ) ;
#17 = CARTESIAN_POINT ( 'NONE',  ( 6.123233995736768501E-17, 0.0000000000000000000, 0.5000000000000000000 ) ) ;
#18 = CARTESIAN_POINT ( 'NONE',  ( 0.04750000000000064587, 5.817072295950006528E-18, 1.500000000000000222 ) ) ;
#19 = ORIENTED_EDGE ( 'NONE', *, *, #172, .T. ) ;
#20 = FACE_OUTER_BOUND ( 'NONE', #8, .T. ) ;
#21 = AXIS2_PLACEMENT_3D ( 'NONE', #267, #60, #14 ) ;
#22 = ADVANCED_FACE ( 'NONE', ( #197 ), #103, .T. ) ;
#23 = ORIENTED_EDGE ( 'NONE', *, *, #38, .F. ) ;
#24 = ADVANCED_FACE ( 'NONE', ( #101 ), #190, .T. ) ;
#25 =( CONVERSION_BASED_UNIT ( 'INCH', #174 ) LENGTH_UNIT ( ) NAMED_UNIT ( #209 ) );
#26 = CARTESIAN_POINT ( 'NONE',  ( 0.0000000000000000000, 0.0000000000000000000, 1.500000000000000222 ) ) ;
#27 = AXIS2_PLACEMENT_3D ( 'NONE', #94, #205, #138 ) ;
#28 = CARTESIAN_POINT ( 'NONE',  ( 0.0000000000000000000, 0.0000000000000000000, 1.485000000000000764 ) ) ;
#29 = FACE_OUTER_BOUND ( 'NONE', #261, .T. ) ;
#30 =( NAMED_UNIT ( * ) SI_UNIT ( $, .STERADIAN. ) SOLID_ANGLE_UNIT ( ) );
#31 = CARTESIAN_POINT ( 'NONE',  ( -0.06243749999999999994, 0.0000000000000000000, 1.529277690435258091E-17 ) ) ;
#32 = EDGE_LOOP ( 'NONE', ( #57, #295, #265, #283 ) ) ;
#33 = VECTOR ( 'NONE', #5, 39.37007874015748143 ) ;
#34 = ADVANCED_FACE ( 'NONE', ( #67 ), #226, .T. ) ;
#35 = LINE ( 'NONE', #185, #251 ) ;
#36 = VERTEX_POINT ( 'NONE', #236 ) ;
#37 = ORIENTED_EDGE ( 'NONE', *, *, #172, .F. ) ;
#38 = EDGE_CURVE ( 'NONE', #51, #292, #183, .T. ) ;
#39 = AXIS2_PLACEMENT_3D ( 'NONE', #163, #264, #13 ) ;
#40 = CARTESIAN_POINT ( 'NONE',  ( 0.0000000000000000000, 0.0000000000000000000, 0.0000000000000000000 ) ) ;
#41 = DIRECTION ( 'NONE',  ( 1.224646799147353700E-16, 0.0000000000000000000, 1.000000000000000000 ) ) ;
#42 = AXIS2_PLACEMENT_3D ( 'NONE', #3, #56, #208 ) ;
#43 = ORIENTED_EDGE ( 'NONE', *, *, #252, .F. ) ;
#44 = AXIS2_PLACEMENT_3D ( 'NONE', #171, #41, #250 ) ;
#45 = DIRECTION ( 'NONE',  ( -1.224646799147353700E-16, -0.0000000000000000000, -1.000000000000000000 ) ) ;
#46 = FACE_OUTER_BOUND ( 'NONE', #146, .T. ) ;
#47 = AXIS2_PLACEMENT_3D ( 'NONE', #166, #248, #286 ) ;
#48 = DIMENSIONAL_EXPONENTS ( 1.000000000000000000, 0.0000000000000000000, 0.0000000000000000000, 0.0000000000000000000, 0.0000000000000000000, 0.0000000000000000000, 0.0000000000000000000 ) ;
#49 = DIRECTION ( 'NONE',  ( -0.7071067811865462405, 0.0000000000000000000, -0.7071067811865486830 ) ) ;
#50 = LINE ( 'NONE', #282, #134 ) ;
#51 = VERTEX_POINT ( 'NONE', #98 ) ;
#52 = EDGE_CURVE ( 'NONE', #54, #36, #137, .T. ) ;
#53 = LINE ( 'NONE', #7, #66 ) ;
#54 = VERTEX_POINT ( 'NONE', #145 ) ;
#55 = VECTOR ( 'NONE', #177, 39.37007874015748143 ) ;
#56 = DIRECTION ( 'NONE',  ( -0.0000000000000000000, -0.0000000000000000000, -1.000000000000000000 ) ) ;
#57 = ORIENTED_EDGE ( 'NONE', *, *, #239, .F. ) ;
#58 = DIRECTION ( 'NONE',  ( -1.224646799147353700E-16, -0.0000000000000000000, -1.000000000000000000 ) ) ;
#59 = SURFACE_STYLE_FILL_AREA ( #210 ) ;
#60 = DIRECTION ( 'NONE',  ( 1.224646799147353700E-16, 0.0000000000000000000, 1.000000000000000000 ) ) ;
#61 = ORIENTED_EDGE ( 'NONE', *, *, #262, .F. ) ;
#62 = DIRECTION ( 'NONE',  ( 1.000000000000000000, 0.0000000000000000000, 0.0000000000000000000 ) ) ;
#63 = CIRCLE ( 'NONE', #89, 0.06250000000000002776 ) ;
#64 = COLOUR_RGB ( '',0.7921568627450980005, 0.8196078431372548767, 0.9333333333333333481 ) ;
#65 = COLOUR_RGB ( '',0.7921568627450980005, 0.8196078431372548767, 0.9333333333333333481 ) ;
#66 = VECTOR ( 'NONE', #49, 39.37007874015748854 ) ;
#67 = FACE_OUTER_BOUND ( 'NONE', #116, .T. ) ;
#68 = DIMENSIONAL_EXPONENTS ( 1.000000000000000000, 0.0000000000000000000, 0.0000000000000000000, 0.0000000000000000000, 0.0000000000000000000, 0.0000000000000000000, 0.0000000000000000000 ) ;
#69 = CYLINDRICAL_SURFACE ( 'NONE', #42, 0.06250000000000002776 ) ;
#70 = CIRCLE ( 'NONE', #297, 0.06250000000000002776 ) ;
#71 = DIRECTION ( 'NONE',  ( 1.000000000000000000, 0.0000000000000000000, 0.0000000000000000000 ) ) ;
#72 = ORIENTED_EDGE ( 'NONE', *, *, #38, .T. ) ;
#73 = VERTEX_POINT ( 'NONE', #115 ) ;
#74 = FILL_AREA_STYLE_COLOUR ( '', #65 ) ;
#75 = EDGE_LOOP ( 'NONE', ( #19, #151, #61, #93 ) ) ;
#76 = AXIS2_PLACEMENT_3D ( 'NONE', #17, #58, #271 ) ;
#77 = DIRECTION ( 'NONE',  ( 0.0000000000000000000, 0.0000000000000000000, -1.000000000000000000 ) ) ;
#78 = PRESENTATION_STYLE_ASSIGNMENT (( #111 ) ) ;
#79 = ORIENTED_EDGE ( 'NONE', *, *, #220, .F. ) ;
#80 = CYLINDRICAL_SURFACE ( 'NONE', #87, 0.06243749999999999994 ) ;
#81 = ORIENTED_EDGE ( 'NONE', *, *, #299, .T. ) ;
#82 = LINE ( 'NONE', #18, #235 ) ;
#83 = CIRCLE ( 'NONE', #149, 0.06243749999999999994 ) ;
#84 = EDGE_CURVE ( 'NONE', #54, #191, #257, .T. ) ;
#85 = DIRECTION ( 'NONE',  ( -1.224646799147353700E-16, -0.0000000000000000000, -1.000000000000000000 ) ) ;
#86 = ADVANCED_FACE ( 'NONE', ( #46 ), #69, .T. ) ;
#87 = AXIS2_PLACEMENT_3D ( 'NONE', #40, #169, #242 ) ;
#88 = PRESENTATION_LAYER_ASSIGNMENT (  '', '', ( #186 ) ) ;
#89 = AXIS2_PLACEMENT_3D ( 'NONE', #28, #157, #229 ) ;
#90 = PLANE ( 'NONE',  #143 ) ;
#91 =( CONVERSION_BASED_UNIT ( 'INCH', #232 ) LENGTH_UNIT ( ) NAMED_UNIT ( #48 ) );
#92 = DIRECTION ( 'NONE',  ( 0.0000000000000000000, 0.0000000000000000000, 1.000000000000000000 ) ) ;
#93 = ORIENTED_EDGE ( 'NONE', *, *, #84, .F. ) ;
#94 = CARTESIAN_POINT ( 'NONE',  ( 0.0000000000000000000, 0.0000000000000000000, 1.500000000000000222 ) ) ;
#95 = DIRECTION ( 'NONE',  ( -1.000000000000000000, 0.0000000000000000000, 0.0000000000000000000 ) ) ;
#96 = EDGE_CURVE ( 'NONE', #258, #178, #293, .T. ) ;
#97 = DIRECTION ( 'NONE',  ( -0.0000000000000000000, -0.0000000000000000000, -1.000000000000000000 ) ) ;
#98 = CARTESIAN_POINT ( 'NONE',  ( 0.06243750000000006239, 0.0000000000000000000, 0.5000000000000000000 ) ) ;
#99 = ORIENTED_EDGE ( 'NONE', *, *, #167, .T. ) ;
#100 = VECTOR ( 'NONE', #284, 39.37007874015748143 ) ;
#101 = FACE_OUTER_BOUND ( 'NONE', #75, .T. ) ;
#102 = EDGE_CURVE ( 'NONE', #51, #73, #119, .T. ) ;
#103 = CONICAL_SURFACE ( 'NONE', #21, 0.06243749999999999994, 0.1745329251994337527 ) ;
#104 =( NAMED_UNIT ( * ) PLANE_ANGLE_UNIT ( ) SI_UNIT ( $, .RADIAN. ) );
#105 = PRODUCT ( 'Micro_GEM-125-2', 'Micro_GEM-125-2', '', ( #206 ) ) ;
#106 = DIRECTION ( 'NONE',  ( -1.000000000000000000, 0.0000000000000000000, 1.224646799147353947E-16 ) ) ;
#107 = CIRCLE ( 'NONE', #47, 0.06250000000000002776 ) ;
#108 = DIRECTION ( 'NONE',  ( 1.000000000000000000, 0.0000000000000000000, -0.0000000000000000000 ) ) ;
#109 = EDGE_CURVE ( 'NONE', #178, #181, #53, .T. ) ;
#110 = CARTESIAN_POINT ( 'NONE',  ( 0.0000000000000000000, 0.0000000000000000000, 0.0000000000000000000 ) ) ;
#111 = SURFACE_STYLE_USAGE ( .BOTH. , #266 ) ;
#112 = ADVANCED_BREP_SHAPE_REPRESENTATION ( 'Micro_GEM-125-2', ( #202, #39 ), #155 ) ;
#113 = FILL_AREA_STYLE ('',( #74 ) ) ;
#114 = PRODUCT_DEFINITION_CONTEXT ( 'detailed design', #237, 'design' ) ;
#115 = CARTESIAN_POINT ( 'NONE',  ( 0.06243749999999999994, 7.646388452176287375E-18, 0.0000000000000000000 ) ) ;
#116 = EDGE_LOOP ( 'NONE', ( #99, #15 ) ) ;
#117 =( LENGTH_UNIT ( ) NAMED_UNIT ( * ) SI_UNIT ( $, .METRE. ) );
#118 =( NAMED_UNIT ( * ) SI_UNIT ( $, .STERADIAN. ) SOLID_ANGLE_UNIT ( ) );
#119 = LINE ( 'NONE', #230, #33 ) ;
#120 = ORIENTED_EDGE ( 'NONE', *, *, #253, .T. ) ;
#121 =( LENGTH_UNIT ( ) NAMED_UNIT ( * ) SI_UNIT ( $, .METRE. ) );
#122 = ORIENTED_EDGE ( 'NONE', *, *, #96, .F. ) ;
#123 = EDGE_LOOP ( 'NONE', ( #37, #212, #241, #23 ) ) ;
#124 =( GEOMETRIC_REPRESENTATION_CONTEXT ( 3 ) GLOBAL_UNCERTAINTY_ASSIGNED_CONTEXT ( ( #280 ) ) GLOBAL_UNIT_ASSIGNED_CONTEXT ( ( #133, #104, #298 ) ) REPRESENTATION_CONTEXT ( 'NONE', 'WORKASPACE' ) );
#125 = PRODUCT_DEFINITION_FORMATION_WITH_SPECIFIED_SOURCE ( 'ANY', '', #105, .NOT_KNOWN. ) ;
#126 = FACE_OUTER_BOUND ( 'NONE', #217, .T. ) ;
#127 = ORIENTED_EDGE ( 'NONE', *, *, #253, .F. ) ;
#128 = EDGE_CURVE ( 'NONE', #289, #181, #63, .T. ) ;
#129 = CARTESIAN_POINT ( 'NONE',  ( 6.127574818941430966E-17, 0.0000000000000000000, 0.5003544551137262264 ) ) ;
#130 = DIRECTION ( 'NONE',  ( 0.0000000000000000000, 0.0000000000000000000, -1.000000000000000000 ) ) ;
#131 = AXIS2_PLACEMENT_3D ( 'NONE', #132, #85, #273 ) ;
#132 = CARTESIAN_POINT ( 'NONE',  ( 9.364125142994982608E-34, 0.0000000000000000000, 7.646388452176290456E-18 ) ) ;
#133 =( CONVERSION_BASED_UNIT ( 'INCH', #154 ) LENGTH_UNIT ( ) NAMED_UNIT ( #68 ) );
#134 = VECTOR ( 'NONE', #141, 39.37007874015748143 ) ;
#135 = CONICAL_SURFACE ( 'NONE', #12, 0.04750000000000064587, 0.7853981633974466137 ) ;
#136 = EDGE_CURVE ( 'NONE', #181, #36, #50, .T. ) ;
#137 = LINE ( 'NONE', #207, #176 ) ;
#138 = DIRECTION ( 'NONE',  ( 1.000000000000000000, 0.0000000000000000000, 0.0000000000000000000 ) ) ;
#139 = CARTESIAN_POINT ( 'NONE',  ( 6.123233995736768501E-17, 0.0000000000000000000, 0.5000000000000000000 ) ) ;
#140 = ORIENTED_EDGE ( 'NONE', *, *, #270, .T. ) ;
#141 = DIRECTION ( 'NONE',  ( -0.0000000000000000000, -0.0000000000000000000, -1.000000000000000000 ) ) ;
#142 = ORIENTED_EDGE ( 'NONE', *, *, #239, .T. ) ;
#143 = AXIS2_PLACEMENT_3D ( 'NONE', #110, #233, #108 ) ;
#144 = APPLICATION_PROTOCOL_DEFINITION ( 'draft international standard', 'automotive_design', 1998, #228 ) ;
#145 = CARTESIAN_POINT ( 'NONE',  ( -0.06243749999999994443, 7.650215473423623230E-18, 0.5000000000000000000 ) ) ;
#146 = EDGE_LOOP ( 'NONE', ( #10, #193, #281, #187 ) ) ;
#147 = DIRECTION ( 'NONE',  ( -1.000000000000000000, 0.0000000000000000000, 0.0000000000000000000 ) ) ;
#148 = ORIENTED_EDGE ( 'NONE', *, *, #109, .F. ) ;
#149 = AXIS2_PLACEMENT_3D ( 'NONE', #294, #272, #11 ) ;
#150 = FACE_OUTER_BOUND ( 'NONE', #215, .T. ) ;
#151 = ORIENTED_EDGE ( 'NONE', *, *, #102, .T. ) ;
#152 = MECHANICAL_DESIGN_GEOMETRIC_PRESENTATION_REPRESENTATION (  '', ( #227 ), #247 ) ;
#153 = FACE_OUTER_BOUND ( 'NONE', #32, .T. ) ;
#154 = LENGTH_MEASURE_WITH_UNIT ( LENGTH_MEASURE( 0.02539999999999999897 ), #203 );
#155 =( GEOMETRIC_REPRESENTATION_CONTEXT ( 3 ) GLOBAL_UNCERTAINTY_ASSIGNED_CONTEXT ( ( #6 ) ) GLOBAL_UNIT_ASSIGNED_CONTEXT ( ( #25, #198, #30 ) ) REPRESENTATION_CONTEXT ( 'NONE', 'WORKASPACE' ) );
#156 = CARTESIAN_POINT ( 'NONE',  ( 0.0000000000000000000, 0.0000000000000000000, 1.500000000000000222 ) ) ;
#157 = DIRECTION ( 'NONE',  ( 0.0000000000000000000, 0.0000000000000000000, -1.000000000000000000 ) ) ;
#158 = SURFACE_STYLE_FILL_AREA ( #113 ) ;
#159 = ORIENTED_EDGE ( 'NONE', *, *, #277, .F. ) ;
#160 = PRESENTATION_STYLE_ASSIGNMENT (( #260 ) ) ;
#161 = ORIENTED_EDGE ( 'NONE', *, *, #252, .T. ) ;
#162 = DIRECTION ( 'NONE',  ( 1.000000000000000000, 0.0000000000000000000, 0.0000000000000000000 ) ) ;
#163 = CARTESIAN_POINT ( 'NONE',  ( 0.0000000000000000000, 0.0000000000000000000, 0.0000000000000000000 ) ) ;
#164 = DIRECTION ( 'NONE',  ( 0.0000000000000000000, 0.0000000000000000000, 1.000000000000000000 ) ) ;
#165 = ORIENTED_EDGE ( 'NONE', *, *, #136, .F. ) ;
#166 = CARTESIAN_POINT ( 'NONE',  ( 6.127574818941430966E-17, 0.0000000000000000000, 0.5003544551137262264 ) ) ;
#167 = EDGE_CURVE ( 'NONE', #178, #258, #170, .T. ) ;
#168 = ORIENTED_EDGE ( 'NONE', *, *, #262, .T. ) ;
#169 = DIRECTION ( 'NONE',  ( -1.224646799147353700E-16, -0.0000000000000000000, -1.000000000000000000 ) ) ;
#170 = CIRCLE ( 'NONE', #27, 0.04750000000000064587 ) ;
#171 = CARTESIAN_POINT ( 'NONE',  ( 6.123233995736768501E-17, 0.0000000000000000000, 0.5000000000000000000 ) ) ;
#172 = EDGE_CURVE ( 'NONE', #54, #51, #245, .T. ) ;
#173 = MECHANICAL_DESIGN_GEOMETRIC_PRESENTATION_REPRESENTATION (  '', ( #186 ), #124 ) ;
#174 = LENGTH_MEASURE_WITH_UNIT ( LENGTH_MEASURE( 0.02539999999999999897 ), #117 );
#175 = CLOSED_SHELL ( 'NONE', ( #24, #249, #296, #231, #86, #34, #224, #22, #255, #188 ) ) ;
#176 = VECTOR ( 'NONE', #279, 39.37007874015748854 ) ;
#177 = DIRECTION ( 'NONE',  ( 0.1736481776669312471, 0.0000000000000000000, 0.9848077530122077983 ) ) ;
#178 = VERTEX_POINT ( 'NONE', #180 ) ;
#179 = SHAPE_DEFINITION_REPRESENTATION ( #204, #112 ) ;
#180 = CARTESIAN_POINT ( 'NONE',  ( -0.04750000000000064587, 0.0000000000000000000, 1.500000000000000222 ) ) ;
#181 = VERTEX_POINT ( 'NONE', #2 ) ;
#182 = APPLICATION_PROTOCOL_DEFINITION ( 'draft international standard', 'automotive_design', 1998, #237 ) ;
#183 = LINE ( 'NONE', #256, #55 ) ;
#184 = ORIENTED_EDGE ( 'NONE', *, *, #220, .T. ) ;
#185 = CARTESIAN_POINT ( 'NONE',  ( 0.06250000000000002776, 7.654042494670959086E-18, 1.500000000000000222 ) ) ;
#186 = STYLED_ITEM ( 'NONE', ( #160 ), #202 ) ;
#187 = ORIENTED_EDGE ( 'NONE', *, *, #299, .F. ) ;
#188 = ADVANCED_FACE ( 'NONE', ( #29 ), #90, .F. ) ;
#189 = CARTESIAN_POINT ( 'NONE',  ( 0.0000000000000000000, 0.0000000000000000000, 1.500000000000000222 ) ) ;
#190 = CYLINDRICAL_SURFACE ( 'NONE', #276, 0.06243749999999999994 ) ;
#191 = VERTEX_POINT ( 'NONE', #31 ) ;
#192 = CARTESIAN_POINT ( 'NONE',  ( 0.0000000000000000000, 0.0000000000000000000, 1.485000000000000764 ) ) ;
#193 = ORIENTED_EDGE ( 'NONE', *, *, #128, .T. ) ;
#194 = DIRECTION ( 'NONE',  ( 0.7071067811865462405, 8.659560562354916834E-17, -0.7071067811865486830 ) ) ;
#195 = CONICAL_SURFACE ( 'NONE', #1, 0.04750000000000064587, 0.7853981633974466137 ) ;
#196 = CARTESIAN_POINT ( 'NONE',  ( 0.04750000000000064587, 6.735557395310483192E-18, 1.500000000000000222 ) ) ;
#197 = FACE_OUTER_BOUND ( 'NONE', #243, .T. ) ;
#198 =( NAMED_UNIT ( * ) PLANE_ANGLE_UNIT ( ) SI_UNIT ( $, .RADIAN. ) );
#199 = CONICAL_SURFACE ( 'NONE', #44, 0.06243749999999999994, 0.1745329251994337527 ) ;
#200 = PRODUCT_RELATED_PRODUCT_CATEGORY ( 'part', '', ( #105 ) ) ;
#201 = CIRCLE ( 'NONE', #76, 0.06243749999999999994 ) ;
#202 = MANIFOLD_SOLID_BREP ( 'Cut-Revolve1', #175 ) ;
#203 =( LENGTH_UNIT ( ) NAMED_UNIT ( * ) SI_UNIT ( $, .METRE. ) );
#204 = PRODUCT_DEFINITION_SHAPE ( 'NONE', 'NONE',  #16 ) ;
#205 = DIRECTION ( 'NONE',  ( 0.0000000000000000000, 0.0000000000000000000, 1.000000000000000000 ) ) ;
#206 = PRODUCT_CONTEXT ( 'NONE', #228, 'mechanical' ) ;
#207 = CARTESIAN_POINT ( 'NONE',  ( -0.06243749999999994443, 7.646388452176287375E-18, 0.5000000000000000000 ) ) ;
#208 = DIRECTION ( 'NONE',  ( -1.000000000000000000, 0.0000000000000000000, 0.0000000000000000000 ) ) ;
#209 = DIMENSIONAL_EXPONENTS ( 1.000000000000000000, 0.0000000000000000000, 0.0000000000000000000, 0.0000000000000000000, 0.0000000000000000000, 0.0000000000000000000, 0.0000000000000000000 ) ;
#210 = FILL_AREA_STYLE ('',( #238 ) ) ;
#211 = DIRECTION ( 'NONE',  ( -1.224646799147353700E-16, -0.0000000000000000000, -1.000000000000000000 ) ) ;
#212 = ORIENTED_EDGE ( 'NONE', *, *, #52, .T. ) ;
#213 = DIRECTION ( 'NONE',  ( -0.0000000000000000000, -0.0000000000000000000, -1.000000000000000000 ) ) ;
#214 = AXIS2_PLACEMENT_3D ( 'NONE', #129, #218, #162 ) ;
#215 = EDGE_LOOP ( 'NONE', ( #122, #142, #43, #148 ) ) ;
#216 = FACE_OUTER_BOUND ( 'NONE', #123, .T. ) ;
#217 = EDGE_LOOP ( 'NONE', ( #161, #140, #159, #165 ) ) ;
#218 = DIRECTION ( 'NONE',  ( -1.224646799147353700E-16, -0.0000000000000000000, -1.000000000000000000 ) ) ;
#219 = CYLINDRICAL_SURFACE ( 'NONE', #287, 0.06250000000000002776 ) ;
#220 = EDGE_CURVE ( 'NONE', #73, #191, #263, .T. ) ;
#221 = AXIS2_PLACEMENT_3D ( 'NONE', #139, #211, #95 ) ;
#222 = CARTESIAN_POINT ( 'NONE',  ( 0.0000000000000000000, 0.0000000000000000000, 1.500000000000000222 ) ) ;
#223 = CARTESIAN_POINT ( 'NONE',  ( 0.0000000000000000000, 0.0000000000000000000, 0.0000000000000000000 ) ) ;
#224 = ADVANCED_FACE ( 'NONE', ( #153 ), #195, .T. ) ;
#225 = PRESENTATION_LAYER_ASSIGNMENT (  '', '', ( #227 ) ) ;
#226 = PLANE ( 'NONE',  #254 ) ;
#227 = STYLED_ITEM ( 'NONE', ( #78 ), #112 ) ;
#228 = APPLICATION_CONTEXT ( 'automotive_design' ) ;
#229 = DIRECTION ( 'NONE',  ( 1.000000000000000000, 0.0000000000000000000, 0.0000000000000000000 ) ) ;
#230 = CARTESIAN_POINT ( 'NONE',  ( 0.06243749999999999994, 7.646388452176287375E-18, -7.646388452176290456E-18 ) ) ;
#231 = ADVANCED_FACE ( 'NONE', ( #126 ), #219, .T. ) ;
#232 = LENGTH_MEASURE_WITH_UNIT ( LENGTH_MEASURE( 0.02539999999999999897 ), #121 );
#233 = DIRECTION ( 'NONE',  ( 0.0000000000000000000, 0.0000000000000000000, 1.000000000000000000 ) ) ;
#234 = UNCERTAINTY_MEASURE_WITH_UNIT (LENGTH_MEASURE( 1.000000000000000082E-05 ), #91, 'distance_accuracy_value', 'NONE');
#235 = VECTOR ( 'NONE', #194, 39.37007874015748854 ) ;
#236 = CARTESIAN_POINT ( 'NONE',  ( -0.06249999999999996531, 0.0000000000000000000, 0.5003544551137262264 ) ) ;
#237 = APPLICATION_CONTEXT ( 'automotive_design' ) ;
#238 = FILL_AREA_STYLE_COLOUR ( '', #64 ) ;
#239 = EDGE_CURVE ( 'NONE', #258, #289, #82, .T. ) ;
#240 = SURFACE_SIDE_STYLE ('',( #158 ) ) ;
#241 = ORIENTED_EDGE ( 'NONE', *, *, #277, .T. ) ;
#242 = DIRECTION ( 'NONE',  ( -1.000000000000000000, 0.0000000000000000000, 1.224646799147353947E-16 ) ) ;
#243 = EDGE_LOOP ( 'NONE', ( #246, #127, #72, #81 ) ) ;
#244 = DIRECTION ( 'NONE',  ( -1.000000000000000000, 0.0000000000000000000, 0.0000000000000000000 ) ) ;
#245 = CIRCLE ( 'NONE', #221, 0.06243749999999999994 ) ;
#246 = ORIENTED_EDGE ( 'NONE', *, *, #52, .F. ) ;
#247 =( GEOMETRIC_REPRESENTATION_CONTEXT ( 3 ) GLOBAL_UNCERTAINTY_ASSIGNED_CONTEXT ( ( #234 ) ) GLOBAL_UNIT_ASSIGNED_CONTEXT ( ( #91, #259, #118 ) ) REPRESENTATION_CONTEXT ( 'NONE', 'WORKASPACE' ) );
#248 = DIRECTION ( 'NONE',  ( -1.224646799147353700E-16, -0.0000000000000000000, -1.000000000000000000 ) ) ;
#249 = ADVANCED_FACE ( 'NONE', ( #216 ), #199, .T. ) ;
#250 = DIRECTION ( 'NONE',  ( 1.000000000000000000, 0.0000000000000000000, 0.0000000000000000000 ) ) ;
#251 = VECTOR ( 'NONE', #213, 39.37007874015748143 ) ;
#252 = EDGE_CURVE ( 'NONE', #181, #289, #70, .T. ) ;
#253 = EDGE_CURVE ( 'NONE', #51, #54, #201, .T. ) ;
#254 = AXIS2_PLACEMENT_3D ( 'NONE', #26, #164, #278 ) ;
#255 = ADVANCED_FACE ( 'NONE', ( #20 ), #80, .T. ) ;
#256 = CARTESIAN_POINT ( 'NONE',  ( 0.06243750000000006239, 0.0000000000000000000, 0.5000000000000000000 ) ) ;
#257 = LINE ( 'NONE', #288, #100 ) ;
#258 = VERTEX_POINT ( 'NONE', #196 ) ;
#259 =( NAMED_UNIT ( * ) PLANE_ANGLE_UNIT ( ) SI_UNIT ( $, .RADIAN. ) );
#260 = SURFACE_STYLE_USAGE ( .BOTH. , #240 ) ;
#261 = EDGE_LOOP ( 'NONE', ( #168, #184 ) ) ;
#262 = EDGE_CURVE ( 'NONE', #191, #73, #83, .T. ) ;
#263 = CIRCLE ( 'NONE', #131, 0.06243749999999999994 ) ;
#264 = DIRECTION ( 'NONE',  ( 0.0000000000000000000, 0.0000000000000000000, 1.000000000000000000 ) ) ;
#265 = ORIENTED_EDGE ( 'NONE', *, *, #109, .T. ) ;
#266 = SURFACE_SIDE_STYLE ('',( #59 ) ) ;
#267 = CARTESIAN_POINT ( 'NONE',  ( 6.123233995736768501E-17, 0.0000000000000000000, 0.5000000000000000000 ) ) ;
#268 = CARTESIAN_POINT ( 'NONE',  ( 0.06250000000000008327, 7.654042494670966789E-18, 0.5003544551137262264 ) ) ;
#269 = CARTESIAN_POINT ( 'NONE',  ( 0.06250000000000002776, 7.654042494670959086E-18, 1.485000000000000764 ) ) ;
#270 = EDGE_CURVE ( 'NONE', #289, #292, #35, .T. ) ;
#271 = DIRECTION ( 'NONE',  ( -1.000000000000000000, 0.0000000000000000000, 0.0000000000000000000 ) ) ;
#272 = DIRECTION ( 'NONE',  ( -1.224646799147353700E-16, -0.0000000000000000000, -1.000000000000000000 ) ) ;
#273 = DIRECTION ( 'NONE',  ( -1.000000000000000000, 0.0000000000000000000, 1.224646799147353947E-16 ) ) ;
#274 = CIRCLE ( 'NONE', #214, 0.06250000000000002776 ) ;
#275 = DIRECTION ( 'NONE',  ( 0.0000000000000000000, 0.0000000000000000000, -1.000000000000000000 ) ) ;
#276 = AXIS2_PLACEMENT_3D ( 'NONE', #223, #45, #106 ) ;
#277 = EDGE_CURVE ( 'NONE', #36, #292, #107, .T. ) ;
#278 = DIRECTION ( 'NONE',  ( 1.000000000000000000, 0.0000000000000000000, -0.0000000000000000000 ) ) ;
#279 = DIRECTION ( 'NONE',  ( -0.1736481776669310251, 2.126576849575781468E-17, 0.9848077530122080203 ) ) ;
#280 = UNCERTAINTY_MEASURE_WITH_UNIT (LENGTH_MEASURE( 1.000000000000000082E-05 ), #133, 'distance_accuracy_value', 'NONE');
#281 = ORIENTED_EDGE ( 'NONE', *, *, #136, .T. ) ;
#282 = CARTESIAN_POINT ( 'NONE',  ( -0.06250000000000002776, 0.0000000000000000000, 1.500000000000000222 ) ) ;
#283 = ORIENTED_EDGE ( 'NONE', *, *, #128, .F. ) ;
#284 = DIRECTION ( 'NONE',  ( -1.224646799147353700E-16, -0.0000000000000000000, -1.000000000000000000 ) ) ;
#285 = ORIENTED_EDGE ( 'NONE', *, *, #102, .F. ) ;
#286 = DIRECTION ( 'NONE',  ( 1.000000000000000000, 0.0000000000000000000, 0.0000000000000000000 ) ) ;
#287 = AXIS2_PLACEMENT_3D ( 'NONE', #189, #97, #147 ) ;
#288 = CARTESIAN_POINT ( 'NONE',  ( -0.06243749999999999994, 0.0000000000000000000, 7.646388452176290456E-18 ) ) ;
#289 = VERTEX_POINT ( 'NONE', #269 ) ;
#290 = ORIENTED_EDGE ( 'NONE', *, *, #84, .T. ) ;
#291 = CARTESIAN_POINT ( 'NONE',  ( 0.0000000000000000000, 0.0000000000000000000, 1.500000000000000222 ) ) ;
#292 = VERTEX_POINT ( 'NONE', #268 ) ;
#293 = CIRCLE ( 'NONE', #4, 0.04750000000000064587 ) ;
#294 = CARTESIAN_POINT ( 'NONE',  ( 9.364125142994982608E-34, 0.0000000000000000000, 7.646388452176290456E-18 ) ) ;
#295 = ORIENTED_EDGE ( 'NONE', *, *, #167, .F. ) ;
#296 = ADVANCED_FACE ( 'NONE', ( #150 ), #135, .T. ) ;
#297 = AXIS2_PLACEMENT_3D ( 'NONE', #192, #130, #62 ) ;
#298 =( NAMED_UNIT ( * ) SI_UNIT ( $, .STERADIAN. ) SOLID_ANGLE_UNIT ( ) );
#299 = EDGE_CURVE ( 'NONE', #292, #36, #274, .T. ) ;
ENDSEC;
END-ISO-10303-21;
