ISO-10303-21;
HEADER;
FILE_DESCRIPTION (( 'STEP AP214' ),
    '1' );
FILE_NAME ('44442W.STEP',
    '2023-06-22T20:39:41',
    ( '' ),
    ( '' ),
    'SwSTEP 2.0',
    'SolidWorks 2023',
    '' );
FILE_SCHEMA (( 'AUTOMOTIVE_DESIGN' ));
ENDSEC;

DATA;
#1 = EDGE_CURVE ( 'NONE', #228, #68, #264, .T. ) ;
#2 =( NAMED_UNIT ( * ) SI_UNIT ( $, .STERADIAN. ) SOLID_ANGLE_UNIT ( ) );
#3 = ADVANCED_FACE ( 'NONE', ( #166 ), #72, .T. ) ;
#4 = COLOUR_RGB ( '',1.000000000000000000, 0.000000000000000000, 0.000000000000000000 ) ;
#5 = CLOSED_SHELL ( 'NONE', ( #148, #31, #3, #108 ) ) ;
#6 =( NAMED_UNIT ( * ) SI_UNIT ( $, .STERADIAN. ) SOLID_ANGLE_UNIT ( ) );
#7 = ORIENTED_EDGE ( 'NONE', *, *, #250, .F. ) ;
#8 = ADVANCED_BREP_SHAPE_REPRESENTATION ( '44442W', ( #245, #246, #154 ), #126 ) ;
#9 = PRESENTATION_STYLE_ASSIGNMENT (( #13 ) ) ;
#10 = PRESENTATION_LAYER_ASSIGNMENT (  '', '', ( #253 ) ) ;
#11 = ADVANCED_FACE ( 'NONE', ( #213 ), #309, .T. ) ;
#12 = EDGE_LOOP ( 'NONE', ( #203, #210 ) ) ;
#13 = SURFACE_STYLE_USAGE ( .BOTH. , #67 ) ;
#14 = ORIENTED_EDGE ( 'NONE', *, *, #268, .T. ) ;
#15 = EDGE_LOOP ( 'NONE', ( #41, #129, #224, #255 ) ) ;
#16 = LINE ( 'NONE', #234, #174 ) ;
#17 = AXIS2_PLACEMENT_3D ( 'NONE', #247, #62, #28 ) ;
#18 = FACE_OUTER_BOUND ( 'NONE', #46, .T. ) ;
#19 = DIRECTION ( 'NONE',  ( -4.453261087808560759E-17, 1.000000000000000000, -0.000000000000000000 ) ) ;
#20 = CARTESIAN_POINT ( 'NONE',  ( -1.224646799147354440E-16, 6.000000000000000888, 0.000000000000000000 ) ) ;
#21 = CARTESIAN_POINT ( 'NONE',  ( 0.000000000000000000, 0.000000000000000000, 0.000000000000000000 ) ) ;
#22 = DIRECTION ( 'NONE',  ( -1.000000000000000000, 0.000000000000000000, 0.000000000000000000 ) ) ;
#23 = AXIS2_PLACEMENT_3D ( 'NONE', #122, #256, #263 ) ;
#24 = SURFACE_STYLE_USAGE ( .BOTH. , #209 ) ;
#25 = DIMENSIONAL_EXPONENTS ( 1.000000000000000000, 0.000000000000000000, 0.000000000000000000, 0.000000000000000000, 0.000000000000000000, 0.000000000000000000, 0.000000000000000000 ) ;
#26 = UNCERTAINTY_MEASURE_WITH_UNIT (LENGTH_MEASURE( 1.000000000000000082E-05 ), #191, 'distance_accuracy_value', 'NONE');
#27 = CARTESIAN_POINT ( 'NONE',  ( 6.123233995736766036E-17, 3.250000000000000000, 0.5000000000000000000 ) ) ;
#28 = DIRECTION ( 'NONE',  ( -1.000000000000000000, 0.000000000000000000, 0.000000000000000000 ) ) ;
#29 = CIRCLE ( 'NONE', #257, 0.5000000000000000000 ) ;
#30 = CARTESIAN_POINT ( 'NONE',  ( 0.5000000000000000000, 6.000000000000000888, 0.000000000000000000 ) ) ;
#31 = ADVANCED_FACE ( 'NONE', ( #237 ), #167, .F. ) ;
#32 = LENGTH_MEASURE_WITH_UNIT ( LENGTH_MEASURE( 0.02539999999999999897 ), #269 );
#33 = CARTESIAN_POINT ( 'NONE',  ( 0.000000000000000000, 0.000000000000000000, 0.000000000000000000 ) ) ;
#34 = EDGE_CURVE ( 'NONE', #251, #114, #121, .T. ) ;
#35 = EDGE_CURVE ( 'NONE', #68, #275, #306, .T. ) ;
#36 = STYLED_ITEM ( 'NONE', ( #258 ), #231 ) ;
#37 = PRODUCT_DEFINITION_SHAPE ( 'NONE', 'NONE',  #200 ) ;
#38 = AXIS2_PLACEMENT_3D ( 'NONE', #20, #75, #22 ) ;
#39 = ORIENTED_EDGE ( 'NONE', *, *, #1, .F. ) ;
#40 =( CONVERSION_BASED_UNIT ( 'INCH', #118 ) LENGTH_UNIT ( ) NAMED_UNIT ( #134 ) );
#41 = ORIENTED_EDGE ( 'NONE', *, *, #250, .T. ) ;
#42 = CARTESIAN_POINT ( 'NONE',  ( 6.123233995736766036E-17, 0.000000000000000000, 0.5000000000000000000 ) ) ;
#43 =( NAMED_UNIT ( * ) SI_UNIT ( $, .STERADIAN. ) SOLID_ANGLE_UNIT ( ) );
#44 = ORIENTED_EDGE ( 'NONE', *, *, #34, .T. ) ;
#45 = SURFACE_STYLE_FILL_AREA ( #157 ) ;
#46 = EDGE_LOOP ( 'NONE', ( #169, #14 ) ) ;
#47 = AXIS2_PLACEMENT_3D ( 'NONE', #97, #19, #189 ) ;
#48 = FILL_AREA_STYLE_COLOUR ( '', #4 ) ;
#49 = DIRECTION ( 'NONE',  ( 0.000000000000000000, 0.000000000000000000, -1.000000000000000000 ) ) ;
#50 = SURFACE_STYLE_FILL_AREA ( #161 ) ;
#51 = EDGE_LOOP ( 'NONE', ( #7, #201 ) ) ;
#52 = DIRECTION ( 'NONE',  ( 0.000000000000000000, 0.000000000000000000, -1.000000000000000000 ) ) ;
#53 = DIMENSIONAL_EXPONENTS ( 1.000000000000000000, 0.000000000000000000, 0.000000000000000000, 0.000000000000000000, 0.000000000000000000, 0.000000000000000000, 0.000000000000000000 ) ;
#54 = DIRECTION ( 'NONE',  ( -0.000000000000000000, -1.000000000000000000, -0.000000000000000000 ) ) ;
#55 =( LENGTH_UNIT ( ) NAMED_UNIT ( * ) SI_UNIT ( $, .METRE. ) );
#56 = PRESENTATION_STYLE_ASSIGNMENT (( #307 ) ) ;
#57 = DIMENSIONAL_EXPONENTS ( 1.000000000000000000, 0.000000000000000000, 0.000000000000000000, 0.000000000000000000, 0.000000000000000000, 0.000000000000000000, 0.000000000000000000 ) ;
#58 = FILL_AREA_STYLE_COLOUR ( '', #110 ) ;
#59 = AXIS2_PLACEMENT_3D ( 'NONE', #283, #259, #52 ) ;
#60 = APPLICATION_PROTOCOL_DEFINITION ( 'draft international standard', 'automotive_design', 1998, #220 ) ;
#61 = EDGE_CURVE ( 'NONE', #125, #275, #151, .T. ) ;
#62 = DIRECTION ( 'NONE',  ( -4.453261087808560759E-17, 1.000000000000000000, -0.000000000000000000 ) ) ;
#63 =( GEOMETRIC_REPRESENTATION_CONTEXT ( 3 ) GLOBAL_UNCERTAINTY_ASSIGNED_CONTEXT ( ( #26 ) ) GLOBAL_UNIT_ASSIGNED_CONTEXT ( ( #191, #84, #2 ) ) REPRESENTATION_CONTEXT ( 'NONE', 'WORKASPACE' ) );
#64 =( NAMED_UNIT ( * ) PLANE_ANGLE_UNIT ( ) SI_UNIT ( $, .RADIAN. ) );
#65 = CARTESIAN_POINT ( 'NONE',  ( -0.5000000000000000000, 3.250000000000000000, 0.000000000000000000 ) ) ;
#66 = STYLED_ITEM ( 'NONE', ( #195 ), #130 ) ;
#67 = SURFACE_SIDE_STYLE ('',( #45 ) ) ;
#68 = VERTEX_POINT ( 'NONE', #82 ) ;
#69 = FILL_AREA_STYLE_COLOUR ( '', #266 ) ;
#70 = CIRCLE ( 'NONE', #135, 0.5000000000000001110 ) ;
#71 = EDGE_LOOP ( 'NONE', ( #117, #142 ) ) ;
#72 = CYLINDRICAL_SURFACE ( 'NONE', #38, 0.5000000000000001110 ) ;
#73 = UNCERTAINTY_MEASURE_WITH_UNIT (LENGTH_MEASURE( 1.000000000000000082E-05 ), #40, 'distance_accuracy_value', 'NONE');
#74 = CARTESIAN_POINT ( 'NONE',  ( 0.000000000000000000, 0.000000000000000000, -0.5000000000000000000 ) ) ;
#75 = DIRECTION ( 'NONE',  ( -4.453261087808560759E-17, 1.000000000000000000, -0.000000000000000000 ) ) ;
#76 = PRESENTATION_LAYER_ASSIGNMENT (  '', '', ( #87 ) ) ;
#77 = SURFACE_SIDE_STYLE ('',( #147 ) ) ;
#78 = STYLED_ITEM ( 'NONE', ( #56 ), #11 ) ;
#79 = FILL_AREA_STYLE_COLOUR ( '', #163 ) ;
#80 = ORIENTED_EDGE ( 'NONE', *, *, #239, .T. ) ;
#81 = DIRECTION ( 'NONE',  ( -1.000000000000000000, 0.000000000000000000, 0.000000000000000000 ) ) ;
#82 = CARTESIAN_POINT ( 'NONE',  ( 0.5000000000000000000, 6.000000000000000888, 6.123233995736767268E-17 ) ) ;
#83 = SURFACE_STYLE_USAGE ( .BOTH. , #143 ) ;
#84 =( NAMED_UNIT ( * ) PLANE_ANGLE_UNIT ( ) SI_UNIT ( $, .RADIAN. ) );
#85 = DIMENSIONAL_EXPONENTS ( 1.000000000000000000, 0.000000000000000000, 0.000000000000000000, 0.000000000000000000, 0.000000000000000000, 0.000000000000000000, 0.000000000000000000 ) ;
#86 = CARTESIAN_POINT ( 'NONE',  ( -0.5000000000000002220, 6.000000000000000888, 0.000000000000000000 ) ) ;
#87 = STYLED_ITEM ( 'NONE', ( #106 ), #245 ) ;
#88 = ORIENTED_EDGE ( 'NONE', *, *, #268, .F. ) ;
#89 = PRESENTATION_LAYER_ASSIGNMENT (  '', '', ( #217 ) ) ;
#90 = CYLINDRICAL_SURFACE ( 'NONE', #112, 0.5000000000000001110 ) ;
#91 = DIRECTION ( 'NONE',  ( -1.000000000000000000, 0.000000000000000000, 0.000000000000000000 ) ) ;
#92 =( NAMED_UNIT ( * ) PLANE_ANGLE_UNIT ( ) SI_UNIT ( $, .RADIAN. ) );
#93 = AXIS2_PLACEMENT_3D ( 'NONE', #185, #300, #280 ) ;
#94 = EDGE_CURVE ( 'NONE', #119, #251, #212, .T. ) ;
#95 = PRODUCT_DEFINITION_FORMATION_WITH_SPECIFIED_SOURCE ( 'ANY', '', #109, .NOT_KNOWN. ) ;
#96 =( NAMED_UNIT ( * ) SI_UNIT ( $, .STERADIAN. ) SOLID_ANGLE_UNIT ( ) );
#97 = CARTESIAN_POINT ( 'NONE',  ( -1.224646799147354440E-16, 6.000000000000000888, 0.000000000000000000 ) ) ;
#98 = SURFACE_STYLE_FILL_AREA ( #305 ) ;
#99 = DIRECTION ( 'NONE',  ( -4.453261087808560759E-17, 1.000000000000000000, -0.000000000000000000 ) ) ;
#100 = FILL_AREA_STYLE_COLOUR ( '', #295 ) ;
#101 = DIRECTION ( 'NONE',  ( 1.000000000000000000, 0.000000000000000000, 0.000000000000000000 ) ) ;
#102 = CIRCLE ( 'NONE', #270, 0.5000000000000000000 ) ;
#103 =( CONVERSION_BASED_UNIT ( 'INCH', #304 ) LENGTH_UNIT ( ) NAMED_UNIT ( #290 ) );
#104 =( GEOMETRIC_REPRESENTATION_CONTEXT ( 3 ) GLOBAL_UNCERTAINTY_ASSIGNED_CONTEXT ( ( #230 ) ) GLOBAL_UNIT_ASSIGNED_CONTEXT ( ( #103, #301, #241 ) ) REPRESENTATION_CONTEXT ( 'NONE', 'WORKASPACE' ) );
#105 = UNCERTAINTY_MEASURE_WITH_UNIT (LENGTH_MEASURE( 1.000000000000000082E-05 ), #214, 'distance_accuracy_value', 'NONE');
#106 = PRESENTATION_STYLE_ASSIGNMENT (( #24 ) ) ;
#107 = DIMENSIONAL_EXPONENTS ( 1.000000000000000000, 0.000000000000000000, 0.000000000000000000, 0.000000000000000000, 0.000000000000000000, 0.000000000000000000, 0.000000000000000000 ) ;
#108 = ADVANCED_FACE ( 'NONE', ( #150 ), #238, .F. ) ;
#109 = PRODUCT ( '44442W', '44442W', '', ( #128 ) ) ;
#110 = COLOUR_RGB ( '',0.7921568627450980005, 0.8196078431372548767, 0.9333333333333333481 ) ;
#111 = EDGE_CURVE ( 'NONE', #194, #114, #29, .T. ) ;
#112 = AXIS2_PLACEMENT_3D ( 'NONE', #248, #279, #159 ) ;
#113 =( LENGTH_UNIT ( ) NAMED_UNIT ( * ) SI_UNIT ( $, .METRE. ) );
#114 = VERTEX_POINT ( 'NONE', #42 ) ;
#115 = FACE_OUTER_BOUND ( 'NONE', #225, .T. ) ;
#116 = UNCERTAINTY_MEASURE_WITH_UNIT (LENGTH_MEASURE( 1.000000000000000082E-05 ), #240, 'distance_accuracy_value', 'NONE');
#117 = ORIENTED_EDGE ( 'NONE', *, *, #94, .F. ) ;
#118 = LENGTH_MEASURE_WITH_UNIT ( LENGTH_MEASURE( 0.02539999999999999897 ), #178 );
#119 = VERTEX_POINT ( 'NONE', #149 ) ;
#120 = DIRECTION ( 'NONE',  ( 1.000000000000000000, 4.453261087808560759E-17, 0.000000000000000000 ) ) ;
#121 = LINE ( 'NONE', #299, #141 ) ;
#122 = CARTESIAN_POINT ( 'NONE',  ( 0.000000000000000000, 3.250000000000000000, 0.000000000000000000 ) ) ;
#123 = CARTESIAN_POINT ( 'NONE',  ( 0.4999999999999999445, 6.000000000000000888, 6.123233995736767268E-17 ) ) ;
#124 = DIRECTION ( 'NONE',  ( -0.000000000000000000, -1.000000000000000000, -0.000000000000000000 ) ) ;
#125 = VERTEX_POINT ( 'NONE', #65 ) ;
#126 =( GEOMETRIC_REPRESENTATION_CONTEXT ( 3 ) GLOBAL_UNCERTAINTY_ASSIGNED_CONTEXT ( ( #179 ) ) GLOBAL_UNIT_ASSIGNED_CONTEXT ( ( #173, #64, #43 ) ) REPRESENTATION_CONTEXT ( 'NONE', 'WORKASPACE' ) );
#127 = FILL_AREA_STYLE ('',( #281 ) ) ;
#128 = PRODUCT_CONTEXT ( 'NONE', #293, 'mechanical' ) ;
#129 = ORIENTED_EDGE ( 'NONE', *, *, #1, .T. ) ;
#130 = ADVANCED_FACE ( 'NONE', ( #115 ), #276, .T. ) ;
#131 = APPLICATION_PROTOCOL_DEFINITION ( 'draft international standard', 'automotive_design', 1998, #293 ) ;
#132 = MECHANICAL_DESIGN_GEOMETRIC_PRESENTATION_REPRESENTATION (  '', ( #36 ), #222 ) ;
#133 = DIRECTION ( 'NONE',  ( 0.000000000000000000, 0.000000000000000000, -1.000000000000000000 ) ) ;
#134 = DIMENSIONAL_EXPONENTS ( 1.000000000000000000, 0.000000000000000000, 0.000000000000000000, 0.000000000000000000, 0.000000000000000000, 0.000000000000000000, 0.000000000000000000 ) ;
#135 = AXIS2_PLACEMENT_3D ( 'NONE', #187, #298, #81 ) ;
#136 = LENGTH_MEASURE_WITH_UNIT ( LENGTH_MEASURE( 0.02539999999999999897 ), #113 );
#137 = SURFACE_SIDE_STYLE ('',( #252 ) ) ;
#138 = EDGE_CURVE ( 'NONE', #228, #125, #152, .T. ) ;
#139 = ORIENTED_EDGE ( 'NONE', *, *, #138, .T. ) ;
#140 = PRESENTATION_LAYER_ASSIGNMENT (  '', '', ( #36 ) ) ;
#141 = VECTOR ( 'NONE', #54, 39.37007874015748143 ) ;
#142 = ORIENTED_EDGE ( 'NONE', *, *, #218, .F. ) ;
#143 = SURFACE_SIDE_STYLE ('',( #50 ) ) ;
#144 = ORIENTED_EDGE ( 'NONE', *, *, #34, .F. ) ;
#145 = PRODUCT_DEFINITION_CONTEXT ( 'detailed design', #220, 'design' ) ;
#146 = AXIS2_PLACEMENT_3D ( 'NONE', #242, #308, #282 ) ;
#147 = SURFACE_STYLE_FILL_AREA ( #127 ) ;
#148 = ADVANCED_FACE ( 'NONE', ( #272 ), #90, .T. ) ;
#149 = CARTESIAN_POINT ( 'NONE',  ( 0.000000000000000000, 3.250000000000000000, -0.5000000000000000000 ) ) ;
#150 = FACE_OUTER_BOUND ( 'NONE', #12, .T. ) ;
#151 = LINE ( 'NONE', #207, #153 ) ;
#152 = CIRCLE ( 'NONE', #211, 0.5000000000000000000 ) ;
#153 = VECTOR ( 'NONE', #288, 39.37007874015748143 ) ;
#154 = AXIS2_PLACEMENT_3D ( 'NONE', #21, #303, #101 ) ;
#155 = SURFACE_STYLE_USAGE ( .BOTH. , #216 ) ;
#156 =( NAMED_UNIT ( * ) SI_UNIT ( $, .STERADIAN. ) SOLID_ANGLE_UNIT ( ) );
#157 = FILL_AREA_STYLE ('',( #48 ) ) ;
#158 = AXIS2_PLACEMENT_3D ( 'NONE', #30, #181, #120 ) ;
#159 = DIRECTION ( 'NONE',  ( -1.000000000000000000, 0.000000000000000000, 0.000000000000000000 ) ) ;
#160 = COLOUR_RGB ( '',1.000000000000000000, 0.000000000000000000, 0.000000000000000000 ) ;
#161 = FILL_AREA_STYLE ('',( #79 ) ) ;
#162 =( LENGTH_UNIT ( ) NAMED_UNIT ( * ) SI_UNIT ( $, .METRE. ) );
#163 = COLOUR_RGB ( '',1.000000000000000000, 0.000000000000000000, 0.000000000000000000 ) ;
#164 = ADVANCED_FACE ( 'NONE', ( #199 ), #254, .T. ) ;
#165 = PRESENTATION_LAYER_ASSIGNMENT (  '', '', ( #78 ) ) ;
#166 = FACE_OUTER_BOUND ( 'NONE', #196, .T. ) ;
#167 = PLANE ( 'NONE',  #183 ) ;
#168 = LENGTH_MEASURE_WITH_UNIT ( LENGTH_MEASURE( 0.02539999999999999897 ), #287 );
#169 = ORIENTED_EDGE ( 'NONE', *, *, #111, .T. ) ;
#170 = FILL_AREA_STYLE ('',( #58 ) ) ;
#171 = CIRCLE ( 'NONE', #146, 0.5000000000000000000 ) ;
#172 = CLOSED_SHELL ( 'NONE', ( #130, #164, #11, #231 ) ) ;
#173 =( CONVERSION_BASED_UNIT ( 'INCH', #291 ) LENGTH_UNIT ( ) NAMED_UNIT ( #57 ) );
#174 = VECTOR ( 'NONE', #124, 39.37007874015748143 ) ;
#175 = AXIS2_PLACEMENT_3D ( 'NONE', #176, #233, #193 ) ;
#176 = CARTESIAN_POINT ( 'NONE',  ( 0.000000000000000000, 0.000000000000000000, 0.000000000000000000 ) ) ;
#177 = ORIENTED_EDGE ( 'NONE', *, *, #61, .T. ) ;
#178 =( LENGTH_UNIT ( ) NAMED_UNIT ( * ) SI_UNIT ( $, .METRE. ) );
#179 = UNCERTAINTY_MEASURE_WITH_UNIT (LENGTH_MEASURE( 1.000000000000000082E-05 ), #173, 'distance_accuracy_value', 'NONE');
#180 = SURFACE_STYLE_USAGE ( .BOTH. , #137 ) ;
#181 = DIRECTION ( 'NONE',  ( 4.453261087808560759E-17, -1.000000000000000000, 0.000000000000000000 ) ) ;
#182 = EDGE_LOOP ( 'NONE', ( #144, #205, #80, #88 ) ) ;
#183 = AXIS2_PLACEMENT_3D ( 'NONE', #235, #286, #262 ) ;
#184 = DIRECTION ( 'NONE',  ( -0.000000000000000000, -1.000000000000000000, -0.000000000000000000 ) ) ;
#185 = CARTESIAN_POINT ( 'NONE',  ( 0.000000000000000000, 0.000000000000000000, 0.000000000000000000 ) ) ;
#186 =( NAMED_UNIT ( * ) PLANE_ANGLE_UNIT ( ) SI_UNIT ( $, .RADIAN. ) );
#187 = CARTESIAN_POINT ( 'NONE',  ( -1.224646799147354440E-16, 6.000000000000000888, 0.000000000000000000 ) ) ;
#188 = MECHANICAL_DESIGN_GEOMETRIC_PRESENTATION_REPRESENTATION (  '', ( #253 ), #63 ) ;
#189 = DIRECTION ( 'NONE',  ( -1.000000000000000000, 0.000000000000000000, 0.000000000000000000 ) ) ;
#190 =( NAMED_UNIT ( * ) PLANE_ANGLE_UNIT ( ) SI_UNIT ( $, .RADIAN. ) );
#191 =( CONVERSION_BASED_UNIT ( 'INCH', #32 ) LENGTH_UNIT ( ) NAMED_UNIT ( #53 ) );
#192 =( GEOMETRIC_REPRESENTATION_CONTEXT ( 3 ) GLOBAL_UNCERTAINTY_ASSIGNED_CONTEXT ( ( #302 ) ) GLOBAL_UNIT_ASSIGNED_CONTEXT ( ( #226, #92, #6 ) ) REPRESENTATION_CONTEXT ( 'NONE', 'WORKASPACE' ) );
#193 = DIRECTION ( 'NONE',  ( 0.000000000000000000, 0.000000000000000000, -1.000000000000000000 ) ) ;
#194 = VERTEX_POINT ( 'NONE', #74 ) ;
#195 = PRESENTATION_STYLE_ASSIGNMENT (( #180 ) ) ;
#196 = EDGE_LOOP ( 'NONE', ( #39, #139, #177, #249 ) ) ;
#197 = MECHANICAL_DESIGN_GEOMETRIC_PRESENTATION_REPRESENTATION (  '', ( #217 ), #297 ) ;
#198 = MECHANICAL_DESIGN_GEOMETRIC_PRESENTATION_REPRESENTATION (  '', ( #78 ), #104 ) ;
#199 = FACE_OUTER_BOUND ( 'NONE', #71, .T. ) ;
#200 = PRODUCT_DEFINITION ( 'UNKNOWN', '', #95, #145 ) ;
#201 = ORIENTED_EDGE ( 'NONE', *, *, #138, .F. ) ;
#202 = FILL_AREA_STYLE ('',( #69 ) ) ;
#203 = ORIENTED_EDGE ( 'NONE', *, *, #208, .T. ) ;
#204 =( GEOMETRIC_REPRESENTATION_CONTEXT ( 3 ) GLOBAL_UNCERTAINTY_ASSIGNED_CONTEXT ( ( #105 ) ) GLOBAL_UNIT_ASSIGNED_CONTEXT ( ( #214, #190, #289 ) ) REPRESENTATION_CONTEXT ( 'NONE', 'WORKASPACE' ) );
#205 = ORIENTED_EDGE ( 'NONE', *, *, #218, .T. ) ;
#206 = PLANE ( 'NONE',  #93 ) ;
#207 = CARTESIAN_POINT ( 'NONE',  ( -0.5000000000000002220, 6.000000000000000888, 0.000000000000000000 ) ) ;
#208 = EDGE_CURVE ( 'NONE', #275, #68, #70, .T. ) ;
#209 = SURFACE_SIDE_STYLE ('',( #98 ) ) ;
#210 = ORIENTED_EDGE ( 'NONE', *, *, #35, .T. ) ;
#211 = AXIS2_PLACEMENT_3D ( 'NONE', #292, #232, #91 ) ;
#212 = CIRCLE ( 'NONE', #59, 0.5000000000000000000 ) ;
#213 = FACE_OUTER_BOUND ( 'NONE', #182, .T. ) ;
#214 =( CONVERSION_BASED_UNIT ( 'INCH', #168 ) LENGTH_UNIT ( ) NAMED_UNIT ( #107 ) );
#215 = CARTESIAN_POINT ( 'NONE',  ( 0.000000000000000000, 0.000000000000000000, 0.000000000000000000 ) ) ;
#216 = SURFACE_SIDE_STYLE ('',( #267 ) ) ;
#217 = STYLED_ITEM ( 'NONE', ( #9 ), #164 ) ;
#218 = EDGE_CURVE ( 'NONE', #251, #119, #171, .T. ) ;
#219 =( LENGTH_UNIT ( ) NAMED_UNIT ( * ) SI_UNIT ( $, .METRE. ) );
#220 = APPLICATION_CONTEXT ( 'automotive_design' ) ;
#221 = DIRECTION ( 'NONE',  ( -0.000000000000000000, -1.000000000000000000, -0.000000000000000000 ) ) ;
#222 =( GEOMETRIC_REPRESENTATION_CONTEXT ( 3 ) GLOBAL_UNCERTAINTY_ASSIGNED_CONTEXT ( ( #116 ) ) GLOBAL_UNIT_ASSIGNED_CONTEXT ( ( #240, #186, #96 ) ) REPRESENTATION_CONTEXT ( 'NONE', 'WORKASPACE' ) );
#223 = AXIS2_PLACEMENT_3D ( 'NONE', #215, #184, #49 ) ;
#224 = ORIENTED_EDGE ( 'NONE', *, *, #208, .F. ) ;
#225 = EDGE_LOOP ( 'NONE', ( #277, #44, #296, #274 ) ) ;
#226 =( CONVERSION_BASED_UNIT ( 'INCH', #136 ) LENGTH_UNIT ( ) NAMED_UNIT ( #25 ) );
#227 = CARTESIAN_POINT ( 'NONE',  ( 0.000000000000000000, 0.000000000000000000, 0.000000000000000000 ) ) ;
#228 = VERTEX_POINT ( 'NONE', #285 ) ;
#229 = CIRCLE ( 'NONE', #17, 0.5000000000000000000 ) ;
#230 = UNCERTAINTY_MEASURE_WITH_UNIT (LENGTH_MEASURE( 1.000000000000000082E-05 ), #103, 'distance_accuracy_value', 'NONE');
#231 = ADVANCED_FACE ( 'NONE', ( #18 ), #206, .T. ) ;
#232 = DIRECTION ( 'NONE',  ( -4.453261087808560759E-17, 1.000000000000000000, -0.000000000000000000 ) ) ;
#233 = DIRECTION ( 'NONE',  ( -0.000000000000000000, -1.000000000000000000, -0.000000000000000000 ) ) ;
#234 = CARTESIAN_POINT ( 'NONE',  ( 0.000000000000000000, 0.000000000000000000, -0.5000000000000000000 ) ) ;
#235 = CARTESIAN_POINT ( 'NONE',  ( 4.957883579047472087E-34, 3.250000000000000000, 0.000000000000000000 ) ) ;
#236 = DIRECTION ( 'NONE',  ( -0.000000000000000000, -1.000000000000000000, -0.000000000000000000 ) ) ;
#237 = FACE_OUTER_BOUND ( 'NONE', #51, .T. ) ;
#238 = PLANE ( 'NONE',  #158 ) ;
#239 = EDGE_CURVE ( 'NONE', #119, #194, #16, .T. ) ;
#240 =( CONVERSION_BASED_UNIT ( 'INCH', #260 ) LENGTH_UNIT ( ) NAMED_UNIT ( #85 ) );
#241 =( NAMED_UNIT ( * ) SI_UNIT ( $, .STERADIAN. ) SOLID_ANGLE_UNIT ( ) );
#242 = CARTESIAN_POINT ( 'NONE',  ( 0.000000000000000000, 3.250000000000000000, 0.000000000000000000 ) ) ;
#243 = MECHANICAL_DESIGN_GEOMETRIC_PRESENTATION_REPRESENTATION (  '', ( #66 ), #192 ) ;
#244 = PRODUCT_RELATED_PRODUCT_CATEGORY ( 'part', '', ( #109 ) ) ;
#245 = MANIFOLD_SOLID_BREP ( 'Revolve - Cutting Edge', #172 ) ;
#246 = MANIFOLD_SOLID_BREP ( 'Revolve - Tool Body (Straight Shanked)', #5 ) ;
#247 = CARTESIAN_POINT ( 'NONE',  ( 0.000000000000000000, 3.250000000000000000, 0.000000000000000000 ) ) ;
#248 = CARTESIAN_POINT ( 'NONE',  ( -1.224646799147354440E-16, 6.000000000000000888, 0.000000000000000000 ) ) ;
#249 = ORIENTED_EDGE ( 'NONE', *, *, #35, .F. ) ;
#250 = EDGE_CURVE ( 'NONE', #125, #228, #229, .T. ) ;
#251 = VERTEX_POINT ( 'NONE', #27 ) ;
#252 = SURFACE_STYLE_FILL_AREA ( #202 ) ;
#253 = STYLED_ITEM ( 'NONE', ( #265 ), #246 ) ;
#254 = PLANE ( 'NONE',  #23 ) ;
#255 = ORIENTED_EDGE ( 'NONE', *, *, #61, .F. ) ;
#256 = DIRECTION ( 'NONE',  ( 0.000000000000000000, 1.000000000000000000, 0.000000000000000000 ) ) ;
#257 = AXIS2_PLACEMENT_3D ( 'NONE', #227, #236, #271 ) ;
#258 = PRESENTATION_STYLE_ASSIGNMENT (( #83 ) ) ;
#259 = DIRECTION ( 'NONE',  ( -0.000000000000000000, -1.000000000000000000, -0.000000000000000000 ) ) ;
#260 = LENGTH_MEASURE_WITH_UNIT ( LENGTH_MEASURE( 0.02539999999999999897 ), #55 );
#261 = SHAPE_DEFINITION_REPRESENTATION ( #37, #8 ) ;
#262 = DIRECTION ( 'NONE',  ( -1.000000000000000000, -4.453261087808560759E-17, 0.000000000000000000 ) ) ;
#263 = DIRECTION ( 'NONE',  ( 0.000000000000000000, -0.000000000000000000, 1.000000000000000000 ) ) ;
#264 = LINE ( 'NONE', #123, #278 ) ;
#265 = PRESENTATION_STYLE_ASSIGNMENT (( #155 ) ) ;
#266 = COLOUR_RGB ( '',1.000000000000000000, 0.000000000000000000, 0.000000000000000000 ) ;
#267 = SURFACE_STYLE_FILL_AREA ( #170 ) ;
#268 = EDGE_CURVE ( 'NONE', #114, #194, #102, .T. ) ;
#269 =( LENGTH_UNIT ( ) NAMED_UNIT ( * ) SI_UNIT ( $, .METRE. ) );
#270 = AXIS2_PLACEMENT_3D ( 'NONE', #33, #221, #133 ) ;
#271 = DIRECTION ( 'NONE',  ( 0.000000000000000000, 0.000000000000000000, -1.000000000000000000 ) ) ;
#272 = FACE_OUTER_BOUND ( 'NONE', #15, .T. ) ;
#273 = MECHANICAL_DESIGN_GEOMETRIC_PRESENTATION_REPRESENTATION (  '', ( #87 ), #204 ) ;
#274 = ORIENTED_EDGE ( 'NONE', *, *, #239, .F. ) ;
#275 = VERTEX_POINT ( 'NONE', #86 ) ;
#276 = CYLINDRICAL_SURFACE ( 'NONE', #175, 0.5000000000000000000 ) ;
#277 = ORIENTED_EDGE ( 'NONE', *, *, #94, .T. ) ;
#278 = VECTOR ( 'NONE', #99, 39.37007874015748143 ) ;
#279 = DIRECTION ( 'NONE',  ( -4.453261087808560759E-17, 1.000000000000000000, -0.000000000000000000 ) ) ;
#280 = DIRECTION ( 'NONE',  ( 0.000000000000000000, 0.000000000000000000, -1.000000000000000000 ) ) ;
#281 = FILL_AREA_STYLE_COLOUR ( '', #160 ) ;
#282 = DIRECTION ( 'NONE',  ( 0.000000000000000000, 0.000000000000000000, -1.000000000000000000 ) ) ;
#283 = CARTESIAN_POINT ( 'NONE',  ( 0.000000000000000000, 3.250000000000000000, 0.000000000000000000 ) ) ;
#284 = PRESENTATION_LAYER_ASSIGNMENT (  '', '', ( #66 ) ) ;
#285 = CARTESIAN_POINT ( 'NONE',  ( 0.5000000000000000000, 3.250000000000000000, 6.123233995736767268E-17 ) ) ;
#286 = DIRECTION ( 'NONE',  ( -4.453261087808560759E-17, 1.000000000000000000, 0.000000000000000000 ) ) ;
#287 =( LENGTH_UNIT ( ) NAMED_UNIT ( * ) SI_UNIT ( $, .METRE. ) );
#288 = DIRECTION ( 'NONE',  ( -4.453261087808560759E-17, 1.000000000000000000, -0.000000000000000000 ) ) ;
#289 =( NAMED_UNIT ( * ) SI_UNIT ( $, .STERADIAN. ) SOLID_ANGLE_UNIT ( ) );
#290 = DIMENSIONAL_EXPONENTS ( 1.000000000000000000, 0.000000000000000000, 0.000000000000000000, 0.000000000000000000, 0.000000000000000000, 0.000000000000000000, 0.000000000000000000 ) ;
#291 = LENGTH_MEASURE_WITH_UNIT ( LENGTH_MEASURE( 0.02539999999999999897 ), #219 );
#292 = CARTESIAN_POINT ( 'NONE',  ( 0.000000000000000000, 3.250000000000000000, 0.000000000000000000 ) ) ;
#293 = APPLICATION_CONTEXT ( 'automotive_design' ) ;
#294 =( NAMED_UNIT ( * ) PLANE_ANGLE_UNIT ( ) SI_UNIT ( $, .RADIAN. ) );
#295 = COLOUR_RGB ( '',0.7921568627450980005, 0.8196078431372548767, 0.9333333333333333481 ) ;
#296 = ORIENTED_EDGE ( 'NONE', *, *, #111, .F. ) ;
#297 =( GEOMETRIC_REPRESENTATION_CONTEXT ( 3 ) GLOBAL_UNCERTAINTY_ASSIGNED_CONTEXT ( ( #73 ) ) GLOBAL_UNIT_ASSIGNED_CONTEXT ( ( #40, #294, #156 ) ) REPRESENTATION_CONTEXT ( 'NONE', 'WORKASPACE' ) );
#298 = DIRECTION ( 'NONE',  ( -4.453261087808560759E-17, 1.000000000000000000, -0.000000000000000000 ) ) ;
#299 = CARTESIAN_POINT ( 'NONE',  ( 6.123233995736766036E-17, 0.000000000000000000, 0.5000000000000000000 ) ) ;
#300 = DIRECTION ( 'NONE',  ( 0.000000000000000000, -1.000000000000000000, -0.000000000000000000 ) ) ;
#301 =( NAMED_UNIT ( * ) PLANE_ANGLE_UNIT ( ) SI_UNIT ( $, .RADIAN. ) );
#302 = UNCERTAINTY_MEASURE_WITH_UNIT (LENGTH_MEASURE( 1.000000000000000082E-05 ), #226, 'distance_accuracy_value', 'NONE');
#303 = DIRECTION ( 'NONE',  ( 0.000000000000000000, 0.000000000000000000, 1.000000000000000000 ) ) ;
#304 = LENGTH_MEASURE_WITH_UNIT ( LENGTH_MEASURE( 0.02539999999999999897 ), #162 );
#305 = FILL_AREA_STYLE ('',( #100 ) ) ;
#306 = CIRCLE ( 'NONE', #47, 0.5000000000000001110 ) ;
#307 = SURFACE_STYLE_USAGE ( .BOTH. , #77 ) ;
#308 = DIRECTION ( 'NONE',  ( -0.000000000000000000, -1.000000000000000000, -0.000000000000000000 ) ) ;
#309 = CYLINDRICAL_SURFACE ( 'NONE', #223, 0.5000000000000000000 ) ;
ENDSEC;
END-ISO-10303-21;
