ISO-10303-21;
HEADER;
FILE_DESCRIPTION (( 'STEP AP214' ),
    '1' );
FILE_NAME ('Micro_EMS-093-4X.STEP',
    '2021-09-01T17:39:18',
    ( '' ),
    ( '' ),
    'SwSTEP 2.0',
    'SolidWorks 2020',
    '' );
FILE_SCHEMA (( 'AUTOMOTIVE_DESIGN' ));
ENDSEC;

DATA;
#1 = DIRECTION ( 'NONE',  ( -1.000000000000000000, 0.0000000000000000000, 0.0000000000000000000 ) ) ;
#2 = EDGE_CURVE ( 'NONE', #146, #224, #88, .T. ) ;
#3 = CARTESIAN_POINT ( 'NONE',  ( 4.592425496802576684E-17, 0.0000000000000000000, 0.3750000000000000555 ) ) ;
#4 = CARTESIAN_POINT ( 'NONE',  ( -0.04685309999999996700, 6.695946194592023262E-18, 0.3750000000000000555 ) ) ;
#5 = PRESENTATION_LAYER_ASSIGNMENT (  '', '', ( #20 ) ) ;
#6 = VECTOR ( 'NONE', #239, 39.37007874015748854 ) ;
#7 =( NAMED_UNIT ( * ) PLANE_ANGLE_UNIT ( ) SI_UNIT ( $, .RADIAN. ) );
#8 = DIMENSIONAL_EXPONENTS ( 1.000000000000000000, 0.0000000000000000000, 0.0000000000000000000, 0.0000000000000000000, 0.0000000000000000000, 0.0000000000000000000, 0.0000000000000000000 ) ;
#9 = ORIENTED_EDGE ( 'NONE', *, *, #205, .T. ) ;
#10 = ORIENTED_EDGE ( 'NONE', *, *, #2, .T. ) ;
#11 = SURFACE_STYLE_USAGE ( .BOTH. , #125 ) ;
#12 = AXIS2_PLACEMENT_3D ( 'NONE', #196, #286, #243 ) ;
#13 = EDGE_LOOP ( 'NONE', ( #89, #32, #75, #80 ) ) ;
#14 = EDGE_LOOP ( 'NONE', ( #101, #61 ) ) ;
#15 = FACE_OUTER_BOUND ( 'NONE', #103, .T. ) ;
#16 = ADVANCED_FACE ( 'NONE', ( #15 ), #206, .T. ) ;
#17 = DIRECTION ( 'NONE',  ( 0.0000000000000000000, 0.0000000000000000000, 1.000000000000000000 ) ) ;
#18 = FACE_OUTER_BOUND ( 'NONE', #150, .T. ) ;
#19 = CARTESIAN_POINT ( 'NONE',  ( 0.04685310000000000169, 5.737849894513085128E-18, -5.737849894513087439E-18 ) ) ;
#20 = STYLED_ITEM ( 'NONE', ( #156 ), #39 ) ;
#21 = AXIS2_PLACEMENT_3D ( 'NONE', #3, #29, #45 ) ;
#22 = FACE_OUTER_BOUND ( 'NONE', #295, .T. ) ;
#23 = APPLICATION_PROTOCOL_DEFINITION ( 'draft international standard', 'automotive_design', 1998, #180 ) ;
#24 = CARTESIAN_POINT ( 'NONE',  ( 0.04685310000000005026, 0.0000000000000000000, 0.3750000000000000555 ) ) ;
#25 = CARTESIAN_POINT ( 'NONE',  ( 0.0000000000000000000, 0.0000000000000000000, 1.500000000000000222 ) ) ;
#26 = CIRCLE ( 'NONE', #12, 0.04685310000000000863 ) ;
#27 = CARTESIAN_POINT ( 'NONE',  ( 4.592425496802576684E-17, 0.0000000000000000000, 0.3750000000000000555 ) ) ;
#28 = PRODUCT_DEFINITION_SHAPE ( 'NONE', 'NONE',  #242 ) ;
#29 = DIRECTION ( 'NONE',  ( 1.224646799147353700E-16, 0.0000000000000000000, 1.000000000000000000 ) ) ;
#30 = VECTOR ( 'NONE', #290, 39.37007874015748143 ) ;
#31 = DIRECTION ( 'NONE',  ( 1.000000000000000000, 0.0000000000000000000, 0.0000000000000000000 ) ) ;
#32 = ORIENTED_EDGE ( 'NONE', *, *, #188, .T. ) ;
#33 = ORIENTED_EDGE ( 'NONE', *, *, #188, .F. ) ;
#34 = ORIENTED_EDGE ( 'NONE', *, *, #215, .T. ) ;
#35 = STYLED_ITEM ( 'NONE', ( #217 ), #62 ) ;
#36 = SURFACE_STYLE_FILL_AREA ( #58 ) ;
#37 = VERTEX_POINT ( 'NONE', #84 ) ;
#38 = ADVANCED_FACE ( 'NONE', ( #18 ), #97, .T. ) ;
#39 = MANIFOLD_SOLID_BREP ( 'Cut-Revolve1', #161 ) ;
#40 = ORIENTED_EDGE ( 'NONE', *, *, #195, .T. ) ;
#41 =( CONVERSION_BASED_UNIT ( 'INCH', #110 ) LENGTH_UNIT ( ) NAMED_UNIT ( #240 ) );
#42 = ADVANCED_FACE ( 'NONE', ( #227 ), #203, .T. ) ;
#43 = DIRECTION ( 'NONE',  ( 1.000000000000000000, 0.0000000000000000000, 0.0000000000000000000 ) ) ;
#44 = FILL_AREA_STYLE_COLOUR ( '', #268 ) ;
#45 = DIRECTION ( 'NONE',  ( 1.000000000000000000, 0.0000000000000000000, 0.0000000000000000000 ) ) ;
#46 = MECHANICAL_DESIGN_GEOMETRIC_PRESENTATION_REPRESENTATION (  '', ( #20 ), #248 ) ;
#47 = CONICAL_SURFACE ( 'NONE', #21, 0.04685310000000000863, 0.1745329251994338637 ) ;
#48 = LINE ( 'NONE', #166, #163 ) ;
#49 = CARTESIAN_POINT ( 'NONE',  ( -0.04685310000000000169, 0.0000000000000000000, 5.737849894513087439E-18 ) ) ;
#50 = LINE ( 'NONE', #90, #6 ) ;
#51 = AXIS2_PLACEMENT_3D ( 'NONE', #220, #176, #55 ) ;
#52 = DIRECTION ( 'NONE',  ( -0.7071067811865462405, 0.0000000000000000000, -0.7071067811865486830 ) ) ;
#53 = ADVANCED_FACE ( 'NONE', ( #271 ), #152, .F. ) ;
#54 =( CONVERSION_BASED_UNIT ( 'INCH', #261 ) LENGTH_UNIT ( ) NAMED_UNIT ( #173 ) );
#55 = DIRECTION ( 'NONE',  ( -1.000000000000000000, 0.0000000000000000000, 0.0000000000000000000 ) ) ;
#56 = ORIENTED_EDGE ( 'NONE', *, *, #256, .F. ) ;
#57 = ADVANCED_FACE ( 'NONE', ( #66 ), #157, .T. ) ;
#58 = FILL_AREA_STYLE ('',( #198 ) ) ;
#59 = EDGE_LOOP ( 'NONE', ( #219, #202, #131, #233 ) ) ;
#60 = PRODUCT_DEFINITION_FORMATION_WITH_SPECIFIED_SOURCE ( 'ANY', '', #168, .NOT_KNOWN. ) ;
#61 = ORIENTED_EDGE ( 'NONE', *, *, #77, .T. ) ;
#62 = ADVANCED_BREP_SHAPE_REPRESENTATION ( 'Micro_EMS-093-4X', ( #39, #133 ), #212 ) ;
#63 = DIRECTION ( 'NONE',  ( -1.000000000000000000, 0.0000000000000000000, 0.0000000000000000000 ) ) ;
#64 = AXIS2_PLACEMENT_3D ( 'NONE', #102, #17, #264 ) ;
#65 = CARTESIAN_POINT ( 'NONE',  ( 0.0000000000000000000, 0.0000000000000000000, 0.0000000000000000000 ) ) ;
#66 = FACE_OUTER_BOUND ( 'NONE', #59, .T. ) ;
#67 = DIRECTION ( 'NONE',  ( -1.000000000000000000, 0.0000000000000000000, 1.224646799147353700E-16 ) ) ;
#68 = CIRCLE ( 'NONE', #287, 0.06250000000000002776 ) ;
#69 = CYLINDRICAL_SURFACE ( 'NONE', #123, 0.06250000000000002776 ) ;
#70 = DIRECTION ( 'NONE',  ( 1.224646799147353700E-16, 0.0000000000000000000, 1.000000000000000000 ) ) ;
#71 = CYLINDRICAL_SURFACE ( 'NONE', #291, 0.06250000000000002776 ) ;
#72 = CONICAL_SURFACE ( 'NONE', #51, 0.04750000000000064587, 0.7853981633974466137 ) ;
#73 = CARTESIAN_POINT ( 'NONE',  ( 0.04685310000000005026, 0.0000000000000000000, 0.3750000000000000555 ) ) ;
#74 =( CONVERSION_BASED_UNIT ( 'INCH', #284 ) LENGTH_UNIT ( ) NAMED_UNIT ( #8 ) );
#75 = ORIENTED_EDGE ( 'NONE', *, *, #139, .F. ) ;
#76 = CIRCLE ( 'NONE', #238, 0.04750000000000064587 ) ;
#77 = EDGE_CURVE ( 'NONE', #37, #130, #76, .T. ) ;
#78 = CARTESIAN_POINT ( 'NONE',  ( -0.06249999999999996531, 0.0000000000000000000, 0.4637379795033760299 ) ) ;
#79 = VERTEX_POINT ( 'NONE', #299 ) ;
#80 = ORIENTED_EDGE ( 'NONE', *, *, #215, .F. ) ;
#81 = AXIS2_PLACEMENT_3D ( 'NONE', #100, #172, #148 ) ;
#82 = CARTESIAN_POINT ( 'NONE',  ( 0.0000000000000000000, 0.0000000000000000000, 1.500000000000000222 ) ) ;
#83 = ADVANCED_FACE ( 'NONE', ( #191 ), #69, .T. ) ;
#84 = CARTESIAN_POINT ( 'NONE',  ( 0.04750000000000064587, 6.735557395310483192E-18, 1.500000000000000222 ) ) ;
#85 = DIRECTION ( 'NONE',  ( 0.0000000000000000000, 0.0000000000000000000, 1.000000000000000000 ) ) ;
#86 = UNCERTAINTY_MEASURE_WITH_UNIT (LENGTH_MEASURE( 1.000000000000000082E-05 ), #74, 'distance_accuracy_value', 'NONE');
#87 = AXIS2_PLACEMENT_3D ( 'NONE', #177, #230, #31 ) ;
#88 = LINE ( 'NONE', #19, #30 ) ;
#89 = ORIENTED_EDGE ( 'NONE', *, *, #77, .F. ) ;
#90 = CARTESIAN_POINT ( 'NONE',  ( 0.04750000000000064587, 5.817072295950006528E-18, 1.500000000000000222 ) ) ;
#91 = CARTESIAN_POINT ( 'NONE',  ( -0.06250000000000002776, 0.0000000000000000000, 1.485000000000000764 ) ) ;
#92 = EDGE_CURVE ( 'NONE', #128, #224, #275, .T. ) ;
#93 = DIRECTION ( 'NONE',  ( -1.000000000000000000, 0.0000000000000000000, 0.0000000000000000000 ) ) ;
#94 = ADVANCED_FACE ( 'NONE', ( #189 ), #47, .T. ) ;
#95 = DIRECTION ( 'NONE',  ( 0.0000000000000000000, 0.0000000000000000000, -1.000000000000000000 ) ) ;
#96 = CARTESIAN_POINT ( 'NONE',  ( 0.0000000000000000000, 0.0000000000000000000, 1.485000000000000764 ) ) ;
#97 = CONICAL_SURFACE ( 'NONE', #223, 0.04750000000000064587, 0.7853981633974466137 ) ;
#98 = AXIS2_PLACEMENT_3D ( 'NONE', #82, #85, #182 ) ;
#99 = ORIENTED_EDGE ( 'NONE', *, *, #183, .F. ) ;
#100 = CARTESIAN_POINT ( 'NONE',  ( 0.0000000000000000000, 0.0000000000000000000, 1.485000000000000764 ) ) ;
#101 = ORIENTED_EDGE ( 'NONE', *, *, #252, .T. ) ;
#102 = CARTESIAN_POINT ( 'NONE',  ( 0.0000000000000000000, 0.0000000000000000000, 1.500000000000000222 ) ) ;
#103 = EDGE_LOOP ( 'NONE', ( #246, #10, #292, #244 ) ) ;
#104 = EDGE_LOOP ( 'NONE', ( #207, #147 ) ) ;
#105 = ORIENTED_EDGE ( 'NONE', *, *, #226, .T. ) ;
#106 = VERTEX_POINT ( 'NONE', #91 ) ;
#107 =( LENGTH_UNIT ( ) NAMED_UNIT ( * ) SI_UNIT ( $, .METRE. ) );
#108 =( LENGTH_UNIT ( ) NAMED_UNIT ( * ) SI_UNIT ( $, .METRE. ) );
#109 = EDGE_CURVE ( 'NONE', #124, #128, #216, .T. ) ;
#110 = LENGTH_MEASURE_WITH_UNIT ( LENGTH_MEASURE( 0.02539999999999999897 ), #108 );
#111 = SHAPE_DEFINITION_REPRESENTATION ( #28, #62 ) ;
#112 = CIRCLE ( 'NONE', #250, 0.04685310000000000863 ) ;
#113 = DIRECTION ( 'NONE',  ( -0.0000000000000000000, -0.0000000000000000000, -1.000000000000000000 ) ) ;
#114 = UNCERTAINTY_MEASURE_WITH_UNIT (LENGTH_MEASURE( 1.000000000000000082E-05 ), #54, 'distance_accuracy_value', 'NONE');
#115 = DIRECTION ( 'NONE',  ( 0.1736481776669313581, 0.0000000000000000000, 0.9848077530122077983 ) ) ;
#116 = DIRECTION ( 'NONE',  ( 1.000000000000000000, 0.0000000000000000000, 0.0000000000000000000 ) ) ;
#117 = VECTOR ( 'NONE', #283, 39.37007874015748143 ) ;
#118 = DIRECTION ( 'NONE',  ( -1.000000000000000000, 0.0000000000000000000, 1.224646799147353700E-16 ) ) ;
#119 = DIRECTION ( 'NONE',  ( -1.224646799147353700E-16, -0.0000000000000000000, -1.000000000000000000 ) ) ;
#120 = APPLICATION_PROTOCOL_DEFINITION ( 'draft international standard', 'automotive_design', 1998, #160 ) ;
#121 = AXIS2_PLACEMENT_3D ( 'NONE', #65, #277, #251 ) ;
#122 = VERTEX_POINT ( 'NONE', #142 ) ;
#123 = AXIS2_PLACEMENT_3D ( 'NONE', #241, #141, #1 ) ;
#124 = VERTEX_POINT ( 'NONE', #4 ) ;
#125 = SURFACE_SIDE_STYLE ('',( #36 ) ) ;
#126 = PRODUCT_RELATED_PRODUCT_CATEGORY ( 'part', '', ( #168 ) ) ;
#127 = FACE_OUTER_BOUND ( 'NONE', #13, .T. ) ;
#128 = VERTEX_POINT ( 'NONE', #210 ) ;
#129 = EDGE_CURVE ( 'NONE', #224, #128, #204, .T. ) ;
#130 = VERTEX_POINT ( 'NONE', #194 ) ;
#131 = ORIENTED_EDGE ( 'NONE', *, *, #109, .T. ) ;
#132 = ORIENTED_EDGE ( 'NONE', *, *, #153, .F. ) ;
#133 = AXIS2_PLACEMENT_3D ( 'NONE', #135, #159, #43 ) ;
#134 = SURFACE_STYLE_USAGE ( .BOTH. , #184 ) ;
#135 = CARTESIAN_POINT ( 'NONE',  ( 0.0000000000000000000, 0.0000000000000000000, 0.0000000000000000000 ) ) ;
#136 = ORIENTED_EDGE ( 'NONE', *, *, #263, .T. ) ;
#137 = AXIS2_PLACEMENT_3D ( 'NONE', #27, #70, #298 ) ;
#138 = CARTESIAN_POINT ( 'NONE',  ( 7.026839507303433011E-34, 0.0000000000000000000, 5.737849894513087439E-18 ) ) ;
#139 = EDGE_CURVE ( 'NONE', #106, #122, #68, .T. ) ;
#140 = CARTESIAN_POINT ( 'NONE',  ( 0.06250000000000002776, 7.654042494670959086E-18, 1.500000000000000222 ) ) ;
#141 = DIRECTION ( 'NONE',  ( -0.0000000000000000000, -0.0000000000000000000, -1.000000000000000000 ) ) ;
#142 = CARTESIAN_POINT ( 'NONE',  ( 0.06250000000000002776, 7.654042494670959086E-18, 1.485000000000000764 ) ) ;
#143 = VECTOR ( 'NONE', #115, 39.37007874015748143 ) ;
#144 = LINE ( 'NONE', #24, #143 ) ;
#145 = CARTESIAN_POINT ( 'NONE',  ( 0.04685310000000000169, 5.737849894513085128E-18, 0.0000000000000000000 ) ) ;
#146 = VERTEX_POINT ( 'NONE', #73 ) ;
#147 = ORIENTED_EDGE ( 'NONE', *, *, #129, .T. ) ;
#148 = DIRECTION ( 'NONE',  ( 1.000000000000000000, 0.0000000000000000000, 0.0000000000000000000 ) ) ;
#149 = ORIENTED_EDGE ( 'NONE', *, *, #221, .F. ) ;
#150 = EDGE_LOOP ( 'NONE', ( #33, #178, #34, #232 ) ) ;
#151 = PRESENTATION_LAYER_ASSIGNMENT (  '', '', ( #35 ) ) ;
#152 = PLANE ( 'NONE',  #190 ) ;
#153 = EDGE_CURVE ( 'NONE', #124, #146, #112, .T. ) ;
#154 = SURFACE_STYLE_FILL_AREA ( #273 ) ;
#155 = VECTOR ( 'NONE', #52, 39.37007874015748854 ) ;
#156 = PRESENTATION_STYLE_ASSIGNMENT (( #134 ) ) ;
#157 = CYLINDRICAL_SURFACE ( 'NONE', #270, 0.04685310000000000169 ) ;
#158 = ADVANCED_FACE ( 'NONE', ( #22 ), #71, .T. ) ;
#159 = DIRECTION ( 'NONE',  ( 0.0000000000000000000, 0.0000000000000000000, 1.000000000000000000 ) ) ;
#160 = APPLICATION_CONTEXT ( 'automotive_design' ) ;
#161 = CLOSED_SHELL ( 'NONE', ( #16, #167, #294, #83, #158, #42, #38, #94, #57, #53 ) ) ;
#162 = CIRCLE ( 'NONE', #81, 0.06250000000000002776 ) ;
#163 = VECTOR ( 'NONE', #259, 39.37007874015748143 ) ;
#164 = LINE ( 'NONE', #140, #208 ) ;
#165 = DIRECTION ( 'NONE',  ( -1.000000000000000000, 0.0000000000000000000, 1.224646799147353700E-16 ) ) ;
#166 = CARTESIAN_POINT ( 'NONE',  ( -0.06250000000000002776, 0.0000000000000000000, 1.500000000000000222 ) ) ;
#167 = ADVANCED_FACE ( 'NONE', ( #192 ), #225, .T. ) ;
#168 = PRODUCT ( 'Micro_EMS-093-4X', 'Micro_EMS-093-4X', '', ( #253 ) ) ;
#169 = CARTESIAN_POINT ( 'NONE',  ( -0.04750000000000064587, 0.0000000000000000000, 1.500000000000000222 ) ) ;
#170 = COLOUR_RGB ( '',0.7921568627450980005, 0.8196078431372548767, 0.9333333333333333481 ) ;
#171 = CARTESIAN_POINT ( 'NONE',  ( 5.679152322418704750E-17, 0.0000000000000000000, 0.4637379795033760299 ) ) ;
#172 = DIRECTION ( 'NONE',  ( 0.0000000000000000000, 0.0000000000000000000, -1.000000000000000000 ) ) ;
#173 = DIMENSIONAL_EXPONENTS ( 1.000000000000000000, 0.0000000000000000000, 0.0000000000000000000, 0.0000000000000000000, 0.0000000000000000000, 0.0000000000000000000, 0.0000000000000000000 ) ;
#174 = DIRECTION ( 'NONE',  ( 1.000000000000000000, 0.0000000000000000000, 0.0000000000000000000 ) ) ;
#175 = AXIS2_PLACEMENT_3D ( 'NONE', #171, #266, #174 ) ;
#176 = DIRECTION ( 'NONE',  ( 0.0000000000000000000, 0.0000000000000000000, -1.000000000000000000 ) ) ;
#177 = CARTESIAN_POINT ( 'NONE',  ( 5.679152322418704750E-17, 0.0000000000000000000, 0.4637379795033760299 ) ) ;
#178 = ORIENTED_EDGE ( 'NONE', *, *, #252, .F. ) ;
#179 = ORIENTED_EDGE ( 'NONE', *, *, #205, .F. ) ;
#180 = APPLICATION_CONTEXT ( 'automotive_design' ) ;
#181 = CIRCLE ( 'NONE', #64, 0.04750000000000064587 ) ;
#182 = DIRECTION ( 'NONE',  ( 1.000000000000000000, 0.0000000000000000000, -0.0000000000000000000 ) ) ;
#183 = EDGE_CURVE ( 'NONE', #106, #269, #48, .T. ) ;
#184 = SURFACE_SIDE_STYLE ('',( #154 ) ) ;
#185 = ORIENTED_EDGE ( 'NONE', *, *, #195, .F. ) ;
#186 = CIRCLE ( 'NONE', #87, 0.06250000000000002776 ) ;
#187 = DIRECTION ( 'NONE',  ( 0.0000000000000000000, 0.0000000000000000000, 1.000000000000000000 ) ) ;
#188 = EDGE_CURVE ( 'NONE', #37, #122, #50, .T. ) ;
#189 = FACE_OUTER_BOUND ( 'NONE', #245, .T. ) ;
#190 = AXIS2_PLACEMENT_3D ( 'NONE', #296, #187, #276 ) ;
#191 = FACE_OUTER_BOUND ( 'NONE', #209, .T. ) ;
#192 = FACE_OUTER_BOUND ( 'NONE', #197, .T. ) ;
#193 = CARTESIAN_POINT ( 'NONE',  ( -0.04685309999999996700, 5.737849894513086668E-18, 0.3750000000000000555 ) ) ;
#194 = CARTESIAN_POINT ( 'NONE',  ( -0.04750000000000064587, 0.0000000000000000000, 1.500000000000000222 ) ) ;
#195 = EDGE_CURVE ( 'NONE', #122, #79, #164, .T. ) ;
#196 = CARTESIAN_POINT ( 'NONE',  ( 4.592425496802576684E-17, 0.0000000000000000000, 0.3750000000000000555 ) ) ;
#197 = EDGE_LOOP ( 'NONE', ( #132, #9, #105, #149 ) ) ;
#198 = FILL_AREA_STYLE_COLOUR ( '', #170 ) ;
#199 = AXIS2_PLACEMENT_3D ( 'NONE', #138, #258, #67 ) ;
#200 =( NAMED_UNIT ( * ) PLANE_ANGLE_UNIT ( ) SI_UNIT ( $, .RADIAN. ) );
#201 = ORIENTED_EDGE ( 'NONE', *, *, #221, .T. ) ;
#202 = ORIENTED_EDGE ( 'NONE', *, *, #256, .T. ) ;
#203 = PLANE ( 'NONE',  #98 ) ;
#204 = CIRCLE ( 'NONE', #199, 0.04685310000000000169 ) ;
#205 = EDGE_CURVE ( 'NONE', #124, #269, #260, .T. ) ;
#206 = CYLINDRICAL_SURFACE ( 'NONE', #121, 0.04685310000000000169 ) ;
#207 = ORIENTED_EDGE ( 'NONE', *, *, #92, .T. ) ;
#208 = VECTOR ( 'NONE', #214, 39.37007874015748143 ) ;
#209 = EDGE_LOOP ( 'NONE', ( #285, #40, #247, #99 ) ) ;
#210 = CARTESIAN_POINT ( 'NONE',  ( -0.04685310000000000169, 0.0000000000000000000, 1.147569978902617488E-17 ) ) ;
#211 = DIRECTION ( 'NONE',  ( 0.0000000000000000000, 0.0000000000000000000, 1.000000000000000000 ) ) ;
#212 =( GEOMETRIC_REPRESENTATION_CONTEXT ( 3 ) GLOBAL_UNCERTAINTY_ASSIGNED_CONTEXT ( ( #114 ) ) GLOBAL_UNIT_ASSIGNED_CONTEXT ( ( #54, #7, #293 ) ) REPRESENTATION_CONTEXT ( 'NONE', 'WORKASPACE' ) );
#213 = CARTESIAN_POINT ( 'NONE',  ( 0.0000000000000000000, 0.0000000000000000000, 0.0000000000000000000 ) ) ;
#214 = DIRECTION ( 'NONE',  ( -0.0000000000000000000, -0.0000000000000000000, -1.000000000000000000 ) ) ;
#215 = EDGE_CURVE ( 'NONE', #130, #106, #282, .T. ) ;
#216 = LINE ( 'NONE', #49, #117 ) ;
#217 = PRESENTATION_STYLE_ASSIGNMENT (( #11 ) ) ;
#218 = CIRCLE ( 'NONE', #175, 0.06250000000000002776 ) ;
#219 = ORIENTED_EDGE ( 'NONE', *, *, #2, .F. ) ;
#220 = CARTESIAN_POINT ( 'NONE',  ( 0.0000000000000000000, 0.0000000000000000000, 1.500000000000000222 ) ) ;
#221 = EDGE_CURVE ( 'NONE', #146, #79, #144, .T. ) ;
#222 =( LENGTH_UNIT ( ) NAMED_UNIT ( * ) SI_UNIT ( $, .METRE. ) );
#223 = AXIS2_PLACEMENT_3D ( 'NONE', #272, #297, #63 ) ;
#224 = VERTEX_POINT ( 'NONE', #145 ) ;
#225 = CONICAL_SURFACE ( 'NONE', #137, 0.04685310000000000863, 0.1745329251994338637 ) ;
#226 = EDGE_CURVE ( 'NONE', #269, #79, #218, .T. ) ;
#227 = FACE_OUTER_BOUND ( 'NONE', #14, .T. ) ;
#228 = ORIENTED_EDGE ( 'NONE', *, *, #263, .F. ) ;
#229 = UNCERTAINTY_MEASURE_WITH_UNIT (LENGTH_MEASURE( 1.000000000000000082E-05 ), #41, 'distance_accuracy_value', 'NONE');
#230 = DIRECTION ( 'NONE',  ( -1.224646799147353700E-16, -0.0000000000000000000, -1.000000000000000000 ) ) ;
#231 =( NAMED_UNIT ( * ) PLANE_ANGLE_UNIT ( ) SI_UNIT ( $, .RADIAN. ) );
#232 = ORIENTED_EDGE ( 'NONE', *, *, #236, .F. ) ;
#233 = ORIENTED_EDGE ( 'NONE', *, *, #129, .F. ) ;
#234 = DIRECTION ( 'NONE',  ( -1.224646799147353700E-16, -0.0000000000000000000, -1.000000000000000000 ) ) ;
#235 = DIRECTION ( 'NONE',  ( -0.1736481776669311639, 2.126576849575783008E-17, 0.9848077530122080203 ) ) ;
#236 = EDGE_CURVE ( 'NONE', #122, #106, #162, .T. ) ;
#237 = CARTESIAN_POINT ( 'NONE',  ( 4.592425496802576684E-17, 0.0000000000000000000, 0.3750000000000000555 ) ) ;
#238 = AXIS2_PLACEMENT_3D ( 'NONE', #25, #211, #116 ) ;
#239 = DIRECTION ( 'NONE',  ( 0.7071067811865462405, 8.659560562354916834E-17, -0.7071067811865486830 ) ) ;
#240 = DIMENSIONAL_EXPONENTS ( 1.000000000000000000, 0.0000000000000000000, 0.0000000000000000000, 0.0000000000000000000, 0.0000000000000000000, 0.0000000000000000000, 0.0000000000000000000 ) ;
#241 = CARTESIAN_POINT ( 'NONE',  ( 0.0000000000000000000, 0.0000000000000000000, 1.500000000000000222 ) ) ;
#242 = PRODUCT_DEFINITION ( 'UNKNOWN', '', #60, #274 ) ;
#243 = DIRECTION ( 'NONE',  ( -1.000000000000000000, 0.0000000000000000000, 0.0000000000000000000 ) ) ;
#244 = ORIENTED_EDGE ( 'NONE', *, *, #109, .F. ) ;
#245 = EDGE_LOOP ( 'NONE', ( #179, #56, #201, #136 ) ) ;
#246 = ORIENTED_EDGE ( 'NONE', *, *, #153, .T. ) ;
#247 = ORIENTED_EDGE ( 'NONE', *, *, #226, .F. ) ;
#248 =( GEOMETRIC_REPRESENTATION_CONTEXT ( 3 ) GLOBAL_UNCERTAINTY_ASSIGNED_CONTEXT ( ( #229 ) ) GLOBAL_UNIT_ASSIGNED_CONTEXT ( ( #41, #231, #249 ) ) REPRESENTATION_CONTEXT ( 'NONE', 'WORKASPACE' ) );
#249 =( NAMED_UNIT ( * ) SI_UNIT ( $, .STERADIAN. ) SOLID_ANGLE_UNIT ( ) );
#250 = AXIS2_PLACEMENT_3D ( 'NONE', #237, #234, #278 ) ;
#251 = DIRECTION ( 'NONE',  ( -1.000000000000000000, 0.0000000000000000000, 1.224646799147353700E-16 ) ) ;
#252 = EDGE_CURVE ( 'NONE', #130, #37, #181, .T. ) ;
#253 = PRODUCT_CONTEXT ( 'NONE', #160, 'mechanical' ) ;
#254 = DIRECTION ( 'NONE',  ( -1.224646799147353700E-16, -0.0000000000000000000, -1.000000000000000000 ) ) ;
#255 = MECHANICAL_DESIGN_GEOMETRIC_PRESENTATION_REPRESENTATION (  '', ( #35 ), #262 ) ;
#256 = EDGE_CURVE ( 'NONE', #146, #124, #26, .T. ) ;
#257 = DIRECTION ( 'NONE',  ( 1.000000000000000000, 0.0000000000000000000, 0.0000000000000000000 ) ) ;
#258 = DIRECTION ( 'NONE',  ( -1.224646799147353700E-16, -0.0000000000000000000, -1.000000000000000000 ) ) ;
#259 = DIRECTION ( 'NONE',  ( -0.0000000000000000000, -0.0000000000000000000, -1.000000000000000000 ) ) ;
#260 = LINE ( 'NONE', #193, #289 ) ;
#261 = LENGTH_MEASURE_WITH_UNIT ( LENGTH_MEASURE( 0.02539999999999999897 ), #107 );
#262 =( GEOMETRIC_REPRESENTATION_CONTEXT ( 3 ) GLOBAL_UNCERTAINTY_ASSIGNED_CONTEXT ( ( #86 ) ) GLOBAL_UNIT_ASSIGNED_CONTEXT ( ( #74, #200, #288 ) ) REPRESENTATION_CONTEXT ( 'NONE', 'WORKASPACE' ) );
#263 = EDGE_CURVE ( 'NONE', #79, #269, #186, .T. ) ;
#264 = DIRECTION ( 'NONE',  ( 1.000000000000000000, 0.0000000000000000000, 0.0000000000000000000 ) ) ;
#265 = ORIENTED_EDGE ( 'NONE', *, *, #183, .T. ) ;
#266 = DIRECTION ( 'NONE',  ( -1.224646799147353700E-16, -0.0000000000000000000, -1.000000000000000000 ) ) ;
#267 = ORIENTED_EDGE ( 'NONE', *, *, #236, .T. ) ;
#268 = COLOUR_RGB ( '',0.7921568627450980005, 0.8196078431372548767, 0.9333333333333333481 ) ;
#269 = VERTEX_POINT ( 'NONE', #78 ) ;
#270 = AXIS2_PLACEMENT_3D ( 'NONE', #213, #254, #118 ) ;
#271 = FACE_OUTER_BOUND ( 'NONE', #104, .T. ) ;
#272 = CARTESIAN_POINT ( 'NONE',  ( 0.0000000000000000000, 0.0000000000000000000, 1.500000000000000222 ) ) ;
#273 = FILL_AREA_STYLE ('',( #44 ) ) ;
#274 = PRODUCT_DEFINITION_CONTEXT ( 'detailed design', #180, 'design' ) ;
#275 = CIRCLE ( 'NONE', #279, 0.04685310000000000169 ) ;
#276 = DIRECTION ( 'NONE',  ( 1.000000000000000000, 0.0000000000000000000, -0.0000000000000000000 ) ) ;
#277 = DIRECTION ( 'NONE',  ( -1.224646799147353700E-16, -0.0000000000000000000, -1.000000000000000000 ) ) ;
#278 = DIRECTION ( 'NONE',  ( -1.000000000000000000, 0.0000000000000000000, 0.0000000000000000000 ) ) ;
#279 = AXIS2_PLACEMENT_3D ( 'NONE', #280, #119, #165 ) ;
#280 = CARTESIAN_POINT ( 'NONE',  ( 7.026839507303433011E-34, 0.0000000000000000000, 5.737849894513087439E-18 ) ) ;
#281 = CARTESIAN_POINT ( 'NONE',  ( 0.0000000000000000000, 0.0000000000000000000, 1.500000000000000222 ) ) ;
#282 = LINE ( 'NONE', #169, #155 ) ;
#283 = DIRECTION ( 'NONE',  ( -1.224646799147353700E-16, -0.0000000000000000000, -1.000000000000000000 ) ) ;
#284 = LENGTH_MEASURE_WITH_UNIT ( LENGTH_MEASURE( 0.02539999999999999897 ), #222 );
#285 = ORIENTED_EDGE ( 'NONE', *, *, #139, .T. ) ;
#286 = DIRECTION ( 'NONE',  ( -1.224646799147353700E-16, -0.0000000000000000000, -1.000000000000000000 ) ) ;
#287 = AXIS2_PLACEMENT_3D ( 'NONE', #96, #95, #257 ) ;
#288 =( NAMED_UNIT ( * ) SI_UNIT ( $, .STERADIAN. ) SOLID_ANGLE_UNIT ( ) );
#289 = VECTOR ( 'NONE', #235, 39.37007874015747433 ) ;
#290 = DIRECTION ( 'NONE',  ( -1.224646799147353700E-16, -0.0000000000000000000, -1.000000000000000000 ) ) ;
#291 = AXIS2_PLACEMENT_3D ( 'NONE', #281, #113, #93 ) ;
#292 = ORIENTED_EDGE ( 'NONE', *, *, #92, .F. ) ;
#293 =( NAMED_UNIT ( * ) SI_UNIT ( $, .STERADIAN. ) SOLID_ANGLE_UNIT ( ) );
#294 = ADVANCED_FACE ( 'NONE', ( #127 ), #72, .T. ) ;
#295 = EDGE_LOOP ( 'NONE', ( #185, #267, #265, #228 ) ) ;
#296 = CARTESIAN_POINT ( 'NONE',  ( 0.0000000000000000000, 0.0000000000000000000, 0.0000000000000000000 ) ) ;
#297 = DIRECTION ( 'NONE',  ( 0.0000000000000000000, 0.0000000000000000000, -1.000000000000000000 ) ) ;
#298 = DIRECTION ( 'NONE',  ( 1.000000000000000000, 0.0000000000000000000, 0.0000000000000000000 ) ) ;
#299 = CARTESIAN_POINT ( 'NONE',  ( 0.06250000000000008327, 7.654042494670966789E-18, 0.4637379795033760299 ) ) ;
ENDSEC;
END-ISO-10303-21;
