ISO-10303-21;
HEADER;
FILE_DESCRIPTION (( 'STEP AP214' ),
    '1' );
FILE_NAME ('82393.STEP',
    '2023-06-23T05:36:08',
    ( '' ),
    ( '' ),
    'SwSTEP 2.0',
    'SolidWorks 2023',
    '' );
FILE_SCHEMA (( 'AUTOMOTIVE_DESIGN' ));
ENDSEC;

DATA;
#1 = SURFACE_STYLE_FILL_AREA ( #265 ) ;
#2 =( GEOMETRIC_REPRESENTATION_CONTEXT ( 3 ) GLOBAL_UNCERTAINTY_ASSIGNED_CONTEXT ( ( #12 ) ) GLOBAL_UNIT_ASSIGNED_CONTEXT ( ( #259, #59, #135 ) ) REPRESENTATION_CONTEXT ( 'NONE', 'WORKASPACE' ) );
#3 = ORIENTED_EDGE ( 'NONE', *, *, #196, .T. ) ;
#4 = ORIENTED_EDGE ( 'NONE', *, *, #248, .F. ) ;
#5 = FILL_AREA_STYLE_COLOUR ( '', #278 ) ;
#6 =( NAMED_UNIT ( * ) SI_UNIT ( $, .STERADIAN. ) SOLID_ANGLE_UNIT ( ) );
#7 = VERTEX_POINT ( 'NONE', #37 ) ;
#8 = UNCERTAINTY_MEASURE_WITH_UNIT (LENGTH_MEASURE( 1.000000000000000082E-05 ), #95, 'distance_accuracy_value', 'NONE');
#9 = AXIS2_PLACEMENT_3D ( 'NONE', #294, #46, #119 ) ;
#10 = CARTESIAN_POINT ( 'NONE',  ( -0.1562500000000001110, 3.000000000000000444, 0.000000000000000000 ) ) ;
#11 = FILL_AREA_STYLE ('',( #157 ) ) ;
#12 = UNCERTAINTY_MEASURE_WITH_UNIT (LENGTH_MEASURE( 1.000000000000000082E-05 ), #259, 'distance_accuracy_value', 'NONE');
#13 = FACE_OUTER_BOUND ( 'NONE', #108, .T. ) ;
#14 = DIRECTION ( 'NONE',  ( -0.000000000000000000, -1.000000000000000000, -0.000000000000000000 ) ) ;
#15 = AXIS2_PLACEMENT_3D ( 'NONE', #176, #269, #225 ) ;
#16 =( CONVERSION_BASED_UNIT ( 'INCH', #236 ) LENGTH_UNIT ( ) NAMED_UNIT ( #237 ) );
#17 = CARTESIAN_POINT ( 'NONE',  ( -6.123233995736772199E-17, 3.000000000000000444, 0.000000000000000000 ) ) ;
#18 = LENGTH_MEASURE_WITH_UNIT ( LENGTH_MEASURE( 0.02539999999999999897 ), #47 );
#19 =( CONVERSION_BASED_UNIT ( 'INCH', #275 ) LENGTH_UNIT ( ) NAMED_UNIT ( #168 ) );
#20 = DIRECTION ( 'NONE',  ( 0.000000000000000000, -0.000000000000000000, 1.000000000000000000 ) ) ;
#21 = PLANE ( 'NONE',  #9 ) ;
#22 = EDGE_CURVE ( 'NONE', #122, #7, #63, .T. ) ;
#23 = DIRECTION ( 'NONE',  ( -0.000000000000000000, -1.000000000000000000, -0.000000000000000000 ) ) ;
#24 = ORIENTED_EDGE ( 'NONE', *, *, #287, .T. ) ;
#25 = PLANE ( 'NONE',  #205 ) ;
#26 = ORIENTED_EDGE ( 'NONE', *, *, #220, .F. ) ;
#27 =( GEOMETRIC_REPRESENTATION_CONTEXT ( 3 ) GLOBAL_UNCERTAINTY_ASSIGNED_CONTEXT ( ( #222 ) ) GLOBAL_UNIT_ASSIGNED_CONTEXT ( ( #254, #166, #195 ) ) REPRESENTATION_CONTEXT ( 'NONE', 'WORKASPACE' ) );
#28 = LENGTH_MEASURE_WITH_UNIT ( LENGTH_MEASURE( 0.02539999999999999897 ), #204 );
#29 = FACE_OUTER_BOUND ( 'NONE', #187, .T. ) ;
#30 = LENGTH_MEASURE_WITH_UNIT ( LENGTH_MEASURE( 0.02539999999999999897 ), #309 );
#31 = VERTEX_POINT ( 'NONE', #231 ) ;
#32 = PRESENTATION_LAYER_ASSIGNMENT (  '', '', ( #234 ) ) ;
#33 = PRESENTATION_STYLE_ASSIGNMENT (( #249 ) ) ;
#34 = APPLICATION_PROTOCOL_DEFINITION ( 'draft international standard', 'automotive_design', 1998, #306 ) ;
#35 = LINE ( 'NONE', #62, #94 ) ;
#36 = CARTESIAN_POINT ( 'NONE',  ( -6.123233995736772199E-17, 3.000000000000000444, 0.000000000000000000 ) ) ;
#37 = CARTESIAN_POINT ( 'NONE',  ( 0.000000000000000000, 0.000000000000000000, -0.1562500000000000000 ) ) ;
#38 = SURFACE_STYLE_FILL_AREA ( #258 ) ;
#39 = MECHANICAL_DESIGN_GEOMETRIC_PRESENTATION_REPRESENTATION (  '', ( #99 ), #239 ) ;
#40 = AXIS2_PLACEMENT_3D ( 'NONE', #208, #193, #165 ) ;
#41 = FACE_OUTER_BOUND ( 'NONE', #178, .T. ) ;
#42 = EDGE_CURVE ( 'NONE', #76, #203, #35, .T. ) ;
#43 = CLOSED_SHELL ( 'NONE', ( #173, #142, #243, #264 ) ) ;
#44 = CIRCLE ( 'NONE', #185, 0.1562500000000000000 ) ;
#45 = MANIFOLD_SOLID_BREP ( 'Revolve - Tool Body (Straight Shanked)', #49 ) ;
#46 = DIRECTION ( 'NONE',  ( -3.498990854706726443E-17, 1.000000000000000000, 0.000000000000000000 ) ) ;
#47 =( LENGTH_UNIT ( ) NAMED_UNIT ( * ) SI_UNIT ( $, .METRE. ) );
#48 =( LENGTH_UNIT ( ) NAMED_UNIT ( * ) SI_UNIT ( $, .METRE. ) );
#49 = CLOSED_SHELL ( 'NONE', ( #280, #103, #194, #304 ) ) ;
#50 = AXIS2_PLACEMENT_3D ( 'NONE', #232, #66, #160 ) ;
#51 = CARTESIAN_POINT ( 'NONE',  ( -0.1562500000000000000, 1.250000000000000000, 0.000000000000000000 ) ) ;
#52 = DIRECTION ( 'NONE',  ( 3.498990854706726443E-17, -1.000000000000000000, 0.000000000000000000 ) ) ;
#53 = ORIENTED_EDGE ( 'NONE', *, *, #77, .T. ) ;
#54 = STYLED_ITEM ( 'NONE', ( #182 ), #256 ) ;
#55 = UNCERTAINTY_MEASURE_WITH_UNIT (LENGTH_MEASURE( 1.000000000000000082E-05 ), #16, 'distance_accuracy_value', 'NONE');
#56 = UNCERTAINTY_MEASURE_WITH_UNIT (LENGTH_MEASURE( 1.000000000000000082E-05 ), #180, 'distance_accuracy_value', 'NONE');
#57 = ORIENTED_EDGE ( 'NONE', *, *, #42, .F. ) ;
#58 = CARTESIAN_POINT ( 'NONE',  ( -6.123233995736772199E-17, 3.000000000000000444, 0.000000000000000000 ) ) ;
#59 =( NAMED_UNIT ( * ) PLANE_ANGLE_UNIT ( ) SI_UNIT ( $, .RADIAN. ) );
#60 = FILL_AREA_STYLE ('',( #5 ) ) ;
#61 = PLANE ( 'NONE',  #106 ) ;
#62 = CARTESIAN_POINT ( 'NONE',  ( 0.1562499999999999722, 3.000000000000000444, 1.913510623667739771E-17 ) ) ;
#63 = CIRCLE ( 'NONE', #227, 0.1562500000000000000 ) ;
#64 = AXIS2_PLACEMENT_3D ( 'NONE', #71, #305, #20 ) ;
#65 = SURFACE_SIDE_STYLE ('',( #279 ) ) ;
#66 = DIRECTION ( 'NONE',  ( -0.000000000000000000, -1.000000000000000000, -0.000000000000000000 ) ) ;
#67 =( NAMED_UNIT ( * ) SI_UNIT ( $, .STERADIAN. ) SOLID_ANGLE_UNIT ( ) );
#68 = VERTEX_POINT ( 'NONE', #51 ) ;
#69 = CARTESIAN_POINT ( 'NONE',  ( 0.000000000000000000, 0.000000000000000000, 0.000000000000000000 ) ) ;
#70 = COLOUR_RGB ( '',1.000000000000000000, 0.000000000000000000, 0.000000000000000000 ) ;
#71 = CARTESIAN_POINT ( 'NONE',  ( 0.000000000000000000, 1.250000000000000000, 0.000000000000000000 ) ) ;
#72 = ORIENTED_EDGE ( 'NONE', *, *, #196, .F. ) ;
#73 = DIRECTION ( 'NONE',  ( -3.498990854706726443E-17, 1.000000000000000000, -0.000000000000000000 ) ) ;
#74 = PRESENTATION_LAYER_ASSIGNMENT (  '', '', ( #260 ) ) ;
#75 =( GEOMETRIC_REPRESENTATION_CONTEXT ( 3 ) GLOBAL_UNCERTAINTY_ASSIGNED_CONTEXT ( ( #96 ) ) GLOBAL_UNIT_ASSIGNED_CONTEXT ( ( #19, #255, #139 ) ) REPRESENTATION_CONTEXT ( 'NONE', 'WORKASPACE' ) );
#76 = VERTEX_POINT ( 'NONE', #301 ) ;
#77 = EDGE_CURVE ( 'NONE', #80, #31, #115, .T. ) ;
#78 = CARTESIAN_POINT ( 'NONE',  ( 0.000000000000000000, 0.000000000000000000, -0.1562500000000000000 ) ) ;
#79 = LINE ( 'NONE', #98, #272 ) ;
#80 = VERTEX_POINT ( 'NONE', #92 ) ;
#81 = SURFACE_STYLE_FILL_AREA ( #60 ) ;
#82 = PRESENTATION_STYLE_ASSIGNMENT (( #104 ) ) ;
#83 = SURFACE_SIDE_STYLE ('',( #38 ) ) ;
#84 =( NAMED_UNIT ( * ) SI_UNIT ( $, .STERADIAN. ) SOLID_ANGLE_UNIT ( ) );
#85 = DIRECTION ( 'NONE',  ( -0.000000000000000000, -1.000000000000000000, -0.000000000000000000 ) ) ;
#86 = ORIENTED_EDGE ( 'NONE', *, *, #22, .F. ) ;
#87 = SURFACE_STYLE_USAGE ( .BOTH. , #109 ) ;
#88 = FILL_AREA_STYLE_COLOUR ( '', #114 ) ;
#89 = AXIS2_PLACEMENT_3D ( 'NONE', #36, #273, #202 ) ;
#90 = PLANE ( 'NONE',  #64 ) ;
#91 = DIRECTION ( 'NONE',  ( 0.000000000000000000, -1.000000000000000000, -0.000000000000000000 ) ) ;
#92 = CARTESIAN_POINT ( 'NONE',  ( 0.000000000000000000, 1.250000000000000000, -0.1562500000000000000 ) ) ;
#93 = ORIENTED_EDGE ( 'NONE', *, *, #113, .F. ) ;
#94 = VECTOR ( 'NONE', #133, 39.37007874015748143 ) ;
#95 =( CONVERSION_BASED_UNIT ( 'INCH', #18 ) LENGTH_UNIT ( ) NAMED_UNIT ( #144 ) );
#96 = UNCERTAINTY_MEASURE_WITH_UNIT (LENGTH_MEASURE( 1.000000000000000082E-05 ), #19, 'distance_accuracy_value', 'NONE');
#97 = ADVANCED_BREP_SHAPE_REPRESENTATION ( '82393', ( #256, #45, #219 ), #75 ) ;
#98 = CARTESIAN_POINT ( 'NONE',  ( 1.913510623667739463E-17, 0.000000000000000000, 0.1562500000000000000 ) ) ;
#99 = STYLED_ITEM ( 'NONE', ( #33 ), #264 ) ;
#100 = DIRECTION ( 'NONE',  ( -0.000000000000000000, -1.000000000000000000, -0.000000000000000000 ) ) ;
#101 = DIMENSIONAL_EXPONENTS ( 1.000000000000000000, 0.000000000000000000, 0.000000000000000000, 0.000000000000000000, 0.000000000000000000, 0.000000000000000000, 0.000000000000000000 ) ;
#103 = ADVANCED_FACE ( 'NONE', ( #262 ), #21, .F. ) ;
#102 = CIRCLE ( 'NONE', #147, 0.1562500000000000833 ) ;
#104 = SURFACE_STYLE_USAGE ( .BOTH. , #240 ) ;
#105 = SURFACE_SIDE_STYLE ('',( #81 ) ) ;
#106 = AXIS2_PLACEMENT_3D ( 'NONE', #69, #91, #190 ) ;
#107 = DIRECTION ( 'NONE',  ( -3.498990854706726443E-17, 1.000000000000000000, -0.000000000000000000 ) ) ;
#108 = EDGE_LOOP ( 'NONE', ( #266, #189 ) ) ;
#109 = SURFACE_SIDE_STYLE ('',( #300 ) ) ;
#110 =( GEOMETRIC_REPRESENTATION_CONTEXT ( 3 ) GLOBAL_UNCERTAINTY_ASSIGNED_CONTEXT ( ( #247 ) ) GLOBAL_UNIT_ASSIGNED_CONTEXT ( ( #296, #134, #6 ) ) REPRESENTATION_CONTEXT ( 'NONE', 'WORKASPACE' ) );
#111 = CARTESIAN_POINT ( 'NONE',  ( 0.000000000000000000, 1.250000000000000000, 0.000000000000000000 ) ) ;
#112 = DIRECTION ( 'NONE',  ( -1.000000000000000000, 0.000000000000000000, 0.000000000000000000 ) ) ;
#113 = EDGE_CURVE ( 'NONE', #7, #122, #295, .T. ) ;
#114 = COLOUR_RGB ( '',0.7921568627450980005, 0.8196078431372548767, 0.9333333333333333481 ) ;
#115 = CIRCLE ( 'NONE', #251, 0.1562500000000000000 ) ;
#116 = PRODUCT_DEFINITION_CONTEXT ( 'detailed design', #192, 'design' ) ;
#117 = AXIS2_PLACEMENT_3D ( 'NONE', #17, #73, #112 ) ;
#118 = SURFACE_STYLE_USAGE ( .BOTH. , #65 ) ;
#119 = DIRECTION ( 'NONE',  ( -1.000000000000000000, -3.498990854706726443E-17, 0.000000000000000000 ) ) ;
#120 = MECHANICAL_DESIGN_GEOMETRIC_PRESENTATION_REPRESENTATION (  '', ( #145 ), #2 ) ;
#121 = ORIENTED_EDGE ( 'NONE', *, *, #159, .F. ) ;
#122 = VERTEX_POINT ( 'NONE', #149 ) ;
#123 = CARTESIAN_POINT ( 'NONE',  ( 0.1562500000000000000, 3.000000000000000444, 0.000000000000000000 ) ) ;
#124 = FACE_OUTER_BOUND ( 'NONE', #175, .T. ) ;
#125 = SURFACE_STYLE_FILL_AREA ( #216 ) ;
#126 = VECTOR ( 'NONE', #221, 39.37007874015748143 ) ;
#127 = FACE_OUTER_BOUND ( 'NONE', #161, .T. ) ;
#128 = CARTESIAN_POINT ( 'NONE',  ( 0.1562500000000000000, 3.000000000000000444, 1.913510623667739771E-17 ) ) ;
#129 = VERTEX_POINT ( 'NONE', #283 ) ;
#130 = LINE ( 'NONE', #10, #267 ) ;
#131 = MECHANICAL_DESIGN_GEOMETRIC_PRESENTATION_REPRESENTATION (  '', ( #54 ), #210 ) ;
#132 = DIRECTION ( 'NONE',  ( -1.000000000000000000, 0.000000000000000000, 0.000000000000000000 ) ) ;
#133 = DIRECTION ( 'NONE',  ( -3.498990854706726443E-17, 1.000000000000000000, -0.000000000000000000 ) ) ;
#134 =( NAMED_UNIT ( * ) PLANE_ANGLE_UNIT ( ) SI_UNIT ( $, .RADIAN. ) );
#135 =( NAMED_UNIT ( * ) SI_UNIT ( $, .STERADIAN. ) SOLID_ANGLE_UNIT ( ) );
#136 = DIRECTION ( 'NONE',  ( 1.000000000000000000, 0.000000000000000000, 0.000000000000000000 ) ) ;
#137 = EDGE_CURVE ( 'NONE', #31, #80, #308, .T. ) ;
#138 = FILL_AREA_STYLE_COLOUR ( '', #171 ) ;
#139 =( NAMED_UNIT ( * ) SI_UNIT ( $, .STERADIAN. ) SOLID_ANGLE_UNIT ( ) );
#140 = PRESENTATION_LAYER_ASSIGNMENT (  '', '', ( #145 ) ) ;
#141 = APPLICATION_PROTOCOL_DEFINITION ( 'draft international standard', 'automotive_design', 1998, #192 ) ;
#142 = ADVANCED_FACE ( 'NONE', ( #13 ), #90, .T. ) ;
#143 = PRESENTATION_STYLE_ASSIGNMENT (( #118 ) ) ;
#144 = DIMENSIONAL_EXPONENTS ( 1.000000000000000000, 0.000000000000000000, 0.000000000000000000, 0.000000000000000000, 0.000000000000000000, 0.000000000000000000, 0.000000000000000000 ) ;
#145 = STYLED_ITEM ( 'NONE', ( #299 ), #243 ) ;
#146 = PRODUCT_DEFINITION ( 'UNKNOWN', '', #288, #116 ) ;
#147 = AXIS2_PLACEMENT_3D ( 'NONE', #58, #177, #153 ) ;
#148 = ORIENTED_EDGE ( 'NONE', *, *, #287, .F. ) ;
#149 = CARTESIAN_POINT ( 'NONE',  ( 1.913510623667739463E-17, 0.000000000000000000, 0.1562500000000000000 ) ) ;
#150 = CYLINDRICAL_SURFACE ( 'NONE', #89, 0.1562500000000000278 ) ;
#151 = SURFACE_STYLE_USAGE ( .BOTH. , #197 ) ;
#152 = ORIENTED_EDGE ( 'NONE', *, *, #248, .T. ) ;
#153 = DIRECTION ( 'NONE',  ( -1.000000000000000000, 0.000000000000000000, 0.000000000000000000 ) ) ;
#154 = CARTESIAN_POINT ( 'NONE',  ( 0.000000000000000000, 0.000000000000000000, 0.000000000000000000 ) ) ;
#155 = PRESENTATION_STYLE_ASSIGNMENT (( #151 ) ) ;
#156 = ORIENTED_EDGE ( 'NONE', *, *, #42, .T. ) ;
#157 = FILL_AREA_STYLE_COLOUR ( '', #298 ) ;
#158 = AXIS2_PLACEMENT_3D ( 'NONE', #212, #23, #207 ) ;
#159 = EDGE_CURVE ( 'NONE', #31, #122, #79, .T. ) ;
#160 = DIRECTION ( 'NONE',  ( 0.000000000000000000, 0.000000000000000000, -1.000000000000000000 ) ) ;
#161 = EDGE_LOOP ( 'NONE', ( #57, #282, #270, #191 ) ) ;
#162 = LENGTH_MEASURE_WITH_UNIT ( LENGTH_MEASURE( 0.02539999999999999897 ), #48 );
#163 = LENGTH_MEASURE_WITH_UNIT ( LENGTH_MEASURE( 0.02539999999999999897 ), #284 );
#164 = AXIS2_PLACEMENT_3D ( 'NONE', #274, #14, #252 ) ;
#165 = DIRECTION ( 'NONE',  ( -1.000000000000000000, 0.000000000000000000, 0.000000000000000000 ) ) ;
#166 =( NAMED_UNIT ( * ) PLANE_ANGLE_UNIT ( ) SI_UNIT ( $, .RADIAN. ) );
#167 =( LENGTH_UNIT ( ) NAMED_UNIT ( * ) SI_UNIT ( $, .METRE. ) );
#168 = DIMENSIONAL_EXPONENTS ( 1.000000000000000000, 0.000000000000000000, 0.000000000000000000, 0.000000000000000000, 0.000000000000000000, 0.000000000000000000, 0.000000000000000000 ) ;
#169 = PRODUCT_DEFINITION_SHAPE ( 'NONE', 'NONE',  #146 ) ;
#170 =( NAMED_UNIT ( * ) PLANE_ANGLE_UNIT ( ) SI_UNIT ( $, .RADIAN. ) );
#171 = COLOUR_RGB ( '',1.000000000000000000, 0.000000000000000000, 0.000000000000000000 ) ;
#172 = EDGE_LOOP ( 'NONE', ( #4, #26 ) ) ;
#173 = ADVANCED_FACE ( 'NONE', ( #124 ), #215, .T. ) ;
#174 =( NAMED_UNIT ( * ) PLANE_ANGLE_UNIT ( ) SI_UNIT ( $, .RADIAN. ) );
#175 = EDGE_LOOP ( 'NONE', ( #53, #241, #93, #72 ) ) ;
#176 = CARTESIAN_POINT ( 'NONE',  ( 0.000000000000000000, 1.250000000000000000, 0.000000000000000000 ) ) ;
#177 = DIRECTION ( 'NONE',  ( -3.498990854706726443E-17, 1.000000000000000000, -0.000000000000000000 ) ) ;
#178 = EDGE_LOOP ( 'NONE', ( #152, #156, #148, #257 ) ) ;
#179 = PRESENTATION_LAYER_ASSIGNMENT (  '', '', ( #99 ) ) ;
#180 =( CONVERSION_BASED_UNIT ( 'INCH', #30 ) LENGTH_UNIT ( ) NAMED_UNIT ( #293 ) );
#181 = EDGE_LOOP ( 'NONE', ( #24, #242 ) ) ;
#182 = PRESENTATION_STYLE_ASSIGNMENT (( #87 ) ) ;
#183 = CARTESIAN_POINT ( 'NONE',  ( 0.000000000000000000, 0.000000000000000000, 0.000000000000000000 ) ) ;
#184 = FILL_AREA_STYLE ('',( #88 ) ) ;
#185 = AXIS2_PLACEMENT_3D ( 'NONE', #186, #281, #132 ) ;
#186 = CARTESIAN_POINT ( 'NONE',  ( 0.000000000000000000, 1.250000000000000000, 0.000000000000000000 ) ) ;
#187 = EDGE_LOOP ( 'NONE', ( #214, #292 ) ) ;
#188 = FILL_AREA_STYLE_COLOUR ( '', #228 ) ;
#189 = ORIENTED_EDGE ( 'NONE', *, *, #137, .F. ) ;
#190 = DIRECTION ( 'NONE',  ( 0.000000000000000000, 0.000000000000000000, -1.000000000000000000 ) ) ;
#191 = ORIENTED_EDGE ( 'NONE', *, *, #226, .F. ) ;
#192 = APPLICATION_CONTEXT ( 'automotive_design' ) ;
#193 = DIRECTION ( 'NONE',  ( -3.498990854706726443E-17, 1.000000000000000000, -0.000000000000000000 ) ) ;
#194 = ADVANCED_FACE ( 'NONE', ( #127 ), #150, .T. ) ;
#195 =( NAMED_UNIT ( * ) SI_UNIT ( $, .STERADIAN. ) SOLID_ANGLE_UNIT ( ) );
#196 = EDGE_CURVE ( 'NONE', #80, #7, #246, .T. ) ;
#197 = SURFACE_SIDE_STYLE ('',( #1 ) ) ;
#198 = FILL_AREA_STYLE_COLOUR ( '', #70 ) ;
#199 =( LENGTH_UNIT ( ) NAMED_UNIT ( * ) SI_UNIT ( $, .METRE. ) );
#200 =( NAMED_UNIT ( * ) PLANE_ANGLE_UNIT ( ) SI_UNIT ( $, .RADIAN. ) );
#201 = AXIS2_PLACEMENT_3D ( 'NONE', #154, #85, #297 ) ;
#202 = DIRECTION ( 'NONE',  ( -1.000000000000000000, 0.000000000000000000, 0.000000000000000000 ) ) ;
#203 = VERTEX_POINT ( 'NONE', #128 ) ;
#204 =( LENGTH_UNIT ( ) NAMED_UNIT ( * ) SI_UNIT ( $, .METRE. ) );
#205 = AXIS2_PLACEMENT_3D ( 'NONE', #123, #52, #217 ) ;
#206 = DIRECTION ( 'NONE',  ( 0.000000000000000000, 0.000000000000000000, 1.000000000000000000 ) ) ;
#207 = DIRECTION ( 'NONE',  ( 0.000000000000000000, 0.000000000000000000, -1.000000000000000000 ) ) ;
#208 = CARTESIAN_POINT ( 'NONE',  ( -6.123233995736772199E-17, 3.000000000000000444, 0.000000000000000000 ) ) ;
#209 = MECHANICAL_DESIGN_GEOMETRIC_PRESENTATION_REPRESENTATION (  '', ( #234 ), #27 ) ;
#210 =( GEOMETRIC_REPRESENTATION_CONTEXT ( 3 ) GLOBAL_UNCERTAINTY_ASSIGNED_CONTEXT ( ( #8 ) ) GLOBAL_UNIT_ASSIGNED_CONTEXT ( ( #95, #174, #67 ) ) REPRESENTATION_CONTEXT ( 'NONE', 'WORKASPACE' ) );
#211 = DIRECTION ( 'NONE',  ( -0.000000000000000000, -1.000000000000000000, -0.000000000000000000 ) ) ;
#212 = CARTESIAN_POINT ( 'NONE',  ( 0.000000000000000000, 0.000000000000000000, 0.000000000000000000 ) ) ;
#213 = MECHANICAL_DESIGN_GEOMETRIC_PRESENTATION_REPRESENTATION (  '', ( #260 ), #218 ) ;
#214 = ORIENTED_EDGE ( 'NONE', *, *, #113, .T. ) ;
#215 = CYLINDRICAL_SURFACE ( 'NONE', #201, 0.1562500000000000000 ) ;
#216 = FILL_AREA_STYLE ('',( #188 ) ) ;
#217 = DIRECTION ( 'NONE',  ( 1.000000000000000000, 3.498990854706726443E-17, 0.000000000000000000 ) ) ;
#218 =( GEOMETRIC_REPRESENTATION_CONTEXT ( 3 ) GLOBAL_UNCERTAINTY_ASSIGNED_CONTEXT ( ( #56 ) ) GLOBAL_UNIT_ASSIGNED_CONTEXT ( ( #180, #200, #84 ) ) REPRESENTATION_CONTEXT ( 'NONE', 'WORKASPACE' ) );
#219 = AXIS2_PLACEMENT_3D ( 'NONE', #183, #206, #136 ) ;
#220 = EDGE_CURVE ( 'NONE', #76, #68, #235, .T. ) ;
#221 = DIRECTION ( 'NONE',  ( -0.000000000000000000, -1.000000000000000000, -0.000000000000000000 ) ) ;
#222 = UNCERTAINTY_MEASURE_WITH_UNIT (LENGTH_MEASURE( 1.000000000000000082E-05 ), #254, 'distance_accuracy_value', 'NONE');
#223 = FACE_OUTER_BOUND ( 'NONE', #224, .T. ) ;
#224 = EDGE_LOOP ( 'NONE', ( #121, #271, #3, #86 ) ) ;
#225 = DIRECTION ( 'NONE',  ( -1.000000000000000000, 0.000000000000000000, 0.000000000000000000 ) ) ;
#226 = EDGE_CURVE ( 'NONE', #203, #129, #102, .T. ) ;
#227 = AXIS2_PLACEMENT_3D ( 'NONE', #263, #276, #229 ) ;
#228 = COLOUR_RGB ( '',1.000000000000000000, 0.000000000000000000, 0.000000000000000000 ) ;
#229 = DIRECTION ( 'NONE',  ( 0.000000000000000000, 0.000000000000000000, -1.000000000000000000 ) ) ;
#230 = PRODUCT_CONTEXT ( 'NONE', #306, 'mechanical' ) ;
#231 = CARTESIAN_POINT ( 'NONE',  ( 1.913510623667739463E-17, 1.250000000000000000, 0.1562500000000000000 ) ) ;
#232 = CARTESIAN_POINT ( 'NONE',  ( 0.000000000000000000, 1.250000000000000000, 0.000000000000000000 ) ) ;
#233 = CYLINDRICAL_SURFACE ( 'NONE', #117, 0.1562500000000000278 ) ;
#234 = STYLED_ITEM ( 'NONE', ( #143 ), #45 ) ;
#235 = CIRCLE ( 'NONE', #15, 0.1562500000000000000 ) ;
#236 = LENGTH_MEASURE_WITH_UNIT ( LENGTH_MEASURE( 0.02539999999999999897 ), #167 );
#237 = DIMENSIONAL_EXPONENTS ( 1.000000000000000000, 0.000000000000000000, 0.000000000000000000, 0.000000000000000000, 0.000000000000000000, 0.000000000000000000, 0.000000000000000000 ) ;
#238 = PRESENTATION_LAYER_ASSIGNMENT (  '', '', ( #54 ) ) ;
#239 =( GEOMETRIC_REPRESENTATION_CONTEXT ( 3 ) GLOBAL_UNCERTAINTY_ASSIGNED_CONTEXT ( ( #55 ) ) GLOBAL_UNIT_ASSIGNED_CONTEXT ( ( #16, #170, #289 ) ) REPRESENTATION_CONTEXT ( 'NONE', 'WORKASPACE' ) );
#240 = SURFACE_SIDE_STYLE ('',( #125 ) ) ;
#241 = ORIENTED_EDGE ( 'NONE', *, *, #159, .T. ) ;
#242 = ORIENTED_EDGE ( 'NONE', *, *, #226, .T. ) ;
#243 = ADVANCED_FACE ( 'NONE', ( #223 ), #277, .T. ) ;
#244 = DIMENSIONAL_EXPONENTS ( 1.000000000000000000, 0.000000000000000000, 0.000000000000000000, 0.000000000000000000, 0.000000000000000000, 0.000000000000000000, 0.000000000000000000 ) ;
#245 = MECHANICAL_DESIGN_GEOMETRIC_PRESENTATION_REPRESENTATION (  '', ( #286 ), #110 ) ;
#246 = LINE ( 'NONE', #78, #126 ) ;
#247 = UNCERTAINTY_MEASURE_WITH_UNIT (LENGTH_MEASURE( 1.000000000000000082E-05 ), #296, 'distance_accuracy_value', 'NONE');
#248 = EDGE_CURVE ( 'NONE', #68, #76, #44, .T. ) ;
#249 = SURFACE_STYLE_USAGE ( .BOTH. , #83 ) ;
#250 = SURFACE_STYLE_USAGE ( .BOTH. , #105 ) ;
#251 = AXIS2_PLACEMENT_3D ( 'NONE', #111, #211, #307 ) ;
#252 = DIRECTION ( 'NONE',  ( 0.000000000000000000, 0.000000000000000000, -1.000000000000000000 ) ) ;
#253 = EDGE_CURVE ( 'NONE', #68, #129, #130, .T. ) ;
#254 =( CONVERSION_BASED_UNIT ( 'INCH', #162 ) LENGTH_UNIT ( ) NAMED_UNIT ( #101 ) );
#255 =( NAMED_UNIT ( * ) PLANE_ANGLE_UNIT ( ) SI_UNIT ( $, .RADIAN. ) );
#256 = MANIFOLD_SOLID_BREP ( 'Revolve - Cutting Edge', #43 ) ;
#257 = ORIENTED_EDGE ( 'NONE', *, *, #253, .F. ) ;
#258 = FILL_AREA_STYLE ('',( #138 ) ) ;
#259 =( CONVERSION_BASED_UNIT ( 'INCH', #163 ) LENGTH_UNIT ( ) NAMED_UNIT ( #290 ) );
#260 = STYLED_ITEM ( 'NONE', ( #82 ), #142 ) ;
#261 = CIRCLE ( 'NONE', #40, 0.1562500000000000833 ) ;
#262 = FACE_OUTER_BOUND ( 'NONE', #172, .T. ) ;
#263 = CARTESIAN_POINT ( 'NONE',  ( 0.000000000000000000, 0.000000000000000000, 0.000000000000000000 ) ) ;
#264 = ADVANCED_FACE ( 'NONE', ( #29 ), #61, .T. ) ;
#265 = FILL_AREA_STYLE ('',( #198 ) ) ;
#266 = ORIENTED_EDGE ( 'NONE', *, *, #77, .F. ) ;
#267 = VECTOR ( 'NONE', #107, 39.37007874015748143 ) ;
#268 = FACE_OUTER_BOUND ( 'NONE', #181, .T. ) ;
#269 = DIRECTION ( 'NONE',  ( -3.498990854706726443E-17, 1.000000000000000000, -0.000000000000000000 ) ) ;
#270 = ORIENTED_EDGE ( 'NONE', *, *, #253, .T. ) ;
#271 = ORIENTED_EDGE ( 'NONE', *, *, #137, .T. ) ;
#272 = VECTOR ( 'NONE', #100, 39.37007874015748143 ) ;
#273 = DIRECTION ( 'NONE',  ( -3.498990854706726443E-17, 1.000000000000000000, -0.000000000000000000 ) ) ;
#274 = CARTESIAN_POINT ( 'NONE',  ( 0.000000000000000000, 0.000000000000000000, 0.000000000000000000 ) ) ;
#275 = LENGTH_MEASURE_WITH_UNIT ( LENGTH_MEASURE( 0.02539999999999999897 ), #199 );
#276 = DIRECTION ( 'NONE',  ( -0.000000000000000000, -1.000000000000000000, -0.000000000000000000 ) ) ;
#277 = CYLINDRICAL_SURFACE ( 'NONE', #164, 0.1562500000000000000 ) ;
#278 = COLOUR_RGB ( '',1.000000000000000000, 0.000000000000000000, 0.000000000000000000 ) ;
#279 = SURFACE_STYLE_FILL_AREA ( #184 ) ;
#280 = ADVANCED_FACE ( 'NONE', ( #41 ), #233, .T. ) ;
#281 = DIRECTION ( 'NONE',  ( -3.498990854706726443E-17, 1.000000000000000000, -0.000000000000000000 ) ) ;
#282 = ORIENTED_EDGE ( 'NONE', *, *, #220, .T. ) ;
#283 = CARTESIAN_POINT ( 'NONE',  ( -0.1562500000000001388, 3.000000000000000444, 0.000000000000000000 ) ) ;
#284 =( LENGTH_UNIT ( ) NAMED_UNIT ( * ) SI_UNIT ( $, .METRE. ) );
#285 = PRODUCT ( '82393', '82393', '', ( #230 ) ) ;
#287 = EDGE_CURVE ( 'NONE', #129, #203, #261, .T. ) ;
#286 = STYLED_ITEM ( 'NONE', ( #155 ), #173 ) ;
#288 = PRODUCT_DEFINITION_FORMATION_WITH_SPECIFIED_SOURCE ( 'ANY', '', #285, .NOT_KNOWN. ) ;
#289 =( NAMED_UNIT ( * ) SI_UNIT ( $, .STERADIAN. ) SOLID_ANGLE_UNIT ( ) );
#290 = DIMENSIONAL_EXPONENTS ( 1.000000000000000000, 0.000000000000000000, 0.000000000000000000, 0.000000000000000000, 0.000000000000000000, 0.000000000000000000, 0.000000000000000000 ) ;
#291 = PRODUCT_RELATED_PRODUCT_CATEGORY ( 'part', '', ( #285 ) ) ;
#292 = ORIENTED_EDGE ( 'NONE', *, *, #22, .T. ) ;
#293 = DIMENSIONAL_EXPONENTS ( 1.000000000000000000, 0.000000000000000000, 0.000000000000000000, 0.000000000000000000, 0.000000000000000000, 0.000000000000000000, 0.000000000000000000 ) ;
#294 = CARTESIAN_POINT ( 'NONE',  ( 9.564794532282272738E-35, 1.250000000000000000, 0.000000000000000000 ) ) ;
#295 = CIRCLE ( 'NONE', #158, 0.1562500000000000000 ) ;
#296 =( CONVERSION_BASED_UNIT ( 'INCH', #28 ) LENGTH_UNIT ( ) NAMED_UNIT ( #244 ) );
#297 = DIRECTION ( 'NONE',  ( 0.000000000000000000, 0.000000000000000000, -1.000000000000000000 ) ) ;
#298 = COLOUR_RGB ( '',0.7921568627450980005, 0.8196078431372548767, 0.9333333333333333481 ) ;
#299 = PRESENTATION_STYLE_ASSIGNMENT (( #250 ) ) ;
#300 = SURFACE_STYLE_FILL_AREA ( #11 ) ;
#301 = CARTESIAN_POINT ( 'NONE',  ( 0.1562500000000000000, 1.250000000000000000, 1.913510623667739771E-17 ) ) ;
#302 = PRESENTATION_LAYER_ASSIGNMENT (  '', '', ( #286 ) ) ;
#303 = SHAPE_DEFINITION_REPRESENTATION ( #169, #97 ) ;
#304 = ADVANCED_FACE ( 'NONE', ( #268 ), #25, .F. ) ;
#305 = DIRECTION ( 'NONE',  ( 0.000000000000000000, 1.000000000000000000, 0.000000000000000000 ) ) ;
#306 = APPLICATION_CONTEXT ( 'automotive_design' ) ;
#307 = DIRECTION ( 'NONE',  ( 0.000000000000000000, 0.000000000000000000, -1.000000000000000000 ) ) ;
#308 = CIRCLE ( 'NONE', #50, 0.1562500000000000000 ) ;
#309 =( LENGTH_UNIT ( ) NAMED_UNIT ( * ) SI_UNIT ( $, .METRE. ) );
ENDSEC;
END-ISO-10303-21;
