ISO-10303-21;
HEADER;
FILE_DESCRIPTION (( 'STEP AP214' ),
    '1' );
FILE_NAME ('03167.STEP',
    '2023-06-22T15:00:28',
    ( '' ),
    ( '' ),
    'SwSTEP 2.0',
    'SolidWorks 2023',
    '' );
FILE_SCHEMA (( 'AUTOMOTIVE_DESIGN' ));
ENDSEC;

DATA;
#1 = PRODUCT_RELATED_PRODUCT_CATEGORY ( 'part', '', ( #172 ) ) ;
#2 = FILL_AREA_STYLE_COLOUR ( '', #37 ) ;
#3 = SURFACE_STYLE_FILL_AREA ( #220 ) ;
#4 = DIRECTION ( 'NONE',  ( -0.000000000000000000, -1.000000000000000000, -0.000000000000000000 ) ) ;
#5 = FILL_AREA_STYLE_COLOUR ( '', #265 ) ;
#6 = AXIS2_PLACEMENT_3D ( 'NONE', #46, #139, #14 ) ;
#7 =( NAMED_UNIT ( * ) SI_UNIT ( $, .STERADIAN. ) SOLID_ANGLE_UNIT ( ) );
#8 = LENGTH_MEASURE_WITH_UNIT ( LENGTH_MEASURE( 0.02539999999999999897 ), #34 );
#9 = VERTEX_POINT ( 'NONE', #20 ) ;
#10 = DIRECTION ( 'NONE',  ( -0.000000000000000000, -1.000000000000000000, -0.000000000000000000 ) ) ;
#11 = ORIENTED_EDGE ( 'NONE', *, *, #266, .T. ) ;
#12 = CLOSED_SHELL ( 'NONE', ( #221, #119, #300, #294 ) ) ;
#13 = VECTOR ( 'NONE', #238, 39.37007874015748143 ) ;
#14 = DIRECTION ( 'NONE',  ( -1.000000000000000000, 0.000000000000000000, 0.000000000000000000 ) ) ;
#15 = PRESENTATION_LAYER_ASSIGNMENT (  '', '', ( #146 ) ) ;
#16 = ORIENTED_EDGE ( 'NONE', *, *, #244, .F. ) ;
#17 = UNCERTAINTY_MEASURE_WITH_UNIT (LENGTH_MEASURE( 1.000000000000000082E-05 ), #268, 'distance_accuracy_value', 'NONE');
#18 = EDGE_CURVE ( 'NONE', #148, #98, #225, .T. ) ;
#19 =( NAMED_UNIT ( * ) SI_UNIT ( $, .STERADIAN. ) SOLID_ANGLE_UNIT ( ) );
#20 = CARTESIAN_POINT ( 'NONE',  ( 0.1250000000000000000, 2.500000000000000000, 1.530808498934192125E-17 ) ) ;
#21 = ORIENTED_EDGE ( 'NONE', *, *, #196, .F. ) ;
#22 = SURFACE_SIDE_STYLE ('',( #211 ) ) ;
#23 = FILL_AREA_STYLE ('',( #2 ) ) ;
#24 =( NAMED_UNIT ( * ) PLANE_ANGLE_UNIT ( ) SI_UNIT ( $, .RADIAN. ) );
#25 = DIMENSIONAL_EXPONENTS ( 1.000000000000000000, 0.000000000000000000, 0.000000000000000000, 0.000000000000000000, 0.000000000000000000, 0.000000000000000000, 0.000000000000000000 ) ;
#26 = FILL_AREA_STYLE ('',( #163 ) ) ;
#27 = MANIFOLD_SOLID_BREP ( 'Revolve - Cutting Edge', #12 ) ;
#28 = APPLICATION_PROTOCOL_DEFINITION ( 'draft international standard', 'automotive_design', 1998, #49 ) ;
#29 = PLANE ( 'NONE',  #52 ) ;
#30 = MANIFOLD_SOLID_BREP ( 'Revolve - Tool Body (Straight Shanked)', #308 ) ;
#31 = UNCERTAINTY_MEASURE_WITH_UNIT (LENGTH_MEASURE( 1.000000000000000082E-05 ), #73, 'distance_accuracy_value', 'NONE');
#32 =( NAMED_UNIT ( * ) PLANE_ANGLE_UNIT ( ) SI_UNIT ( $, .RADIAN. ) );
#33 = SHAPE_DEFINITION_REPRESENTATION ( #127, #253 ) ;
#34 =( LENGTH_UNIT ( ) NAMED_UNIT ( * ) SI_UNIT ( $, .METRE. ) );
#35 = EDGE_CURVE ( 'NONE', #248, #148, #162, .T. ) ;
#36 = LENGTH_MEASURE_WITH_UNIT ( LENGTH_MEASURE( 0.02539999999999999897 ), #176 );
#37 = COLOUR_RGB ( '',1.000000000000000000, 0.000000000000000000, 0.000000000000000000 ) ;
#38 =( NAMED_UNIT ( * ) PLANE_ANGLE_UNIT ( ) SI_UNIT ( $, .RADIAN. ) );
#39 = AXIS2_PLACEMENT_3D ( 'NONE', #59, #114, #64 ) ;
#40 = FACE_OUTER_BOUND ( 'NONE', #140, .T. ) ;
#41 = DIRECTION ( 'NONE',  ( 0.000000000000000000, 0.000000000000000000, -1.000000000000000000 ) ) ;
#42 = ORIENTED_EDGE ( 'NONE', *, *, #18, .T. ) ;
#43 = CARTESIAN_POINT ( 'NONE',  ( 0.1250000000000000278, 0.7499999999999998890, 1.530808498934192125E-17 ) ) ;
#44 = EDGE_LOOP ( 'NONE', ( #104, #78, #250, #109 ) ) ;
#45 = AXIS2_PLACEMENT_3D ( 'NONE', #149, #123, #207 ) ;
#46 = CARTESIAN_POINT ( 'NONE',  ( -7.582401355855259480E-33, 0.7499999999999998890, 0.000000000000000000 ) ) ;
#47 = VERTEX_POINT ( 'NONE', #43 ) ;
#48 = CARTESIAN_POINT ( 'NONE',  ( 0.000000000000000000, 0.7500000000000001110, 0.000000000000000000 ) ) ;
#49 = APPLICATION_CONTEXT ( 'automotive_design' ) ;
#50 = CARTESIAN_POINT ( 'NONE',  ( 1.530808498934191817E-17, 0.7500000000000001110, 0.1250000000000000278 ) ) ;
#51 = CIRCLE ( 'NONE', #279, 0.1250000000000000278 ) ;
#52 = AXIS2_PLACEMENT_3D ( 'NONE', #61, #260, #130 ) ;
#53 = UNCERTAINTY_MEASURE_WITH_UNIT (LENGTH_MEASURE( 1.000000000000000082E-05 ), #102, 'distance_accuracy_value', 'NONE');
#54 = ORIENTED_EDGE ( 'NONE', *, *, #101, .T. ) ;
#55 = DIMENSIONAL_EXPONENTS ( 1.000000000000000000, 0.000000000000000000, 0.000000000000000000, 0.000000000000000000, 0.000000000000000000, 0.000000000000000000, 0.000000000000000000 ) ;
#56 = DIRECTION ( 'NONE',  ( -0.000000000000000000, -1.000000000000000000, -0.000000000000000000 ) ) ;
#57 = PLANE ( 'NONE',  #214 ) ;
#58 = PRESENTATION_LAYER_ASSIGNMENT (  '', '', ( #283 ) ) ;
#59 = CARTESIAN_POINT ( 'NONE',  ( 0.000000000000000000, 0.000000000000000000, 0.000000000000000000 ) ) ;
#60 = EDGE_CURVE ( 'NONE', #98, #148, #236, .T. ) ;
#61 = CARTESIAN_POINT ( 'NONE',  ( 0.000000000000000000, 0.000000000000000000, 0.000000000000000000 ) ) ;
#62 = VECTOR ( 'NONE', #118, 39.37007874015748143 ) ;
#63 = VERTEX_POINT ( 'NONE', #91 ) ;
#64 = DIRECTION ( 'NONE',  ( 1.000000000000000000, 0.000000000000000000, 0.000000000000000000 ) ) ;
#65 = DIRECTION ( 'NONE',  ( 1.000000000000000000, 3.498990854706722745E-17, 0.000000000000000000 ) ) ;
#66 = UNCERTAINTY_MEASURE_WITH_UNIT (LENGTH_MEASURE( 1.000000000000000082E-05 ), #193, 'distance_accuracy_value', 'NONE');
#67 = PRODUCT_CONTEXT ( 'NONE', #299, 'mechanical' ) ;
#68 =( NAMED_UNIT ( * ) SI_UNIT ( $, .STERADIAN. ) SOLID_ANGLE_UNIT ( ) );
#69 =( NAMED_UNIT ( * ) SI_UNIT ( $, .STERADIAN. ) SOLID_ANGLE_UNIT ( ) );
#70 = PRESENTATION_STYLE_ASSIGNMENT (( #263 ) ) ;
#71 = CARTESIAN_POINT ( 'NONE',  ( 0.000000000000000000, 0.7500000000000001110, -0.1250000000000000278 ) ) ;
#72 = PRESENTATION_LAYER_ASSIGNMENT (  '', '', ( #83 ) ) ;
#73 =( CONVERSION_BASED_UNIT ( 'INCH', #164 ) LENGTH_UNIT ( ) NAMED_UNIT ( #25 ) );
#74 = CYLINDRICAL_SURFACE ( 'NONE', #280, 0.1250000000000000000 ) ;
#75 =( NAMED_UNIT ( * ) SI_UNIT ( $, .STERADIAN. ) SOLID_ANGLE_UNIT ( ) );
#76 = SURFACE_STYLE_USAGE ( .BOTH. , #269 ) ;
#77 = CARTESIAN_POINT ( 'NONE',  ( -0.1250000000000000278, 0.7499999999999998890, 0.000000000000000000 ) ) ;
#78 = ORIENTED_EDGE ( 'NONE', *, *, #244, .T. ) ;
#79 = VECTOR ( 'NONE', #144, 39.37007874015748143 ) ;
#80 = DIMENSIONAL_EXPONENTS ( 1.000000000000000000, 0.000000000000000000, 0.000000000000000000, 0.000000000000000000, 0.000000000000000000, 0.000000000000000000, 0.000000000000000000 ) ;
#81 = DIMENSIONAL_EXPONENTS ( 1.000000000000000000, 0.000000000000000000, 0.000000000000000000, 0.000000000000000000, 0.000000000000000000, 0.000000000000000000, 0.000000000000000000 ) ;
#82 = FACE_OUTER_BOUND ( 'NONE', #168, .T. ) ;
#83 = STYLED_ITEM ( 'NONE', ( #240 ), #27 ) ;
#84 = FILL_AREA_STYLE ('',( #5 ) ) ;
#85 = AXIS2_PLACEMENT_3D ( 'NONE', #222, #10, #292 ) ;
#86 = CARTESIAN_POINT ( 'NONE',  ( 0.000000000000000000, 0.000000000000000000, 0.000000000000000000 ) ) ;
#87 = EDGE_LOOP ( 'NONE', ( #202, #54 ) ) ;
#88 = SURFACE_SIDE_STYLE ('',( #288 ) ) ;
#89 = LINE ( 'NONE', #289, #261 ) ;
#90 = STYLED_ITEM ( 'NONE', ( #212 ), #221 ) ;
#91 = CARTESIAN_POINT ( 'NONE',  ( -0.1250000000000001110, 2.500000000000000000, 0.000000000000000000 ) ) ;
#92 = ORIENTED_EDGE ( 'NONE', *, *, #60, .F. ) ;
#93 = EDGE_CURVE ( 'NONE', #47, #9, #179, .T. ) ;
#94 =( GEOMETRIC_REPRESENTATION_CONTEXT ( 3 ) GLOBAL_UNCERTAINTY_ASSIGNED_CONTEXT ( ( #53 ) ) GLOBAL_UNIT_ASSIGNED_CONTEXT ( ( #102, #282, #68 ) ) REPRESENTATION_CONTEXT ( 'NONE', 'WORKASPACE' ) );
#95 = DIRECTION ( 'NONE',  ( -3.498990854706722745E-17, 1.000000000000000000, -0.000000000000000000 ) ) ;
#96 = SURFACE_SIDE_STYLE ('',( #165 ) ) ;
#97 = PLANE ( 'NONE',  #120 ) ;
#98 = VERTEX_POINT ( 'NONE', #298 ) ;
#99 = PRESENTATION_STYLE_ASSIGNMENT (( #126 ) ) ;
#100 = ORIENTED_EDGE ( 'NONE', *, *, #136, .F. ) ;
#101 = EDGE_CURVE ( 'NONE', #9, #63, #302, .T. ) ;
#102 =( CONVERSION_BASED_UNIT ( 'INCH', #122 ) LENGTH_UNIT ( ) NAMED_UNIT ( #107 ) );
#103 = AXIS2_PLACEMENT_3D ( 'NONE', #159, #155, #257 ) ;
#104 = ORIENTED_EDGE ( 'NONE', *, *, #206, .T. ) ;
#105 = DIRECTION ( 'NONE',  ( 0.000000000000000000, 0.000000000000000000, -1.000000000000000000 ) ) ;
#106 = SURFACE_STYLE_USAGE ( .BOTH. , #22 ) ;
#107 = DIMENSIONAL_EXPONENTS ( 1.000000000000000000, 0.000000000000000000, 0.000000000000000000, 0.000000000000000000, 0.000000000000000000, 0.000000000000000000, 0.000000000000000000 ) ;
#108 = SURFACE_STYLE_USAGE ( .BOTH. , #131 ) ;
#109 = ORIENTED_EDGE ( 'NONE', *, *, #35, .F. ) ;
#110 = DIRECTION ( 'NONE',  ( -1.000000000000000000, 0.000000000000000000, 0.000000000000000000 ) ) ;
#111 = DIRECTION ( 'NONE',  ( -0.000000000000000000, -1.000000000000000000, -0.000000000000000000 ) ) ;
#112 = SURFACE_SIDE_STYLE ('',( #241 ) ) ;
#113 = ORIENTED_EDGE ( 'NONE', *, *, #266, .F. ) ;
#114 = DIRECTION ( 'NONE',  ( 0.000000000000000000, 0.000000000000000000, 1.000000000000000000 ) ) ;
#115 = EDGE_LOOP ( 'NONE', ( #181, #156, #301, #198 ) ) ;
#116 =( CONVERSION_BASED_UNIT ( 'INCH', #132 ) LENGTH_UNIT ( ) NAMED_UNIT ( #81 ) );
#117 = CIRCLE ( 'NONE', #161, 0.1250000000000000278 ) ;
#118 = DIRECTION ( 'NONE',  ( -3.498990854706722745E-17, 1.000000000000000000, -0.000000000000000000 ) ) ;
#119 = ADVANCED_FACE ( 'NONE', ( #40 ), #97, .T. ) ;
#120 = AXIS2_PLACEMENT_3D ( 'NONE', #180, #184, #223 ) ;
#121 = EDGE_CURVE ( 'NONE', #199, #47, #189, .T. ) ;
#122 = LENGTH_MEASURE_WITH_UNIT ( LENGTH_MEASURE( 0.02539999999999999897 ), #307 );
#123 = DIRECTION ( 'NONE',  ( -0.000000000000000000, -1.000000000000000000, -0.000000000000000000 ) ) ;
#124 = DIMENSIONAL_EXPONENTS ( 1.000000000000000000, 0.000000000000000000, 0.000000000000000000, 0.000000000000000000, 0.000000000000000000, 0.000000000000000000, 0.000000000000000000 ) ;
#125 = MECHANICAL_DESIGN_GEOMETRIC_PRESENTATION_REPRESENTATION (  '', ( #174 ), #287 ) ;
#126 = SURFACE_STYLE_USAGE ( .BOTH. , #96 ) ;
#127 = PRODUCT_DEFINITION_SHAPE ( 'NONE', 'NONE',  #239 ) ;
#128 =( NAMED_UNIT ( * ) SI_UNIT ( $, .STERADIAN. ) SOLID_ANGLE_UNIT ( ) );
#129 = FILL_AREA_STYLE_COLOUR ( '', #226 ) ;
#130 = DIRECTION ( 'NONE',  ( 0.000000000000000000, 0.000000000000000000, -1.000000000000000000 ) ) ;
#131 = SURFACE_SIDE_STYLE ('',( #3 ) ) ;
#132 = LENGTH_MEASURE_WITH_UNIT ( LENGTH_MEASURE( 0.02539999999999999897 ), #169 );
#133 =( NAMED_UNIT ( * ) PLANE_ANGLE_UNIT ( ) SI_UNIT ( $, .RADIAN. ) );
#134 = DIRECTION ( 'NONE',  ( -1.000000000000000000, 0.000000000000000000, 0.000000000000000000 ) ) ;
#135 =( NAMED_UNIT ( * ) PLANE_ANGLE_UNIT ( ) SI_UNIT ( $, .RADIAN. ) );
#136 = EDGE_CURVE ( 'NONE', #199, #63, #277, .T. ) ;
#137 = FILL_AREA_STYLE ('',( #190 ) ) ;
#138 = PRESENTATION_STYLE_ASSIGNMENT (( #197 ) ) ;
#139 = DIRECTION ( 'NONE',  ( -3.498990854706722745E-17, 1.000000000000000000, -0.000000000000000000 ) ) ;
#140 = EDGE_LOOP ( 'NONE', ( #187, #113 ) ) ;
#141 = AXIS2_PLACEMENT_3D ( 'NONE', #160, #235, #65 ) ;
#142 = FILL_AREA_STYLE_COLOUR ( '', #243 ) ;
#143 = CARTESIAN_POINT ( 'NONE',  ( -0.1250000000000001110, 2.500000000000000000, 0.000000000000000000 ) ) ;
#144 = DIRECTION ( 'NONE',  ( -3.498990854706722745E-17, 1.000000000000000000, -0.000000000000000000 ) ) ;
#145 =( GEOMETRIC_REPRESENTATION_CONTEXT ( 3 ) GLOBAL_UNCERTAINTY_ASSIGNED_CONTEXT ( ( #247 ) ) GLOBAL_UNIT_ASSIGNED_CONTEXT ( ( #116, #38, #69 ) ) REPRESENTATION_CONTEXT ( 'NONE', 'WORKASPACE' ) );
#146 = STYLED_ITEM ( 'NONE', ( #99 ), #300 ) ;
#147 = DIRECTION ( 'NONE',  ( 0.000000000000000000, 0.000000000000000000, -1.000000000000000000 ) ) ;
#148 = VERTEX_POINT ( 'NONE', #203 ) ;
#149 = CARTESIAN_POINT ( 'NONE',  ( 0.000000000000000000, 0.000000000000000000, 0.000000000000000000 ) ) ;
#150 = CARTESIAN_POINT ( 'NONE',  ( -6.123233995736766036E-17, 2.500000000000000000, 0.000000000000000000 ) ) ;
#151 = CIRCLE ( 'NONE', #171, 0.1250000000000000555 ) ;
#152 =( LENGTH_UNIT ( ) NAMED_UNIT ( * ) SI_UNIT ( $, .METRE. ) );
#153 = DIRECTION ( 'NONE',  ( -1.000000000000000000, -3.498990854706722745E-17, 0.000000000000000000 ) ) ;
#154 = CARTESIAN_POINT ( 'NONE',  ( -7.582401355855259480E-33, 0.7499999999999998890, 0.000000000000000000 ) ) ;
#155 = DIRECTION ( 'NONE',  ( -3.498990854706722745E-17, 1.000000000000000000, -0.000000000000000000 ) ) ;
#156 = ORIENTED_EDGE ( 'NONE', *, *, #271, .T. ) ;
#157 = DIRECTION ( 'NONE',  ( -3.498990854706722745E-17, 1.000000000000000000, -0.000000000000000000 ) ) ;
#158 =( NAMED_UNIT ( * ) SI_UNIT ( $, .STERADIAN. ) SOLID_ANGLE_UNIT ( ) );
#159 = CARTESIAN_POINT ( 'NONE',  ( -6.123233995736766036E-17, 2.500000000000000000, 0.000000000000000000 ) ) ;
#160 = CARTESIAN_POINT ( 'NONE',  ( 0.1249999999999999861, 2.500000000000000000, 0.000000000000000000 ) ) ;
#161 = AXIS2_PLACEMENT_3D ( 'NONE', #215, #234, #41 ) ;
#162 = LINE ( 'NONE', #200, #13 ) ;
#163 = FILL_AREA_STYLE_COLOUR ( '', #267 ) ;
#164 = LENGTH_MEASURE_WITH_UNIT ( LENGTH_MEASURE( 0.02539999999999999897 ), #290 );
#165 = SURFACE_STYLE_FILL_AREA ( #26 ) ;
#166 = DIRECTION ( 'NONE',  ( -1.000000000000000000, 0.000000000000000000, 0.000000000000000000 ) ) ;
#167 = DIRECTION ( 'NONE',  ( -1.000000000000000000, 0.000000000000000000, 0.000000000000000000 ) ) ;
#168 = EDGE_LOOP ( 'NONE', ( #227, #304 ) ) ;
#169 =( LENGTH_UNIT ( ) NAMED_UNIT ( * ) SI_UNIT ( $, .METRE. ) );
#170 = CARTESIAN_POINT ( 'NONE',  ( 0.000000000000000000, 0.000000000000000000, 0.000000000000000000 ) ) ;
#171 = AXIS2_PLACEMENT_3D ( 'NONE', #183, #276, #166 ) ;
#172 = PRODUCT ( '03167', '03167', '', ( #67 ) ) ;
#173 = FACE_OUTER_BOUND ( 'NONE', #224, .T. ) ;
#174 = STYLED_ITEM ( 'NONE', ( #175 ), #294 ) ;
#175 = PRESENTATION_STYLE_ASSIGNMENT (( #108 ) ) ;
#176 =( LENGTH_UNIT ( ) NAMED_UNIT ( * ) SI_UNIT ( $, .METRE. ) );
#177 = STYLED_ITEM ( 'NONE', ( #138 ), #30 ) ;
#178 = SURFACE_STYLE_FILL_AREA ( #137 ) ;
#179 = LINE ( 'NONE', #270, #79 ) ;
#180 = CARTESIAN_POINT ( 'NONE',  ( 0.000000000000000000, 0.7500000000000001110, 0.000000000000000000 ) ) ;
#181 = ORIENTED_EDGE ( 'NONE', *, *, #93, .F. ) ;
#182 = AXIS2_PLACEMENT_3D ( 'NONE', #150, #157, #110 ) ;
#183 = CARTESIAN_POINT ( 'NONE',  ( -6.123233995736766036E-17, 2.500000000000000000, 0.000000000000000000 ) ) ;
#184 = DIRECTION ( 'NONE',  ( 0.000000000000000000, 1.000000000000000000, 0.000000000000000000 ) ) ;
#185 = ORIENTED_EDGE ( 'NONE', *, *, #93, .T. ) ;
#186 = EDGE_LOOP ( 'NONE', ( #16, #11, #231, #92 ) ) ;
#187 = ORIENTED_EDGE ( 'NONE', *, *, #206, .F. ) ;
#188 = LENGTH_MEASURE_WITH_UNIT ( LENGTH_MEASURE( 0.02539999999999999897 ), #251 );
#189 = CIRCLE ( 'NONE', #6, 0.1250000000000000278 ) ;
#190 = FILL_AREA_STYLE_COLOUR ( '', #208 ) ;
#191 = ADVANCED_FACE ( 'NONE', ( #295 ), #245, .T. ) ;
#192 = DIMENSIONAL_EXPONENTS ( 1.000000000000000000, 0.000000000000000000, 0.000000000000000000, 0.000000000000000000, 0.000000000000000000, 0.000000000000000000, 0.000000000000000000 ) ;
#193 =( CONVERSION_BASED_UNIT ( 'INCH', #306 ) LENGTH_UNIT ( ) NAMED_UNIT ( #124 ) );
#194 = CIRCLE ( 'NONE', #201, 0.1250000000000000278 ) ;
#195 = DIRECTION ( 'NONE',  ( 0.000000000000000000, 0.000000000000000000, -1.000000000000000000 ) ) ;
#196 = EDGE_CURVE ( 'NONE', #63, #9, #151, .T. ) ;
#197 = SURFACE_STYLE_USAGE ( .BOTH. , #112 ) ;
#198 = ORIENTED_EDGE ( 'NONE', *, *, #101, .F. ) ;
#199 = VERTEX_POINT ( 'NONE', #77 ) ;
#200 = CARTESIAN_POINT ( 'NONE',  ( 0.000000000000000000, 0.000000000000000000, -0.1250000000000000000 ) ) ;
#201 = AXIS2_PLACEMENT_3D ( 'NONE', #154, #233, #134 ) ;
#202 = ORIENTED_EDGE ( 'NONE', *, *, #196, .T. ) ;
#203 = CARTESIAN_POINT ( 'NONE',  ( 0.000000000000000000, 0.000000000000000000, -0.1250000000000000000 ) ) ;
#204 = AXIS2_PLACEMENT_3D ( 'NONE', #86, #111, #195 ) ;
#205 = VERTEX_POINT ( 'NONE', #50 ) ;
#206 = EDGE_CURVE ( 'NONE', #248, #205, #51, .T. ) ;
#207 = DIRECTION ( 'NONE',  ( 0.000000000000000000, 0.000000000000000000, -1.000000000000000000 ) ) ;
#208 = COLOUR_RGB ( '',0.7921568627450980005, 0.8196078431372548767, 0.9333333333333333481 ) ;
#209 = MECHANICAL_DESIGN_GEOMETRIC_PRESENTATION_REPRESENTATION (  '', ( #283 ), #297 ) ;
#210 = PRODUCT_DEFINITION_FORMATION_WITH_SPECIFIED_SOURCE ( 'ANY', '', #172, .NOT_KNOWN. ) ;
#211 = SURFACE_STYLE_FILL_AREA ( #23 ) ;
#212 = PRESENTATION_STYLE_ASSIGNMENT (( #106 ) ) ;
#213 = FACE_OUTER_BOUND ( 'NONE', #229, .T. ) ;
#214 = AXIS2_PLACEMENT_3D ( 'NONE', #305, #232, #153 ) ;
#215 = CARTESIAN_POINT ( 'NONE',  ( 0.000000000000000000, 0.7500000000000001110, 0.000000000000000000 ) ) ;
#216 = UNCERTAINTY_MEASURE_WITH_UNIT (LENGTH_MEASURE( 1.000000000000000082E-05 ), #281, 'distance_accuracy_value', 'NONE');
#217 = ADVANCED_FACE ( 'NONE', ( #82 ), #57, .F. ) ;
#218 = MECHANICAL_DESIGN_GEOMETRIC_PRESENTATION_REPRESENTATION (  '', ( #90 ), #94 ) ;
#219 =( CONVERSION_BASED_UNIT ( 'INCH', #36 ) LENGTH_UNIT ( ) NAMED_UNIT ( #55 ) );
#220 = FILL_AREA_STYLE ('',( #129 ) ) ;
#221 = ADVANCED_FACE ( 'NONE', ( #255 ), #303, .T. ) ;
#222 = CARTESIAN_POINT ( 'NONE',  ( 0.000000000000000000, 0.000000000000000000, 0.000000000000000000 ) ) ;
#223 = DIRECTION ( 'NONE',  ( 0.000000000000000000, -0.000000000000000000, 1.000000000000000000 ) ) ;
#224 = EDGE_LOOP ( 'NONE', ( #230, #185, #21, #100 ) ) ;
#225 = CIRCLE ( 'NONE', #45, 0.1250000000000000000 ) ;
#226 = COLOUR_RGB ( '',1.000000000000000000, 0.000000000000000000, 0.000000000000000000 ) ;
#227 = ORIENTED_EDGE ( 'NONE', *, *, #121, .F. ) ;
#228 = MECHANICAL_DESIGN_GEOMETRIC_PRESENTATION_REPRESENTATION (  '', ( #83 ), #145 ) ;
#229 = EDGE_LOOP ( 'NONE', ( #42, #273 ) ) ;
#230 = ORIENTED_EDGE ( 'NONE', *, *, #121, .T. ) ;
#231 = ORIENTED_EDGE ( 'NONE', *, *, #35, .T. ) ;
#232 = DIRECTION ( 'NONE',  ( -3.498990854706722745E-17, 1.000000000000000000, 0.000000000000000000 ) ) ;
#233 = DIRECTION ( 'NONE',  ( -3.498990854706722745E-17, 1.000000000000000000, -0.000000000000000000 ) ) ;
#234 = DIRECTION ( 'NONE',  ( -0.000000000000000000, -1.000000000000000000, -0.000000000000000000 ) ) ;
#235 = DIRECTION ( 'NONE',  ( 3.498990854706722745E-17, -1.000000000000000000, 0.000000000000000000 ) ) ;
#236 = CIRCLE ( 'NONE', #85, 0.1250000000000000000 ) ;
#237 = CYLINDRICAL_SURFACE ( 'NONE', #103, 0.1250000000000000278 ) ;
#238 = DIRECTION ( 'NONE',  ( -0.000000000000000000, -1.000000000000000000, -0.000000000000000000 ) ) ;
#239 = PRODUCT_DEFINITION ( 'UNKNOWN', '', #210, #285 ) ;
#240 = PRESENTATION_STYLE_ASSIGNMENT (( #76 ) ) ;
#241 = SURFACE_STYLE_FILL_AREA ( #272 ) ;
#242 = PRESENTATION_LAYER_ASSIGNMENT (  '', '', ( #174 ) ) ;
#243 = COLOUR_RGB ( '',0.7921568627450980005, 0.8196078431372548767, 0.9333333333333333481 ) ;
#244 = EDGE_CURVE ( 'NONE', #205, #98, #89, .T. ) ;
#245 = CYLINDRICAL_SURFACE ( 'NONE', #274, 0.1250000000000000278 ) ;
#246 = DIRECTION ( 'NONE',  ( -0.000000000000000000, -1.000000000000000000, -0.000000000000000000 ) ) ;
#247 = UNCERTAINTY_MEASURE_WITH_UNIT (LENGTH_MEASURE( 1.000000000000000082E-05 ), #116, 'distance_accuracy_value', 'NONE');
#248 = VERTEX_POINT ( 'NONE', #71 ) ;
#249 = PRESENTATION_LAYER_ASSIGNMENT (  '', '', ( #90 ) ) ;
#250 = ORIENTED_EDGE ( 'NONE', *, *, #18, .F. ) ;
#251 =( LENGTH_UNIT ( ) NAMED_UNIT ( * ) SI_UNIT ( $, .METRE. ) );
#252 =( GEOMETRIC_REPRESENTATION_CONTEXT ( 3 ) GLOBAL_UNCERTAINTY_ASSIGNED_CONTEXT ( ( #31 ) ) GLOBAL_UNIT_ASSIGNED_CONTEXT ( ( #73, #135, #7 ) ) REPRESENTATION_CONTEXT ( 'NONE', 'WORKASPACE' ) );
#253 = ADVANCED_BREP_SHAPE_REPRESENTATION ( '03167', ( #27, #30, #39 ), #254 ) ;
#254 =( GEOMETRIC_REPRESENTATION_CONTEXT ( 3 ) GLOBAL_UNCERTAINTY_ASSIGNED_CONTEXT ( ( #216 ) ) GLOBAL_UNIT_ASSIGNED_CONTEXT ( ( #281, #133, #158 ) ) REPRESENTATION_CONTEXT ( 'NONE', 'WORKASPACE' ) );
#255 = FACE_OUTER_BOUND ( 'NONE', #44, .T. ) ;
#256 = ADVANCED_FACE ( 'NONE', ( #173 ), #237, .T. ) ;
#257 = DIRECTION ( 'NONE',  ( -1.000000000000000000, 0.000000000000000000, 0.000000000000000000 ) ) ;
#258 = ADVANCED_FACE ( 'NONE', ( #284 ), #259, .F. ) ;
#259 = PLANE ( 'NONE',  #141 ) ;
#260 = DIRECTION ( 'NONE',  ( 0.000000000000000000, -1.000000000000000000, -0.000000000000000000 ) ) ;
#261 = VECTOR ( 'NONE', #4, 39.37007874015748143 ) ;
#262 = APPLICATION_PROTOCOL_DEFINITION ( 'draft international standard', 'automotive_design', 1998, #299 ) ;
#263 = SURFACE_STYLE_USAGE ( .BOTH. , #88 ) ;
#264 = FACE_OUTER_BOUND ( 'NONE', #186, .T. ) ;
#265 = COLOUR_RGB ( '',1.000000000000000000, 0.000000000000000000, 0.000000000000000000 ) ;
#266 = EDGE_CURVE ( 'NONE', #205, #248, #117, .T. ) ;
#267 = COLOUR_RGB ( '',1.000000000000000000, 0.000000000000000000, 0.000000000000000000 ) ;
#268 =( CONVERSION_BASED_UNIT ( 'INCH', #8 ) LENGTH_UNIT ( ) NAMED_UNIT ( #80 ) );
#269 = SURFACE_SIDE_STYLE ('',( #178 ) ) ;
#270 = CARTESIAN_POINT ( 'NONE',  ( 0.1249999999999999584, 2.500000000000000000, 1.530808498934191817E-17 ) ) ;
#271 = EDGE_CURVE ( 'NONE', #47, #199, #194, .T. ) ;
#272 = FILL_AREA_STYLE ('',( #142 ) ) ;
#273 = ORIENTED_EDGE ( 'NONE', *, *, #60, .T. ) ;
#274 = AXIS2_PLACEMENT_3D ( 'NONE', #296, #95, #167 ) ;
#275 =( GEOMETRIC_REPRESENTATION_CONTEXT ( 3 ) GLOBAL_UNCERTAINTY_ASSIGNED_CONTEXT ( ( #66 ) ) GLOBAL_UNIT_ASSIGNED_CONTEXT ( ( #193, #24, #128 ) ) REPRESENTATION_CONTEXT ( 'NONE', 'WORKASPACE' ) );
#276 = DIRECTION ( 'NONE',  ( -3.498990854706722745E-17, 1.000000000000000000, -0.000000000000000000 ) ) ;
#277 = LINE ( 'NONE', #143, #62 ) ;
#278 = UNCERTAINTY_MEASURE_WITH_UNIT (LENGTH_MEASURE( 1.000000000000000082E-05 ), #219, 'distance_accuracy_value', 'NONE');
#279 = AXIS2_PLACEMENT_3D ( 'NONE', #48, #246, #147 ) ;
#280 = AXIS2_PLACEMENT_3D ( 'NONE', #170, #56, #105 ) ;
#281 =( CONVERSION_BASED_UNIT ( 'INCH', #188 ) LENGTH_UNIT ( ) NAMED_UNIT ( #192 ) );
#282 =( NAMED_UNIT ( * ) PLANE_ANGLE_UNIT ( ) SI_UNIT ( $, .RADIAN. ) );
#283 = STYLED_ITEM ( 'NONE', ( #70 ), #119 ) ;
#284 = FACE_OUTER_BOUND ( 'NONE', #87, .T. ) ;
#285 = PRODUCT_DEFINITION_CONTEXT ( 'detailed design', #49, 'design' ) ;
#286 = MECHANICAL_DESIGN_GEOMETRIC_PRESENTATION_REPRESENTATION (  '', ( #146 ), #275 ) ;
#287 =( GEOMETRIC_REPRESENTATION_CONTEXT ( 3 ) GLOBAL_UNCERTAINTY_ASSIGNED_CONTEXT ( ( #17 ) ) GLOBAL_UNIT_ASSIGNED_CONTEXT ( ( #268, #291, #75 ) ) REPRESENTATION_CONTEXT ( 'NONE', 'WORKASPACE' ) );
#288 = SURFACE_STYLE_FILL_AREA ( #84 ) ;
#289 = CARTESIAN_POINT ( 'NONE',  ( 1.530808498934191509E-17, 0.000000000000000000, 0.1250000000000000000 ) ) ;
#290 =( LENGTH_UNIT ( ) NAMED_UNIT ( * ) SI_UNIT ( $, .METRE. ) );
#291 =( NAMED_UNIT ( * ) PLANE_ANGLE_UNIT ( ) SI_UNIT ( $, .RADIAN. ) );
#292 = DIRECTION ( 'NONE',  ( 0.000000000000000000, 0.000000000000000000, -1.000000000000000000 ) ) ;
#293 = MECHANICAL_DESIGN_GEOMETRIC_PRESENTATION_REPRESENTATION (  '', ( #177 ), #252 ) ;
#294 = ADVANCED_FACE ( 'NONE', ( #213 ), #29, .T. ) ;
#295 = FACE_OUTER_BOUND ( 'NONE', #115, .T. ) ;
#296 = CARTESIAN_POINT ( 'NONE',  ( -6.123233995736766036E-17, 2.500000000000000000, 0.000000000000000000 ) ) ;
#297 =( GEOMETRIC_REPRESENTATION_CONTEXT ( 3 ) GLOBAL_UNCERTAINTY_ASSIGNED_CONTEXT ( ( #278 ) ) GLOBAL_UNIT_ASSIGNED_CONTEXT ( ( #219, #32, #19 ) ) REPRESENTATION_CONTEXT ( 'NONE', 'WORKASPACE' ) );
#298 = CARTESIAN_POINT ( 'NONE',  ( 1.530808498934191509E-17, 0.000000000000000000, 0.1250000000000000000 ) ) ;
#299 = APPLICATION_CONTEXT ( 'automotive_design' ) ;
#300 = ADVANCED_FACE ( 'NONE', ( #264 ), #74, .T. ) ;
#301 = ORIENTED_EDGE ( 'NONE', *, *, #136, .T. ) ;
#302 = CIRCLE ( 'NONE', #182, 0.1250000000000000555 ) ;
#303 = CYLINDRICAL_SURFACE ( 'NONE', #204, 0.1250000000000000000 ) ;
#304 = ORIENTED_EDGE ( 'NONE', *, *, #271, .F. ) ;
#305 = CARTESIAN_POINT ( 'NONE',  ( 7.651835625825803009E-35, 0.7500000000000001110, 0.000000000000000000 ) ) ;
#306 = LENGTH_MEASURE_WITH_UNIT ( LENGTH_MEASURE( 0.02539999999999999897 ), #152 );
#307 =( LENGTH_UNIT ( ) NAMED_UNIT ( * ) SI_UNIT ( $, .METRE. ) );
#308 = CLOSED_SHELL ( 'NONE', ( #256, #217, #191, #258 ) ) ;
#309 = PRESENTATION_LAYER_ASSIGNMENT (  '', '', ( #177 ) ) ;
ENDSEC;
END-ISO-10303-21;
