ISO-10303-21;
HEADER;
FILE_DESCRIPTION (( 'STEP AP214' ),
    '1' );
FILE_NAME ('59531.STEP',
    '2023-07-24T15:48:31',
    ( '' ),
    ( '' ),
    'SwSTEP 2.0',
    'SolidWorks 2023',
    '' );
FILE_SCHEMA (( 'AUTOMOTIVE_DESIGN' ));
ENDSEC;

DATA;
#1 = ORIENTED_EDGE ( 'NONE', *, *, #178, .T. ) ;
#2 = COLOUR_RGB ( '',1.000000000000000000, 0.000000000000000000, 0.000000000000000000 ) ;
#3 = ADVANCED_BREP_SHAPE_REPRESENTATION ( '59531', ( #6, #282, #265 ), #93 ) ;
#4 = VERTEX_POINT ( 'NONE', #119 ) ;
#5 = ADVANCED_FACE ( 'NONE', ( #41 ), #75, .T. ) ;
#6 = MANIFOLD_SOLID_BREP ( 'Revolve - Cutting Edge', #102 ) ;
#7 = ORIENTED_EDGE ( 'NONE', *, *, #147, .F. ) ;
#8 = AXIS2_PLACEMENT_3D ( 'NONE', #65, #150, #24 ) ;
#9 = CARTESIAN_POINT ( 'NONE',  ( 0.000000000000000000, 30.00000000000000000, 0.000000000000000000 ) ) ;
#10 = CARTESIAN_POINT ( 'NONE',  ( -1.714505518806293849E-15, 89.00000000000000000, 0.000000000000000000 ) ) ;
#11 = ORIENTED_EDGE ( 'NONE', *, *, #92, .F. ) ;
#12 = FILL_AREA_STYLE_COLOUR ( '', #114 ) ;
#13 = DIRECTION ( 'NONE',  ( 0.000000000000000000, 0.000000000000000000, -1.000000000000000000 ) ) ;
#14 =( GEOMETRIC_REPRESENTATION_CONTEXT ( 3 ) GLOBAL_UNCERTAINTY_ASSIGNED_CONTEXT ( ( #205 ) ) GLOBAL_UNIT_ASSIGNED_CONTEXT ( ( #85, #225, #196 ) ) REPRESENTATION_CONTEXT ( 'NONE', 'WORKASPACE' ) );
#15 = DIRECTION ( 'NONE',  ( -1.000000000000000000, 0.000000000000000000, 0.000000000000000000 ) ) ;
#16 = VECTOR ( 'NONE', #27, 1000.000000000000000 ) ;
#17 = CARTESIAN_POINT ( 'NONE',  ( 10.00000000000000000, 89.00000000000000000, 1.224646799147353454E-15 ) ) ;
#18 = ORIENTED_EDGE ( 'NONE', *, *, #35, .T. ) ;
#19 = CARTESIAN_POINT ( 'NONE',  ( 0.000000000000000000, 0.000000000000000000, -10.00000000000000000 ) ) ;
#20 = CARTESIAN_POINT ( 'NONE',  ( 0.000000000000000000, 0.000000000000000000, 0.000000000000000000 ) ) ;
#21 = EDGE_CURVE ( 'NONE', #4, #273, #95, .T. ) ;
#22 = CARTESIAN_POINT ( 'NONE',  ( 0.000000000000000000, 0.000000000000000000, 0.000000000000000000 ) ) ;
#23 = APPLICATION_PROTOCOL_DEFINITION ( 'draft international standard', 'automotive_design', 1998, #199 ) ;
#24 = DIRECTION ( 'NONE',  ( 0.000000000000000000, -0.000000000000000000, 1.000000000000000000 ) ) ;
#25 = UNCERTAINTY_MEASURE_WITH_UNIT (LENGTH_MEASURE( 1.000000000000000082E-05 ), #246, 'distance_accuracy_value', 'NONE');
#26 = PRODUCT_CONTEXT ( 'NONE', #199, 'mechanical' ) ;
#27 = DIRECTION ( 'NONE',  ( -2.905941557298802612E-17, 1.000000000000000000, -0.000000000000000000 ) ) ;
#28 = PRESENTATION_LAYER_ASSIGNMENT (  '', '', ( #229 ) ) ;
#29 = EDGE_CURVE ( 'NONE', #71, #273, #101, .T. ) ;
#30 = ORIENTED_EDGE ( 'NONE', *, *, #91, .F. ) ;
#31 = ADVANCED_FACE ( 'NONE', ( #200 ), #224, .F. ) ;
#32 = PRODUCT ( '59531', '59531', '', ( #26 ) ) ;
#33 = EDGE_LOOP ( 'NONE', ( #94, #104 ) ) ;
#34 = AXIS2_PLACEMENT_3D ( 'NONE', #56, #269, #105 ) ;
#35 = EDGE_CURVE ( 'NONE', #125, #71, #286, .T. ) ;
#36 = ORIENTED_EDGE ( 'NONE', *, *, #29, .T. ) ;
#37 = DIRECTION ( 'NONE',  ( -1.000000000000000000, 0.000000000000000000, 0.000000000000000000 ) ) ;
#38 = EDGE_LOOP ( 'NONE', ( #30, #59, #117, #156 ) ) ;
#39 =( GEOMETRIC_REPRESENTATION_CONTEXT ( 3 ) GLOBAL_UNCERTAINTY_ASSIGNED_CONTEXT ( ( #66 ) ) GLOBAL_UNIT_ASSIGNED_CONTEXT ( ( #128, #281, #60 ) ) REPRESENTATION_CONTEXT ( 'NONE', 'WORKASPACE' ) );
#40 =( NAMED_UNIT ( * ) PLANE_ANGLE_UNIT ( ) SI_UNIT ( $, .RADIAN. ) );
#41 = FACE_OUTER_BOUND ( 'NONE', #38, .T. ) ;
#42 =( LENGTH_UNIT ( ) NAMED_UNIT ( * ) SI_UNIT ( .MILLI., .METRE. ) );
#43 = DIRECTION ( 'NONE',  ( 0.000000000000000000, 0.000000000000000000, -1.000000000000000000 ) ) ;
#44 = CARTESIAN_POINT ( 'NONE',  ( 10.00000000000000000, 89.00000000000000000, 1.224646799147353454E-15 ) ) ;
#45 = SURFACE_STYLE_FILL_AREA ( #61 ) ;
#46 = DIRECTION ( 'NONE',  ( 0.000000000000000000, 0.000000000000000000, 1.000000000000000000 ) ) ;
#47 = DIRECTION ( 'NONE',  ( -2.905941557298802612E-17, 1.000000000000000000, -0.000000000000000000 ) ) ;
#48 = UNCERTAINTY_MEASURE_WITH_UNIT (LENGTH_MEASURE( 1.000000000000000082E-05 ), #42, 'distance_accuracy_value', 'NONE');
#49 = COLOUR_RGB ( '',1.000000000000000000, 0.000000000000000000, 0.000000000000000000 ) ;
#50 = PRESENTATION_LAYER_ASSIGNMENT (  '', '', ( #158 ) ) ;
#51 = LINE ( 'NONE', #124, #136 ) ;
#52 = EDGE_CURVE ( 'NONE', #181, #168, #152, .T. ) ;
#53 = DIRECTION ( 'NONE',  ( -1.000000000000000000, 0.000000000000000000, 0.000000000000000000 ) ) ;
#54 = AXIS2_PLACEMENT_3D ( 'NONE', #88, #278, #43 ) ;
#55 = CYLINDRICAL_SURFACE ( 'NONE', #68, 10.00000000000000178 ) ;
#56 = CARTESIAN_POINT ( 'NONE',  ( -1.714505518806293849E-15, 89.00000000000000000, 0.000000000000000000 ) ) ;
#57 = ADVANCED_FACE ( 'NONE', ( #280 ), #283, .F. ) ;
#58 =( NAMED_UNIT ( * ) SI_UNIT ( $, .STERADIAN. ) SOLID_ANGLE_UNIT ( ) );
#59 = ORIENTED_EDGE ( 'NONE', *, *, #250, .T. ) ;
#60 =( NAMED_UNIT ( * ) SI_UNIT ( $, .STERADIAN. ) SOLID_ANGLE_UNIT ( ) );
#61 = FILL_AREA_STYLE ('',( #154 ) ) ;
#62 =( NAMED_UNIT ( * ) PLANE_ANGLE_UNIT ( ) SI_UNIT ( $, .RADIAN. ) );
#63 = FILL_AREA_STYLE ('',( #170 ) ) ;
#64 = PRESENTATION_STYLE_ASSIGNMENT (( #89 ) ) ;
#65 = CARTESIAN_POINT ( 'NONE',  ( 0.000000000000000000, 30.00000000000000000, 0.000000000000000000 ) ) ;
#66 = UNCERTAINTY_MEASURE_WITH_UNIT (LENGTH_MEASURE( 1.000000000000000082E-05 ), #128, 'distance_accuracy_value', 'NONE');
#67 = PRESENTATION_LAYER_ASSIGNMENT (  '', '', ( #209 ) ) ;
#68 = AXIS2_PLACEMENT_3D ( 'NONE', #96, #193, #15 ) ;
#69 = PRODUCT_DEFINITION_SHAPE ( 'NONE', 'NONE',  #222 ) ;
#70 = ORIENTED_EDGE ( 'NONE', *, *, #250, .F. ) ;
#71 = VERTEX_POINT ( 'NONE', #81 ) ;
#72 = STYLED_ITEM ( 'NONE', ( #240 ), #127 ) ;
#73 = COLOUR_RGB ( '',0.7921568627450980005, 0.8196078431372548767, 0.9333333333333333481 ) ;
#74 = ADVANCED_FACE ( 'NONE', ( #226 ), #134, .T. ) ;
#75 = CYLINDRICAL_SURFACE ( 'NONE', #109, 10.00000000000000178 ) ;
#76 = CARTESIAN_POINT ( 'NONE',  ( -10.00000000000000355, 89.00000000000000000, 0.000000000000000000 ) ) ;
#77 = ORIENTED_EDGE ( 'NONE', *, *, #132, .F. ) ;
#78 = AXIS2_PLACEMENT_3D ( 'NONE', #129, #173, #115 ) ;
#79 = DIRECTION ( 'NONE',  ( -0.000000000000000000, -1.000000000000000000, -0.000000000000000000 ) ) ;
#80 = DIRECTION ( 'NONE',  ( -1.000000000000000000, 0.000000000000000000, 0.000000000000000000 ) ) ;
#81 = CARTESIAN_POINT ( 'NONE',  ( 0.000000000000000000, 30.00000000000000000, -10.00000000000000000 ) ) ;
#82 = STYLED_ITEM ( 'NONE', ( #161 ), #6 ) ;
#83 = SURFACE_SIDE_STYLE ('',( #174 ) ) ;
#84 = CARTESIAN_POINT ( 'NONE',  ( -10.00000000000000355, 89.00000000000000000, 0.000000000000000000 ) ) ;
#85 =( LENGTH_UNIT ( ) NAMED_UNIT ( * ) SI_UNIT ( .MILLI., .METRE. ) );
#86 = PRESENTATION_LAYER_ASSIGNMENT (  '', '', ( #183 ) ) ;
#87 = SURFACE_SIDE_STYLE ('',( #45 ) ) ;
#88 = CARTESIAN_POINT ( 'NONE',  ( 0.000000000000000000, 30.00000000000000000, 0.000000000000000000 ) ) ;
#89 = SURFACE_STYLE_USAGE ( .BOTH. , #149 ) ;
#90 = UNCERTAINTY_MEASURE_WITH_UNIT (LENGTH_MEASURE( 1.000000000000000082E-05 ), #256, 'distance_accuracy_value', 'NONE');
#91 = EDGE_CURVE ( 'NONE', #189, #144, #177, .T. ) ;
#92 = EDGE_CURVE ( 'NONE', #273, #4, #203, .T. ) ;
#93 =( GEOMETRIC_REPRESENTATION_CONTEXT ( 3 ) GLOBAL_UNCERTAINTY_ASSIGNED_CONTEXT ( ( #48 ) ) GLOBAL_UNIT_ASSIGNED_CONTEXT ( ( #42, #262, #131 ) ) REPRESENTATION_CONTEXT ( 'NONE', 'WORKASPACE' ) );
#94 = ORIENTED_EDGE ( 'NONE', *, *, #231, .F. ) ;
#95 = CIRCLE ( 'NONE', #130, 10.00000000000000000 ) ;
#96 = CARTESIAN_POINT ( 'NONE',  ( -1.714505518806293849E-15, 89.00000000000000000, 0.000000000000000000 ) ) ;
#97 = SURFACE_STYLE_FILL_AREA ( #275 ) ;
#98 = FACE_OUTER_BOUND ( 'NONE', #237, .T. ) ;
#99 = EDGE_LOOP ( 'NONE', ( #1, #185, #7, #232 ) ) ;
#100 = CARTESIAN_POINT ( 'NONE',  ( 0.000000000000000000, 0.000000000000000000, -10.00000000000000000 ) ) ;
#101 = LINE ( 'NONE', #19, #206 ) ;
#102 = CLOSED_SHELL ( 'NONE', ( #127, #74, #267, #277 ) ) ;
#103 = CARTESIAN_POINT ( 'NONE',  ( -1.714505518806293849E-15, 89.00000000000000000, 0.000000000000000000 ) ) ;
#104 = ORIENTED_EDGE ( 'NONE', *, *, #35, .F. ) ;
#105 = DIRECTION ( 'NONE',  ( -1.000000000000000000, 0.000000000000000000, 0.000000000000000000 ) ) ;
#106 = DIRECTION ( 'NONE',  ( 0.000000000000000000, -1.000000000000000000, -0.000000000000000000 ) ) ;
#107 = CARTESIAN_POINT ( 'NONE',  ( 10.00000000000000000, 89.00000000000000000, 0.000000000000000000 ) ) ;
#108 = MECHANICAL_DESIGN_GEOMETRIC_PRESENTATION_REPRESENTATION (  '', ( #209 ), #39 ) ;
#109 = AXIS2_PLACEMENT_3D ( 'NONE', #10, #121, #254 ) ;
#110 = FACE_OUTER_BOUND ( 'NONE', #180, .T. ) ;
#111 = DIRECTION ( 'NONE',  ( 2.905941557298802612E-17, -1.000000000000000000, 0.000000000000000000 ) ) ;
#112 = FILL_AREA_STYLE ('',( #253 ) ) ;
#113 = COLOUR_RGB ( '',0.7921568627450980005, 0.8196078431372548767, 0.9333333333333333481 ) ;
#114 = COLOUR_RGB ( '',1.000000000000000000, 0.000000000000000000, 0.000000000000000000 ) ;
#115 = DIRECTION ( 'NONE',  ( -1.000000000000000000, -2.905941557298802612E-17, 0.000000000000000000 ) ) ;
#116 = EDGE_LOOP ( 'NONE', ( #166, #184 ) ) ;
#117 = ORIENTED_EDGE ( 'NONE', *, *, #52, .T. ) ;
#118 =( LENGTH_UNIT ( ) NAMED_UNIT ( * ) SI_UNIT ( .MILLI., .METRE. ) );
#119 = CARTESIAN_POINT ( 'NONE',  ( 1.224646799147353256E-15, 0.000000000000000000, 10.00000000000000000 ) ) ;
#120 = AXIS2_PLACEMENT_3D ( 'NONE', #22, #242, #201 ) ;
#121 = DIRECTION ( 'NONE',  ( -2.905941557298803228E-17, 1.000000000000000000, -0.000000000000000000 ) ) ;
#122 = SURFACE_STYLE_FILL_AREA ( #233 ) ;
#123 = SURFACE_STYLE_USAGE ( .BOTH. , #163 ) ;
#124 = CARTESIAN_POINT ( 'NONE',  ( 1.224646799147353256E-15, 0.000000000000000000, 10.00000000000000000 ) ) ;
#125 = VERTEX_POINT ( 'NONE', #244 ) ;
#126 = AXIS2_PLACEMENT_3D ( 'NONE', #167, #271, #252 ) ;
#127 = ADVANCED_FACE ( 'NONE', ( #110 ), #169, .T. ) ;
#128 =( LENGTH_UNIT ( ) NAMED_UNIT ( * ) SI_UNIT ( .MILLI., .METRE. ) );
#129 = CARTESIAN_POINT ( 'NONE',  ( 4.222248167218096493E-33, 30.00000000000000000, 0.000000000000000000 ) ) ;
#130 = AXIS2_PLACEMENT_3D ( 'NONE', #235, #216, #13 ) ;
#131 =( NAMED_UNIT ( * ) SI_UNIT ( $, .STERADIAN. ) SOLID_ANGLE_UNIT ( ) );
#132 = EDGE_CURVE ( 'NONE', #125, #4, #51, .T. ) ;
#133 = SURFACE_SIDE_STYLE ('',( #175 ) ) ;
#134 = PLANE ( 'NONE',  #8 ) ;
#135 = DIRECTION ( 'NONE',  ( 1.000000000000000000, 0.000000000000000000, 0.000000000000000000 ) ) ;
#136 = VECTOR ( 'NONE', #274, 1000.000000000000000 ) ;
#137 = PRESENTATION_LAYER_ASSIGNMENT (  '', '', ( #82 ) ) ;
#138 = DIRECTION ( 'NONE',  ( -2.905941557298803228E-17, 1.000000000000000000, -0.000000000000000000 ) ) ;
#139 = CARTESIAN_POINT ( 'NONE',  ( 0.000000000000000000, 30.00000000000000000, 0.000000000000000000 ) ) ;
#140 = AXIS2_PLACEMENT_3D ( 'NONE', #20, #106, #221 ) ;
#141 =( NAMED_UNIT ( * ) PLANE_ANGLE_UNIT ( ) SI_UNIT ( $, .RADIAN. ) );
#142 = AXIS2_PLACEMENT_3D ( 'NONE', #9, #218, #251 ) ;
#143 = DIRECTION ( 'NONE',  ( -2.905941557298803228E-17, 1.000000000000000000, -0.000000000000000000 ) ) ;
#144 = VERTEX_POINT ( 'NONE', #17 ) ;
#145 = DIRECTION ( 'NONE',  ( -2.905941557298803228E-17, 1.000000000000000000, -0.000000000000000000 ) ) ;
#146 = PRODUCT_DEFINITION_FORMATION_WITH_SPECIFIED_SOURCE ( 'ANY', '', #32, .NOT_KNOWN. ) ;
#147 = EDGE_CURVE ( 'NONE', #168, #144, #157, .T. ) ;
#148 = SURFACE_STYLE_USAGE ( .BOTH. , #133 ) ;
#149 = SURFACE_SIDE_STYLE ('',( #241 ) ) ;
#150 = DIRECTION ( 'NONE',  ( 0.000000000000000000, 1.000000000000000000, 0.000000000000000000 ) ) ;
#151 = PRESENTATION_STYLE_ASSIGNMENT (( #194 ) ) ;
#152 = LINE ( 'NONE', #84, #263 ) ;
#153 = CIRCLE ( 'NONE', #142, 10.00000000000000000 ) ;
#154 = FILL_AREA_STYLE_COLOUR ( '', #73 ) ;
#155 = DIRECTION ( 'NONE',  ( -0.000000000000000000, -1.000000000000000000, -0.000000000000000000 ) ) ;
#156 = ORIENTED_EDGE ( 'NONE', *, *, #227, .F. ) ;
#157 = CIRCLE ( 'NONE', #34, 10.00000000000000178 ) ;
#158 = STYLED_ITEM ( 'NONE', ( #220 ), #74 ) ;
#159 = ORIENTED_EDGE ( 'NONE', *, *, #21, .T. ) ;
#160 = FACE_OUTER_BOUND ( 'NONE', #99, .T. ) ;
#161 = PRESENTATION_STYLE_ASSIGNMENT (( #123 ) ) ;
#162 =( NAMED_UNIT ( * ) SI_UNIT ( $, .STERADIAN. ) SOLID_ANGLE_UNIT ( ) );
#163 = SURFACE_SIDE_STYLE ('',( #97 ) ) ;
#164 = MECHANICAL_DESIGN_GEOMETRIC_PRESENTATION_REPRESENTATION (  '', ( #158 ), #14 ) ;
#165 = PLANE ( 'NONE',  #140 ) ;
#166 = ORIENTED_EDGE ( 'NONE', *, *, #147, .T. ) ;
#167 = CARTESIAN_POINT ( 'NONE',  ( 0.000000000000000000, 0.000000000000000000, 0.000000000000000000 ) ) ;
#168 = VERTEX_POINT ( 'NONE', #76 ) ;
#169 = CYLINDRICAL_SURFACE ( 'NONE', #171, 10.00000000000000000 ) ;
#170 = FILL_AREA_STYLE_COLOUR ( '', #176 ) ;
#171 = AXIS2_PLACEMENT_3D ( 'NONE', #191, #79, #214 ) ;
#172 = CIRCLE ( 'NONE', #257, 10.00000000000000000 ) ;
#173 = DIRECTION ( 'NONE',  ( -2.905941557298802612E-17, 1.000000000000000000, 0.000000000000000000 ) ) ;
#174 = SURFACE_STYLE_FILL_AREA ( #279 ) ;
#175 = SURFACE_STYLE_FILL_AREA ( #63 ) ;
#176 = COLOUR_RGB ( '',1.000000000000000000, 0.000000000000000000, 0.000000000000000000 ) ;
#177 = LINE ( 'NONE', #44, #16 ) ;
#178 = EDGE_CURVE ( 'NONE', #181, #189, #197, .T. ) ;
#179 = UNCERTAINTY_MEASURE_WITH_UNIT (LENGTH_MEASURE( 1.000000000000000082E-05 ), #272, 'distance_accuracy_value', 'NONE');
#180 = EDGE_LOOP ( 'NONE', ( #270, #219, #11, #208 ) ) ;
#181 = VERTEX_POINT ( 'NONE', #217 ) ;
#182 = MECHANICAL_DESIGN_GEOMETRIC_PRESENTATION_REPRESENTATION (  '', ( #72 ), #258 ) ;
#183 = STYLED_ITEM ( 'NONE', ( #151 ), #282 ) ;
#184 = ORIENTED_EDGE ( 'NONE', *, *, #227, .T. ) ;
#185 = ORIENTED_EDGE ( 'NONE', *, *, #91, .T. ) ;
#186 = CYLINDRICAL_SURFACE ( 'NONE', #126, 10.00000000000000000 ) ;
#187 = ORIENTED_EDGE ( 'NONE', *, *, #178, .F. ) ;
#188 = FACE_OUTER_BOUND ( 'NONE', #207, .T. ) ;
#189 = VERTEX_POINT ( 'NONE', #212 ) ;
#190 =( GEOMETRIC_REPRESENTATION_CONTEXT ( 3 ) GLOBAL_UNCERTAINTY_ASSIGNED_CONTEXT ( ( #179 ) ) GLOBAL_UNIT_ASSIGNED_CONTEXT ( ( #272, #141, #213 ) ) REPRESENTATION_CONTEXT ( 'NONE', 'WORKASPACE' ) );
#191 = CARTESIAN_POINT ( 'NONE',  ( 0.000000000000000000, 0.000000000000000000, 0.000000000000000000 ) ) ;
#192 = FILL_AREA_STYLE_COLOUR ( '', #113 ) ;
#193 = DIRECTION ( 'NONE',  ( -2.905941557298803228E-17, 1.000000000000000000, -0.000000000000000000 ) ) ;
#194 = SURFACE_STYLE_USAGE ( .BOTH. , #87 ) ;
#195 = ADVANCED_FACE ( 'NONE', ( #160 ), #55, .T. ) ;
#196 =( NAMED_UNIT ( * ) SI_UNIT ( $, .STERADIAN. ) SOLID_ANGLE_UNIT ( ) );
#197 = CIRCLE ( 'NONE', #243, 10.00000000000000000 ) ;
#198 = SURFACE_STYLE_USAGE ( .BOTH. , #83 ) ;
#199 = APPLICATION_CONTEXT ( 'automotive_design' ) ;
#200 = FACE_OUTER_BOUND ( 'NONE', #211, .T. ) ;
#201 = DIRECTION ( 'NONE',  ( 0.000000000000000000, 0.000000000000000000, -1.000000000000000000 ) ) ;
#202 = UNCERTAINTY_MEASURE_WITH_UNIT (LENGTH_MEASURE( 1.000000000000000082E-05 ), #118, 'distance_accuracy_value', 'NONE');
#203 = CIRCLE ( 'NONE', #120, 10.00000000000000000 ) ;
#204 = APPLICATION_PROTOCOL_DEFINITION ( 'draft international standard', 'automotive_design', 1998, #215 ) ;
#205 = UNCERTAINTY_MEASURE_WITH_UNIT (LENGTH_MEASURE( 1.000000000000000082E-05 ), #85, 'distance_accuracy_value', 'NONE');
#206 = VECTOR ( 'NONE', #155, 1000.000000000000000 ) ;
#207 = EDGE_LOOP ( 'NONE', ( #230, #159 ) ) ;
#208 = ORIENTED_EDGE ( 'NONE', *, *, #29, .F. ) ;
#209 = STYLED_ITEM ( 'NONE', ( #64 ), #277 ) ;
#210 = CLOSED_SHELL ( 'NONE', ( #195, #31, #5, #57 ) ) ;
#211 = EDGE_LOOP ( 'NONE', ( #187, #70 ) ) ;
#212 = CARTESIAN_POINT ( 'NONE',  ( 10.00000000000000000, 30.00000000000000000, 1.224646799147353454E-15 ) ) ;
#213 =( NAMED_UNIT ( * ) SI_UNIT ( $, .STERADIAN. ) SOLID_ANGLE_UNIT ( ) );
#214 = DIRECTION ( 'NONE',  ( 0.000000000000000000, 0.000000000000000000, -1.000000000000000000 ) ) ;
#215 = APPLICATION_CONTEXT ( 'automotive_design' ) ;
#216 = DIRECTION ( 'NONE',  ( -0.000000000000000000, -1.000000000000000000, -0.000000000000000000 ) ) ;
#217 = CARTESIAN_POINT ( 'NONE',  ( -10.00000000000000000, 30.00000000000000000, 0.000000000000000000 ) ) ;
#218 = DIRECTION ( 'NONE',  ( -0.000000000000000000, -1.000000000000000000, -0.000000000000000000 ) ) ;
#219 = ORIENTED_EDGE ( 'NONE', *, *, #132, .T. ) ;
#220 = PRESENTATION_STYLE_ASSIGNMENT (( #148 ) ) ;
#221 = DIRECTION ( 'NONE',  ( 0.000000000000000000, 0.000000000000000000, -1.000000000000000000 ) ) ;
#222 = PRODUCT_DEFINITION ( 'UNKNOWN', '', #146, #247 ) ;
#223 =( GEOMETRIC_REPRESENTATION_CONTEXT ( 3 ) GLOBAL_UNCERTAINTY_ASSIGNED_CONTEXT ( ( #202 ) ) GLOBAL_UNIT_ASSIGNED_CONTEXT ( ( #118, #40, #162 ) ) REPRESENTATION_CONTEXT ( 'NONE', 'WORKASPACE' ) );
#224 = PLANE ( 'NONE',  #78 ) ;
#225 =( NAMED_UNIT ( * ) PLANE_ANGLE_UNIT ( ) SI_UNIT ( $, .RADIAN. ) );
#226 = FACE_OUTER_BOUND ( 'NONE', #33, .T. ) ;
#227 = EDGE_CURVE ( 'NONE', #144, #168, #234, .T. ) ;
#228 =( NAMED_UNIT ( * ) SI_UNIT ( $, .STERADIAN. ) SOLID_ANGLE_UNIT ( ) );
#229 = STYLED_ITEM ( 'NONE', ( #238 ), #267 ) ;
#230 = ORIENTED_EDGE ( 'NONE', *, *, #92, .T. ) ;
#231 = EDGE_CURVE ( 'NONE', #71, #125, #153, .T. ) ;
#232 = ORIENTED_EDGE ( 'NONE', *, *, #52, .F. ) ;
#233 = FILL_AREA_STYLE ('',( #12 ) ) ;
#234 = CIRCLE ( 'NONE', #266, 10.00000000000000178 ) ;
#235 = CARTESIAN_POINT ( 'NONE',  ( 0.000000000000000000, 0.000000000000000000, 0.000000000000000000 ) ) ;
#236 = CARTESIAN_POINT ( 'NONE',  ( 0.000000000000000000, 30.00000000000000000, 0.000000000000000000 ) ) ;
#237 = EDGE_LOOP ( 'NONE', ( #77, #18, #36, #248 ) ) ;
#238 = PRESENTATION_STYLE_ASSIGNMENT (( #255 ) ) ;
#239 = PRESENTATION_LAYER_ASSIGNMENT (  '', '', ( #72 ) ) ;
#240 = PRESENTATION_STYLE_ASSIGNMENT (( #198 ) ) ;
#241 = SURFACE_STYLE_FILL_AREA ( #112 ) ;
#242 = DIRECTION ( 'NONE',  ( -0.000000000000000000, -1.000000000000000000, -0.000000000000000000 ) ) ;
#243 = AXIS2_PLACEMENT_3D ( 'NONE', #236, #143, #53 ) ;
#244 = CARTESIAN_POINT ( 'NONE',  ( 1.224646799147353256E-15, 30.00000000000000000, 10.00000000000000000 ) ) ;
#245 = CARTESIAN_POINT ( 'NONE',  ( 0.000000000000000000, 0.000000000000000000, 0.000000000000000000 ) ) ;
#246 =( LENGTH_UNIT ( ) NAMED_UNIT ( * ) SI_UNIT ( .MILLI., .METRE. ) );
#247 = PRODUCT_DEFINITION_CONTEXT ( 'detailed design', #215, 'design' ) ;
#248 = ORIENTED_EDGE ( 'NONE', *, *, #21, .F. ) ;
#249 = AXIS2_PLACEMENT_3D ( 'NONE', #107, #111, #259 ) ;
#250 = EDGE_CURVE ( 'NONE', #189, #181, #172, .T. ) ;
#251 = DIRECTION ( 'NONE',  ( 0.000000000000000000, 0.000000000000000000, -1.000000000000000000 ) ) ;
#252 = DIRECTION ( 'NONE',  ( 0.000000000000000000, 0.000000000000000000, -1.000000000000000000 ) ) ;
#253 = FILL_AREA_STYLE_COLOUR ( '', #49 ) ;
#254 = DIRECTION ( 'NONE',  ( -1.000000000000000000, 0.000000000000000000, 0.000000000000000000 ) ) ;
#255 = SURFACE_STYLE_USAGE ( .BOTH. , #276 ) ;
#256 =( LENGTH_UNIT ( ) NAMED_UNIT ( * ) SI_UNIT ( .MILLI., .METRE. ) );
#257 = AXIS2_PLACEMENT_3D ( 'NONE', #139, #138, #80 ) ;
#258 =( GEOMETRIC_REPRESENTATION_CONTEXT ( 3 ) GLOBAL_UNCERTAINTY_ASSIGNED_CONTEXT ( ( #25 ) ) GLOBAL_UNIT_ASSIGNED_CONTEXT ( ( #246, #62, #58 ) ) REPRESENTATION_CONTEXT ( 'NONE', 'WORKASPACE' ) );
#259 = DIRECTION ( 'NONE',  ( 1.000000000000000000, 2.905941557298802612E-17, 0.000000000000000000 ) ) ;
#260 =( GEOMETRIC_REPRESENTATION_CONTEXT ( 3 ) GLOBAL_UNCERTAINTY_ASSIGNED_CONTEXT ( ( #90 ) ) GLOBAL_UNIT_ASSIGNED_CONTEXT ( ( #256, #284, #228 ) ) REPRESENTATION_CONTEXT ( 'NONE', 'WORKASPACE' ) );
#261 = PRODUCT_RELATED_PRODUCT_CATEGORY ( 'part', '', ( #32 ) ) ;
#262 =( NAMED_UNIT ( * ) PLANE_ANGLE_UNIT ( ) SI_UNIT ( $, .RADIAN. ) );
#263 = VECTOR ( 'NONE', #47, 1000.000000000000000 ) ;
#264 = FILL_AREA_STYLE_COLOUR ( '', #2 ) ;
#265 = AXIS2_PLACEMENT_3D ( 'NONE', #245, #46, #135 ) ;
#266 = AXIS2_PLACEMENT_3D ( 'NONE', #103, #145, #37 ) ;
#267 = ADVANCED_FACE ( 'NONE', ( #98 ), #186, .T. ) ;
#268 = MECHANICAL_DESIGN_GEOMETRIC_PRESENTATION_REPRESENTATION (  '', ( #82 ), #190 ) ;
#269 = DIRECTION ( 'NONE',  ( -2.905941557298803228E-17, 1.000000000000000000, -0.000000000000000000 ) ) ;
#270 = ORIENTED_EDGE ( 'NONE', *, *, #231, .T. ) ;
#271 = DIRECTION ( 'NONE',  ( -0.000000000000000000, -1.000000000000000000, -0.000000000000000000 ) ) ;
#272 =( LENGTH_UNIT ( ) NAMED_UNIT ( * ) SI_UNIT ( .MILLI., .METRE. ) );
#273 = VERTEX_POINT ( 'NONE', #100 ) ;
#274 = DIRECTION ( 'NONE',  ( -0.000000000000000000, -1.000000000000000000, -0.000000000000000000 ) ) ;
#275 = FILL_AREA_STYLE ('',( #192 ) ) ;
#276 = SURFACE_SIDE_STYLE ('',( #122 ) ) ;
#277 = ADVANCED_FACE ( 'NONE', ( #188 ), #165, .T. ) ;
#278 = DIRECTION ( 'NONE',  ( -0.000000000000000000, -1.000000000000000000, -0.000000000000000000 ) ) ;
#279 = FILL_AREA_STYLE ('',( #264 ) ) ;
#280 = FACE_OUTER_BOUND ( 'NONE', #116, .T. ) ;
#281 =( NAMED_UNIT ( * ) PLANE_ANGLE_UNIT ( ) SI_UNIT ( $, .RADIAN. ) );
#282 = MANIFOLD_SOLID_BREP ( 'Revolve - Tool Body (Straight Shanked)', #210 ) ;
#283 = PLANE ( 'NONE',  #249 ) ;
#284 =( NAMED_UNIT ( * ) PLANE_ANGLE_UNIT ( ) SI_UNIT ( $, .RADIAN. ) );
#285 = MECHANICAL_DESIGN_GEOMETRIC_PRESENTATION_REPRESENTATION (  '', ( #229 ), #223 ) ;
#286 = CIRCLE ( 'NONE', #54, 10.00000000000000000 ) ;
#287 = MECHANICAL_DESIGN_GEOMETRIC_PRESENTATION_REPRESENTATION (  '', ( #183 ), #260 ) ;
#288 = SHAPE_DEFINITION_REPRESENTATION ( #69, #3 ) ;
ENDSEC;
END-ISO-10303-21;
