ISO-10303-21;
HEADER;
FILE_DESCRIPTION (( 'STEP AP214' ),
    '1' );
FILE_NAME ('59573.STEP',
    '2023-07-24T15:12:02',
    ( '' ),
    ( '' ),
    'SwSTEP 2.0',
    'SolidWorks 2023',
    '' );
FILE_SCHEMA (( 'AUTOMOTIVE_DESIGN' ));
ENDSEC;

DATA;
#1 = PRODUCT ( '59573', '59573', '', ( #187 ) ) ;
#2 = DIRECTION ( 'NONE',  ( 1.000000000000000000, 0.000000000000000000, -1.224646799147353207E-16 ) ) ;
#3 = SURFACE_STYLE_USAGE ( .BOTH. , #282 ) ;
#4 =( LENGTH_UNIT ( ) NAMED_UNIT ( * ) SI_UNIT ( .MILLI., .METRE. ) );
#5 = TOROIDAL_SURFACE ( 'NONE', #301, 3.000000000000000000, 1.000000000000000000 ) ;
#6 = DIRECTION ( 'NONE',  ( -1.223542297630008506E-16, 1.000000000000000000, -0.000000000000000000 ) ) ;
#7 =( NAMED_UNIT ( * ) PLANE_ANGLE_UNIT ( ) SI_UNIT ( $, .RADIAN. ) );
#8 = DIRECTION ( 'NONE',  ( -1.223542297630008506E-16, 1.000000000000000000, -0.000000000000000000 ) ) ;
#9 = DIRECTION ( 'NONE',  ( 1.223542297630008506E-16, -1.000000000000000000, 0.000000000000000000 ) ) ;
#10 = SURFACE_SIDE_STYLE ('',( #293 ) ) ;
#11 = VECTOR ( 'NONE', #113, 1000.000000000000000 ) ;
#12 = STYLED_ITEM ( 'NONE', ( #342 ), #231 ) ;
#13 = CARTESIAN_POINT ( 'NONE',  ( 4.000000000000000000, 75.00000000000000000, 4.898587196589412829E-16 ) ) ;
#14 = LINE ( 'NONE', #158, #53 ) ;
#15 = SHAPE_DEFINITION_REPRESENTATION ( #107, #370 ) ;
#16 = UNCERTAINTY_MEASURE_WITH_UNIT (LENGTH_MEASURE( 1.000000000000000082E-05 ), #194, 'distance_accuracy_value', 'NONE');
#17 = EDGE_CURVE ( 'NONE', #192, #48, #32, .T. ) ;
#18 = COLOUR_RGB ( '',1.000000000000000000, 0.000000000000000000, 0.000000000000000000 ) ;
#19 = MECHANICAL_DESIGN_GEOMETRIC_PRESENTATION_REPRESENTATION (  '', ( #302 ), #172 ) ;
#20 = DIRECTION ( 'NONE',  ( -1.000000000000000000, 0.000000000000000000, 0.000000000000000000 ) ) ;
#21 = EDGE_CURVE ( 'NONE', #367, #43, #347, .T. ) ;
#22 = AXIS2_PLACEMENT_3D ( 'NONE', #262, #119, #182 ) ;
#23 = CIRCLE ( 'NONE', #112, 3.000000000000000000 ) ;
#24 = APPLICATION_CONTEXT ( 'automotive_design' ) ;
#25 = ORIENTED_EDGE ( 'NONE', *, *, #186, .T. ) ;
#26 = FILL_AREA_STYLE ('',( #339 ) ) ;
#27 = DIRECTION ( 'NONE',  ( -0.000000000000000000, -1.000000000000000000, -0.000000000000000000 ) ) ;
#28 = PRESENTATION_LAYER_ASSIGNMENT (  '', '', ( #140 ) ) ;
#29 = CARTESIAN_POINT ( 'NONE',  ( 0.000000000000000000, 0.000000000000000000, 0.000000000000000000 ) ) ;
#30 =( NAMED_UNIT ( * ) SI_UNIT ( $, .STERADIAN. ) SOLID_ANGLE_UNIT ( ) );
#31 = DIRECTION ( 'NONE',  ( 0.000000000000000000, 1.000000000000000000, 0.000000000000000000 ) ) ;
#32 = CIRCLE ( 'NONE', #291, 1.000000000000000000 ) ;
#33 = COLOUR_RGB ( '',1.000000000000000000, 0.000000000000000000, 0.000000000000000000 ) ;
#34 = DIRECTION ( 'NONE',  ( 0.000000000000000000, 0.000000000000000000, -1.000000000000000000 ) ) ;
#35 = CARTESIAN_POINT ( 'NONE',  ( 4.286263797015736595E-16, 0.000000000000000000, 3.000000000000000000 ) ) ;
#36 = ADVANCED_FACE ( 'NONE', ( #312 ), #363, .T. ) ;
#37 = MANIFOLD_SOLID_BREP ( 'Revolve - Cutting Edge', #320 ) ;
#38 = DIRECTION ( 'NONE',  ( 0.000000000000000000, 0.000000000000000000, -1.000000000000000000 ) ) ;
#39 = FILL_AREA_STYLE_COLOUR ( '', #265 ) ;
#40 = AXIS2_PLACEMENT_3D ( 'NONE', #206, #362, #331 ) ;
#41 = PLANE ( 'NONE',  #204 ) ;
#42 = EDGE_CURVE ( 'NONE', #276, #48, #353, .T. ) ;
#43 = VERTEX_POINT ( 'NONE', #228 ) ;
#44 = ORIENTED_EDGE ( 'NONE', *, *, #94, .T. ) ;
#45 = SURFACE_STYLE_FILL_AREA ( #99 ) ;
#46 = ORIENTED_EDGE ( 'NONE', *, *, #17, .F. ) ;
#47 = AXIS2_PLACEMENT_3D ( 'NONE', #29, #61, #34 ) ;
#48 = VERTEX_POINT ( 'NONE', #62 ) ;
#49 = EDGE_CURVE ( 'NONE', #126, #81, #364, .T. ) ;
#50 = ORIENTED_EDGE ( 'NONE', *, *, #248, .F. ) ;
#51 = SURFACE_STYLE_FILL_AREA ( #26 ) ;
#52 = ORIENTED_EDGE ( 'NONE', *, *, #49, .F. ) ;
#53 = VECTOR ( 'NONE', #122, 1000.000000000000000 ) ;
#54 = PRESENTATION_LAYER_ASSIGNMENT (  '', '', ( #12 ) ) ;
#55 = FACE_OUTER_BOUND ( 'NONE', #299, .T. ) ;
#56 =( GEOMETRIC_REPRESENTATION_CONTEXT ( 3 ) GLOBAL_UNCERTAINTY_ASSIGNED_CONTEXT ( ( #159 ) ) GLOBAL_UNIT_ASSIGNED_CONTEXT ( ( #346, #278, #108 ) ) REPRESENTATION_CONTEXT ( 'NONE', 'WORKASPACE' ) );
#57 = CIRCLE ( 'NONE', #330, 1.000000000000000000 ) ;
#58 = EDGE_CURVE ( 'NONE', #126, #96, #173, .T. ) ;
#59 = CARTESIAN_POINT ( 'NONE',  ( 4.000000000000000000, 75.00000000000000000, 0.000000000000000000 ) ) ;
#60 = FILL_AREA_STYLE ('',( #39 ) ) ;
#61 = DIRECTION ( 'NONE',  ( 0.000000000000000000, -1.000000000000000000, -0.000000000000000000 ) ) ;
#62 = CARTESIAN_POINT ( 'NONE',  ( 0.000000000000000000, 0.000000000000000000, -3.000000000000000000 ) ) ;
#63 = PRESENTATION_LAYER_ASSIGNMENT (  '', '', ( #124 ) ) ;
#64 = EDGE_CURVE ( 'NONE', #367, #192, #88, .T. ) ;
#65 =( NAMED_UNIT ( * ) PLANE_ANGLE_UNIT ( ) SI_UNIT ( $, .RADIAN. ) );
#66 =( NAMED_UNIT ( * ) SI_UNIT ( $, .STERADIAN. ) SOLID_ANGLE_UNIT ( ) );
#67 =( GEOMETRIC_REPRESENTATION_CONTEXT ( 3 ) GLOBAL_UNCERTAINTY_ASSIGNED_CONTEXT ( ( #16 ) ) GLOBAL_UNIT_ASSIGNED_CONTEXT ( ( #194, #287, #326 ) ) REPRESENTATION_CONTEXT ( 'NONE', 'WORKASPACE' ) );
#68 = VECTOR ( 'NONE', #6, 1000.000000000000000 ) ;
#69 = DIRECTION ( 'NONE',  ( 1.000000000000000000, 0.000000000000000000, 0.000000000000000000 ) ) ;
#70 = FACE_OUTER_BOUND ( 'NONE', #154, .T. ) ;
#71 = ORIENTED_EDGE ( 'NONE', *, *, #75, .F. ) ;
#72 = PLANE ( 'NONE',  #47 ) ;
#73 = CARTESIAN_POINT ( 'NONE',  ( -1.469576158976823750E-15, 75.00000000000000000, 0.000000000000000000 ) ) ;
#74 = ORIENTED_EDGE ( 'NONE', *, *, #183, .F. ) ;
#75 = EDGE_CURVE ( 'NONE', #133, #96, #258, .T. ) ;
#76 = ORIENTED_EDGE ( 'NONE', *, *, #21, .T. ) ;
#77 = MECHANICAL_DESIGN_GEOMETRIC_PRESENTATION_REPRESENTATION (  '', ( #124 ), #344 ) ;
#78 = CIRCLE ( 'NONE', #165, 4.000000000000000000 ) ;
#79 = DIRECTION ( 'NONE',  ( -1.000000000000000000, -1.223542297630008506E-16, 0.000000000000000000 ) ) ;
#80 =( LENGTH_UNIT ( ) NAMED_UNIT ( * ) SI_UNIT ( .MILLI., .METRE. ) );
#81 = VERTEX_POINT ( 'NONE', #160 ) ;
#82 = PRESENTATION_LAYER_ASSIGNMENT (  '', '', ( #302 ) ) ;
#83 = ADVANCED_FACE ( 'NONE', ( #156 ), #5, .T. ) ;
#84 = ADVANCED_FACE ( 'NONE', ( #127 ), #41, .F. ) ;
#85 = LINE ( 'NONE', #90, #68 ) ;
#86 = DIRECTION ( 'NONE',  ( -0.000000000000000000, -1.000000000000000000, -0.000000000000000000 ) ) ;
#87 = DIRECTION ( 'NONE',  ( -0.000000000000000000, -1.000000000000000000, -0.000000000000000000 ) ) ;
#88 = LINE ( 'NONE', #288, #180 ) ;
#89 = AXIS2_PLACEMENT_3D ( 'NONE', #139, #167, #253 ) ;
#90 = CARTESIAN_POINT ( 'NONE',  ( 3.999999999999996447, 75.00000000000000000, 4.898587196589410857E-16 ) ) ;
#91 =( NAMED_UNIT ( * ) SI_UNIT ( $, .STERADIAN. ) SOLID_ANGLE_UNIT ( ) );
#92 = DIRECTION ( 'NONE',  ( -1.000000000000000000, 0.000000000000000000, 0.000000000000000000 ) ) ;
#93 = DIRECTION ( 'NONE',  ( 0.000000000000000000, 0.000000000000000000, 1.000000000000000000 ) ) ;
#94 = EDGE_CURVE ( 'NONE', #43, #121, #14, .T. ) ;
#95 = CIRCLE ( 'NONE', #151, 4.000000000000000000 ) ;
#96 = VERTEX_POINT ( 'NONE', #239 ) ;
#97 = ORIENTED_EDGE ( 'NONE', *, *, #75, .T. ) ;
#98 = ORIENTED_EDGE ( 'NONE', *, *, #341, .F. ) ;
#99 = FILL_AREA_STYLE ('',( #307 ) ) ;
#100 = FILL_AREA_STYLE ('',( #244 ) ) ;
#101 = CARTESIAN_POINT ( 'NONE',  ( 4.898587196589412829E-16, 1.000000000000000000, 4.000000000000000000 ) ) ;
#102 = EDGE_LOOP ( 'NONE', ( #361, #50 ) ) ;
#103 = SURFACE_STYLE_USAGE ( .BOTH. , #123 ) ;
#104 = ORIENTED_EDGE ( 'NONE', *, *, #17, .T. ) ;
#105 = SURFACE_STYLE_FILL_AREA ( #316 ) ;
#106 = ADVANCED_FACE ( 'NONE', ( #243 ), #275, .T. ) ;
#107 = PRODUCT_DEFINITION_SHAPE ( 'NONE', 'NONE',  #153 ) ;
#108 =( NAMED_UNIT ( * ) SI_UNIT ( $, .STERADIAN. ) SOLID_ANGLE_UNIT ( ) );
#109 = EDGE_CURVE ( 'NONE', #96, #133, #354, .T. ) ;
#110 = DIRECTION ( 'NONE',  ( -1.224646799147352961E-16, 0.000000000000000000, -1.000000000000000000 ) ) ;
#111 = FACE_OUTER_BOUND ( 'NONE', #271, .T. ) ;
#112 = AXIS2_PLACEMENT_3D ( 'NONE', #179, #145, #38 ) ;
#113 = DIRECTION ( 'NONE',  ( -1.223542297630008506E-16, 1.000000000000000000, -0.000000000000000000 ) ) ;
#114 = CARTESIAN_POINT ( 'NONE',  ( 0.000000000000000000, 1.000000000000000000, 0.000000000000000000 ) ) ;
#115 =( NAMED_UNIT ( * ) PLANE_ANGLE_UNIT ( ) SI_UNIT ( $, .RADIAN. ) );
#116 = DIRECTION ( 'NONE',  ( -1.000000000000000000, 0.000000000000000000, 0.000000000000000000 ) ) ;
#117 = DIRECTION ( 'NONE',  ( 0.000000000000000000, 0.000000000000000000, -1.000000000000000000 ) ) ;
#118 = SURFACE_STYLE_USAGE ( .BOTH. , #10 ) ;
#119 = DIRECTION ( 'NONE',  ( -1.223542297630008506E-16, 1.000000000000000000, -0.000000000000000000 ) ) ;
#120 = STYLED_ITEM ( 'NONE', ( #318 ), #83 ) ;
#121 = VERTEX_POINT ( 'NONE', #101 ) ;
#122 = DIRECTION ( 'NONE',  ( -0.000000000000000000, -1.000000000000000000, -0.000000000000000000 ) ) ;
#123 = SURFACE_SIDE_STYLE ('',( #327 ) ) ;
#124 = STYLED_ITEM ( 'NONE', ( #168 ), #36 ) ;
#125 = ORIENTED_EDGE ( 'NONE', *, *, #109, .T. ) ;
#126 = VERTEX_POINT ( 'NONE', #332 ) ;
#127 = FACE_OUTER_BOUND ( 'NONE', #190, .T. ) ;
#128 = CARTESIAN_POINT ( 'NONE',  ( 0.000000000000000000, 24.00000000000000000, 0.000000000000000000 ) ) ;
#129 = CARTESIAN_POINT ( 'NONE',  ( -1.469576158976823750E-15, 75.00000000000000000, 0.000000000000000000 ) ) ;
#130 = ORIENTED_EDGE ( 'NONE', *, *, #341, .T. ) ;
#131 =( NAMED_UNIT ( * ) PLANE_ANGLE_UNIT ( ) SI_UNIT ( $, .RADIAN. ) );
#132 = UNCERTAINTY_MEASURE_WITH_UNIT (LENGTH_MEASURE( 1.000000000000000082E-05 ), #356, 'distance_accuracy_value', 'NONE');
#133 = VERTEX_POINT ( 'NONE', #13 ) ;
#134 = AXIS2_PLACEMENT_3D ( 'NONE', #129, #203, #246 ) ;
#135 = PRODUCT_RELATED_PRODUCT_CATEGORY ( 'part', '', ( #1 ) ) ;
#136 = EDGE_LOOP ( 'NONE', ( #207, #25, #98, #46 ) ) ;
#137 = SURFACE_SIDE_STYLE ('',( #51 ) ) ;
#138 = ORIENTED_EDGE ( 'NONE', *, *, #257, .F. ) ;
#139 = CARTESIAN_POINT ( 'NONE',  ( 4.770489558936219510E-15, 24.00000000000000000, 0.000000000000000000 ) ) ;
#140 = STYLED_ITEM ( 'NONE', ( #297 ), #281 ) ;
#141 = ADVANCED_FACE ( 'NONE', ( #70 ), #72, .T. ) ;
#142 = FILL_AREA_STYLE_COLOUR ( '', #146 ) ;
#143 = CARTESIAN_POINT ( 'NONE',  ( 0.000000000000000000, 24.00000000000000000, 0.000000000000000000 ) ) ;
#144 = SURFACE_STYLE_USAGE ( .BOTH. , #295 ) ;
#145 = DIRECTION ( 'NONE',  ( -0.000000000000000000, -1.000000000000000000, -0.000000000000000000 ) ) ;
#146 = COLOUR_RGB ( '',1.000000000000000000, 0.000000000000000000, 0.000000000000000000 ) ;
#147 = SURFACE_STYLE_FILL_AREA ( #229 ) ;
#148 =( NAMED_UNIT ( * ) PLANE_ANGLE_UNIT ( ) SI_UNIT ( $, .RADIAN. ) );
#149 = DIRECTION ( 'NONE',  ( -0.000000000000000000, -1.000000000000000000, -0.000000000000000000 ) ) ;
#150 = FACE_OUTER_BOUND ( 'NONE', #216, .T. ) ;
#151 = AXIS2_PLACEMENT_3D ( 'NONE', #143, #256, #214 ) ;
#152 = DIRECTION ( 'NONE',  ( -1.223542297630008506E-16, 1.000000000000000000, 0.000000000000000000 ) ) ;
#153 = PRODUCT_DEFINITION ( 'UNKNOWN', '', #237, #336 ) ;
#154 = EDGE_LOOP ( 'NONE', ( #130, #163 ) ) ;
#155 = SURFACE_SIDE_STYLE ('',( #45 ) ) ;
#156 = FACE_OUTER_BOUND ( 'NONE', #205, .T. ) ;
#157 = ORIENTED_EDGE ( 'NONE', *, *, #257, .T. ) ;
#158 = CARTESIAN_POINT ( 'NONE',  ( 4.898587196589412829E-16, 0.000000000000000000, 4.000000000000000000 ) ) ;
#159 = UNCERTAINTY_MEASURE_WITH_UNIT (LENGTH_MEASURE( 1.000000000000000082E-05 ), #346, 'distance_accuracy_value', 'NONE');
#160 = CARTESIAN_POINT ( 'NONE',  ( 4.000000000000000000, 24.00000000000000000, 4.898587196589413815E-16 ) ) ;
#161 = ORIENTED_EDGE ( 'NONE', *, *, #248, .T. ) ;
#162 = PRESENTATION_STYLE_ASSIGNMENT (( #368 ) ) ;
#163 = ORIENTED_EDGE ( 'NONE', *, *, #42, .T. ) ;
#164 = PRESENTATION_LAYER_ASSIGNMENT (  '', '', ( #120 ) ) ;
#165 = AXIS2_PLACEMENT_3D ( 'NONE', #114, #87, #323 ) ;
#166 = AXIS2_PLACEMENT_3D ( 'NONE', #328, #93, #69 ) ;
#167 = DIRECTION ( 'NONE',  ( -1.223542297630008506E-16, 1.000000000000000000, -0.000000000000000000 ) ) ;
#168 = PRESENTATION_STYLE_ASSIGNMENT (( #343 ) ) ;
#169 = ADVANCED_FACE ( 'NONE', ( #55 ), #200, .T. ) ;
#170 = MECHANICAL_DESIGN_GEOMETRIC_PRESENTATION_REPRESENTATION (  '', ( #184 ), #335 ) ;
#171 = CARTESIAN_POINT ( 'NONE',  ( 0.000000000000000000, 0.000000000000000000, 0.000000000000000000 ) ) ;
#172 =( GEOMETRIC_REPRESENTATION_CONTEXT ( 3 ) GLOBAL_UNCERTAINTY_ASSIGNED_CONTEXT ( ( #209 ) ) GLOBAL_UNIT_ASSIGNED_CONTEXT ( ( #224, #148, #349 ) ) REPRESENTATION_CONTEXT ( 'NONE', 'WORKASPACE' ) );
#173 = LINE ( 'NONE', #351, #11 ) ;
#174 = DIRECTION ( 'NONE',  ( -0.000000000000000000, -1.000000000000000000, -0.000000000000000000 ) ) ;
#175 = CARTESIAN_POINT ( 'NONE',  ( 0.000000000000000000, 0.000000000000000000, 0.000000000000000000 ) ) ;
#176 =( NAMED_UNIT ( * ) PLANE_ANGLE_UNIT ( ) SI_UNIT ( $, .RADIAN. ) );
#177 = ADVANCED_FACE ( 'NONE', ( #111 ), #322, .F. ) ;
#178 = FACE_OUTER_BOUND ( 'NONE', #136, .T. ) ;
#179 = CARTESIAN_POINT ( 'NONE',  ( 0.000000000000000000, 0.000000000000000000, 0.000000000000000000 ) ) ;
#180 = VECTOR ( 'NONE', #296, 1000.000000000000000 ) ;
#181 = PRESENTATION_LAYER_ASSIGNMENT (  '', '', ( #345 ) ) ;
#182 = DIRECTION ( 'NONE',  ( -1.000000000000000000, 0.000000000000000000, 0.000000000000000000 ) ) ;
#183 = EDGE_CURVE ( 'NONE', #121, #192, #337, .T. ) ;
#184 = STYLED_ITEM ( 'NONE', ( #196 ), #37 ) ;
#185 = EDGE_LOOP ( 'NONE', ( #308, #254, #306, #333 ) ) ;
#186 = EDGE_CURVE ( 'NONE', #121, #276, #57, .T. ) ;
#187 = PRODUCT_CONTEXT ( 'NONE', #24, 'mechanical' ) ;
#188 = AXIS2_PLACEMENT_3D ( 'NONE', #321, #149, #298 ) ;
#189 = AXIS2_PLACEMENT_3D ( 'NONE', #280, #27, #313 ) ;
#190 = EDGE_LOOP ( 'NONE', ( #52, #138 ) ) ;
#191 = SURFACE_STYLE_USAGE ( .BOTH. , #155 ) ;
#192 = VERTEX_POINT ( 'NONE', #355 ) ;
#193 =( NAMED_UNIT ( * ) PLANE_ANGLE_UNIT ( ) SI_UNIT ( $, .RADIAN. ) );
#194 =( LENGTH_UNIT ( ) NAMED_UNIT ( * ) SI_UNIT ( .MILLI., .METRE. ) );
#195 = AXIS2_PLACEMENT_3D ( 'NONE', #260, #174, #117 ) ;
#196 = PRESENTATION_STYLE_ASSIGNMENT (( #264 ) ) ;
#197 = DIRECTION ( 'NONE',  ( -0.000000000000000000, -1.000000000000000000, -0.000000000000000000 ) ) ;
#198 = EDGE_CURVE ( 'NONE', #81, #133, #85, .T. ) ;
#199 = DIRECTION ( 'NONE',  ( 1.000000000000000000, 1.223542297630008506E-16, 0.000000000000000000 ) ) ;
#200 = CYLINDRICAL_SURFACE ( 'NONE', #292, 4.000000000000000000 ) ;
#201 =( GEOMETRIC_REPRESENTATION_CONTEXT ( 3 ) GLOBAL_UNCERTAINTY_ASSIGNED_CONTEXT ( ( #366 ) ) GLOBAL_UNIT_ASSIGNED_CONTEXT ( ( #217, #131, #30 ) ) REPRESENTATION_CONTEXT ( 'NONE', 'WORKASPACE' ) );
#202 = DIRECTION ( 'NONE',  ( 0.000000000000000000, 0.000000000000000000, -1.000000000000000000 ) ) ;
#203 = DIRECTION ( 'NONE',  ( -1.223542297630008506E-16, 1.000000000000000000, -0.000000000000000000 ) ) ;
#204 = AXIS2_PLACEMENT_3D ( 'NONE', #208, #152, #79 ) ;
#205 = EDGE_LOOP ( 'NONE', ( #334, #252, #104, #314 ) ) ;
#206 = CARTESIAN_POINT ( 'NONE',  ( -1.469576158976823750E-15, 75.00000000000000000, 0.000000000000000000 ) ) ;
#207 = ORIENTED_EDGE ( 'NONE', *, *, #220, .T. ) ;
#208 = CARTESIAN_POINT ( 'NONE',  ( 4.770489558936219510E-15, 24.00000000000000000, 0.000000000000000000 ) ) ;
#209 = UNCERTAINTY_MEASURE_WITH_UNIT (LENGTH_MEASURE( 1.000000000000000082E-05 ), #224, 'distance_accuracy_value', 'NONE');
#210 = CARTESIAN_POINT ( 'NONE',  ( 0.000000000000000000, 1.000000000000000000, -3.000000000000000000 ) ) ;
#211 = CARTESIAN_POINT ( 'NONE',  ( 0.000000000000000000, 1.000000000000000000, 0.000000000000000000 ) ) ;
#212 = STYLED_ITEM ( 'NONE', ( #311 ), #141 ) ;
#213 = FILL_AREA_STYLE_COLOUR ( '', #329 ) ;
#214 = DIRECTION ( 'NONE',  ( 0.000000000000000000, 0.000000000000000000, -1.000000000000000000 ) ) ;
#215 = UNCERTAINTY_MEASURE_WITH_UNIT (LENGTH_MEASURE( 1.000000000000000082E-05 ), #289, 'distance_accuracy_value', 'NONE');
#216 = EDGE_LOOP ( 'NONE', ( #315, #157, #340, #71 ) ) ;
#217 =( LENGTH_UNIT ( ) NAMED_UNIT ( * ) SI_UNIT ( .MILLI., .METRE. ) );
#218 = SURFACE_SIDE_STYLE ('',( #223 ) ) ;
#219 =( NAMED_UNIT ( * ) SI_UNIT ( $, .STERADIAN. ) SOLID_ANGLE_UNIT ( ) );
#220 = EDGE_CURVE ( 'NONE', #192, #121, #78, .T. ) ;
#221 = MECHANICAL_DESIGN_GEOMETRIC_PRESENTATION_REPRESENTATION (  '', ( #345 ), #56 ) ;
#222 = CYLINDRICAL_SURFACE ( 'NONE', #251, 4.000000000000000000 ) ;
#223 = SURFACE_STYLE_FILL_AREA ( #319 ) ;
#224 =( LENGTH_UNIT ( ) NAMED_UNIT ( * ) SI_UNIT ( .MILLI., .METRE. ) );
#225 = FILL_AREA_STYLE_COLOUR ( '', #310 ) ;
#226 = FILL_AREA_STYLE ('',( #225 ) ) ;
#227 = PRESENTATION_STYLE_ASSIGNMENT (( #144 ) ) ;
#228 = CARTESIAN_POINT ( 'NONE',  ( 4.898587196589412829E-16, 24.00000000000000000, 4.000000000000000000 ) ) ;
#229 = FILL_AREA_STYLE ('',( #142 ) ) ;
#230 = CYLINDRICAL_SURFACE ( 'NONE', #241, 3.999999999999998224 ) ;
#231 = ADVANCED_FACE ( 'NONE', ( #178 ), #259, .T. ) ;
#232 = CARTESIAN_POINT ( 'NONE',  ( 0.000000000000000000, 24.00000000000000000, 0.000000000000000000 ) ) ;
#233 = CARTESIAN_POINT ( 'NONE',  ( 3.673940397442059868E-16, 1.000000000000000000, 3.000000000000000000 ) ) ;
#234 = CARTESIAN_POINT ( 'NONE',  ( 0.000000000000000000, 24.00000000000000000, -4.000000000000000000 ) ) ;
#235 = AXIS2_PLACEMENT_3D ( 'NONE', #128, #249, #245 ) ;
#236 = MECHANICAL_DESIGN_GEOMETRIC_PRESENTATION_REPRESENTATION (  '', ( #140 ), #348 ) ;
#237 = PRODUCT_DEFINITION_FORMATION_WITH_SPECIFIED_SOURCE ( 'ANY', '', #1, .NOT_KNOWN. ) ;
#238 = DIRECTION ( 'NONE',  ( 0.000000000000000000, -0.000000000000000000, 1.000000000000000000 ) ) ;
#239 = CARTESIAN_POINT ( 'NONE',  ( -4.000000000000003553, 75.00000000000000000, 0.000000000000000000 ) ) ;
#240 = COLOUR_RGB ( '',1.000000000000000000, 0.000000000000000000, 0.000000000000000000 ) ;
#241 = AXIS2_PLACEMENT_3D ( 'NONE', #261, #8, #116 ) ;
#242 = ORIENTED_EDGE ( 'NONE', *, *, #220, .F. ) ;
#243 = FACE_OUTER_BOUND ( 'NONE', #185, .T. ) ;
#244 = FILL_AREA_STYLE_COLOUR ( '', #18 ) ;
#245 = DIRECTION ( 'NONE',  ( 0.000000000000000000, 0.000000000000000000, -1.000000000000000000 ) ) ;
#246 = DIRECTION ( 'NONE',  ( -1.000000000000000000, 0.000000000000000000, 0.000000000000000000 ) ) ;
#247 = UNCERTAINTY_MEASURE_WITH_UNIT (LENGTH_MEASURE( 1.000000000000000082E-05 ), #352, 'distance_accuracy_value', 'NONE');
#248 = EDGE_CURVE ( 'NONE', #43, #367, #95, .T. ) ;
#249 = DIRECTION ( 'NONE',  ( -0.000000000000000000, -1.000000000000000000, -0.000000000000000000 ) ) ;
#250 = MECHANICAL_DESIGN_GEOMETRIC_PRESENTATION_REPRESENTATION (  '', ( #120 ), #67 ) ;
#251 = AXIS2_PLACEMENT_3D ( 'NONE', #175, #86, #202 ) ;
#252 = ORIENTED_EDGE ( 'NONE', *, *, #183, .T. ) ;
#253 = DIRECTION ( 'NONE',  ( -1.000000000000000000, 0.000000000000000000, 0.000000000000000000 ) ) ;
#254 = ORIENTED_EDGE ( 'NONE', *, *, #198, .T. ) ;
#255 = FACE_OUTER_BOUND ( 'NONE', #359, .T. ) ;
#256 = DIRECTION ( 'NONE',  ( -0.000000000000000000, -1.000000000000000000, -0.000000000000000000 ) ) ;
#257 = EDGE_CURVE ( 'NONE', #81, #126, #365, .T. ) ;
#258 = CIRCLE ( 'NONE', #369, 4.000000000000001776 ) ;
#259 = TOROIDAL_SURFACE ( 'NONE', #189, 3.000000000000000000, 1.000000000000000000 ) ;
#260 = CARTESIAN_POINT ( 'NONE',  ( 0.000000000000000000, 1.000000000000000000, 0.000000000000000000 ) ) ;
#261 = CARTESIAN_POINT ( 'NONE',  ( -1.469576158976823750E-15, 75.00000000000000000, 0.000000000000000000 ) ) ;
#262 = CARTESIAN_POINT ( 'NONE',  ( 4.770489558936219510E-15, 24.00000000000000000, 0.000000000000000000 ) ) ;
#263 = APPLICATION_CONTEXT ( 'automotive_design' ) ;
#264 = SURFACE_STYLE_USAGE ( .BOTH. , #350 ) ;
#265 = COLOUR_RGB ( '',0.7921568627450980005, 0.8196078431372548767, 0.9333333333333333481 ) ;
#266 = MECHANICAL_DESIGN_GEOMETRIC_PRESENTATION_REPRESENTATION (  '', ( #12 ), #279 ) ;
#267 =( NAMED_UNIT ( * ) SI_UNIT ( $, .STERADIAN. ) SOLID_ANGLE_UNIT ( ) );
#268 = DIRECTION ( 'NONE',  ( 0.000000000000000000, 0.000000000000000000, -1.000000000000000000 ) ) ;
#269 = ADVANCED_FACE ( 'NONE', ( #255 ), #222, .T. ) ;
#270 = ORIENTED_EDGE ( 'NONE', *, *, #64, .F. ) ;
#271 = EDGE_LOOP ( 'NONE', ( #125, #97 ) ) ;
#272 = AXIS2_PLACEMENT_3D ( 'NONE', #232, #31, #238 ) ;
#273 = AXIS2_PLACEMENT_3D ( 'NONE', #59, #9, #199 ) ;
#274 = DIRECTION ( 'NONE',  ( 0.000000000000000000, 0.000000000000000000, 1.000000000000000000 ) ) ;
#275 = CYLINDRICAL_SURFACE ( 'NONE', #134, 3.999999999999998224 ) ;
#276 = VERTEX_POINT ( 'NONE', #35 ) ;
#277 = ORIENTED_EDGE ( 'NONE', *, *, #94, .F. ) ;
#278 =( NAMED_UNIT ( * ) PLANE_ANGLE_UNIT ( ) SI_UNIT ( $, .RADIAN. ) );
#279 =( GEOMETRIC_REPRESENTATION_CONTEXT ( 3 ) GLOBAL_UNCERTAINTY_ASSIGNED_CONTEXT ( ( #309 ) ) GLOBAL_UNIT_ASSIGNED_CONTEXT ( ( #80, #193, #219 ) ) REPRESENTATION_CONTEXT ( 'NONE', 'WORKASPACE' ) );
#280 = CARTESIAN_POINT ( 'NONE',  ( 0.000000000000000000, 1.000000000000000000, 0.000000000000000000 ) ) ;
#281 = MANIFOLD_SOLID_BREP ( 'Revolve - Tool Body (Straight Shanked)', #360 ) ;
#282 = SURFACE_SIDE_STYLE ('',( #105 ) ) ;
#283 = PRESENTATION_LAYER_ASSIGNMENT (  '', '', ( #184 ) ) ;
#284 = PRESENTATION_LAYER_ASSIGNMENT (  '', '', ( #212 ) ) ;
#285 = FILL_AREA_STYLE_COLOUR ( '', #33 ) ;
#286 =( NAMED_UNIT ( * ) SI_UNIT ( $, .STERADIAN. ) SOLID_ANGLE_UNIT ( ) );
#287 =( NAMED_UNIT ( * ) PLANE_ANGLE_UNIT ( ) SI_UNIT ( $, .RADIAN. ) );
#288 = CARTESIAN_POINT ( 'NONE',  ( 0.000000000000000000, 0.000000000000000000, -4.000000000000000000 ) ) ;
#289 =( LENGTH_UNIT ( ) NAMED_UNIT ( * ) SI_UNIT ( .MILLI., .METRE. ) );
#290 = SURFACE_STYLE_FILL_AREA ( #60 ) ;
#291 = AXIS2_PLACEMENT_3D ( 'NONE', #210, #20, #274 ) ;
#292 = AXIS2_PLACEMENT_3D ( 'NONE', #171, #197, #325 ) ;
#293 = SURFACE_STYLE_FILL_AREA ( #226 ) ;
#294 =( GEOMETRIC_REPRESENTATION_CONTEXT ( 3 ) GLOBAL_UNCERTAINTY_ASSIGNED_CONTEXT ( ( #247 ) ) GLOBAL_UNIT_ASSIGNED_CONTEXT ( ( #352, #65, #91 ) ) REPRESENTATION_CONTEXT ( 'NONE', 'WORKASPACE' ) );
#295 = SURFACE_SIDE_STYLE ('',( #147 ) ) ;
#296 = DIRECTION ( 'NONE',  ( -0.000000000000000000, -1.000000000000000000, -0.000000000000000000 ) ) ;
#297 = PRESENTATION_STYLE_ASSIGNMENT (( #118 ) ) ;
#298 = DIRECTION ( 'NONE',  ( 0.000000000000000000, 0.000000000000000000, -1.000000000000000000 ) ) ;
#299 = EDGE_LOOP ( 'NONE', ( #76, #44, #242, #270 ) ) ;
#300 = APPLICATION_PROTOCOL_DEFINITION ( 'draft international standard', 'automotive_design', 1998, #263 ) ;
#301 = AXIS2_PLACEMENT_3D ( 'NONE', #211, #303, #268 ) ;
#302 = STYLED_ITEM ( 'NONE', ( #227 ), #169 ) ;
#303 = DIRECTION ( 'NONE',  ( -0.000000000000000000, -1.000000000000000000, -0.000000000000000000 ) ) ;
#304 = UNCERTAINTY_MEASURE_WITH_UNIT (LENGTH_MEASURE( 1.000000000000000082E-05 ), #4, 'distance_accuracy_value', 'NONE');
#305 = DIRECTION ( 'NONE',  ( -1.223542297630008506E-16, 1.000000000000000000, -0.000000000000000000 ) ) ;
#306 = ORIENTED_EDGE ( 'NONE', *, *, #109, .F. ) ;
#307 = FILL_AREA_STYLE_COLOUR ( '', #240 ) ;
#308 = ORIENTED_EDGE ( 'NONE', *, *, #49, .T. ) ;
#309 = UNCERTAINTY_MEASURE_WITH_UNIT (LENGTH_MEASURE( 1.000000000000000082E-05 ), #80, 'distance_accuracy_value', 'NONE');
#310 = COLOUR_RGB ( '',0.7921568627450980005, 0.8196078431372548767, 0.9333333333333333481 ) ;
#311 = PRESENTATION_STYLE_ASSIGNMENT (( #191 ) ) ;
#312 = FACE_OUTER_BOUND ( 'NONE', #102, .T. ) ;
#313 = DIRECTION ( 'NONE',  ( 0.000000000000000000, 0.000000000000000000, -1.000000000000000000 ) ) ;
#314 = ORIENTED_EDGE ( 'NONE', *, *, #42, .F. ) ;
#315 = ORIENTED_EDGE ( 'NONE', *, *, #198, .F. ) ;
#316 = FILL_AREA_STYLE ('',( #285 ) ) ;
#317 = MECHANICAL_DESIGN_GEOMETRIC_PRESENTATION_REPRESENTATION (  '', ( #212 ), #201 ) ;
#318 = PRESENTATION_STYLE_ASSIGNMENT (( #103 ) ) ;
#319 = FILL_AREA_STYLE ('',( #213 ) ) ;
#320 = CLOSED_SHELL ( 'NONE', ( #169, #231, #141, #83, #269, #36 ) ) ;
#321 = CARTESIAN_POINT ( 'NONE',  ( 0.000000000000000000, 0.000000000000000000, 0.000000000000000000 ) ) ;
#322 = PLANE ( 'NONE',  #273 ) ;
#323 = DIRECTION ( 'NONE',  ( 0.000000000000000000, 0.000000000000000000, -1.000000000000000000 ) ) ;
#324 = COLOUR_RGB ( '',1.000000000000000000, 0.000000000000000000, 0.000000000000000000 ) ;
#325 = DIRECTION ( 'NONE',  ( 0.000000000000000000, 0.000000000000000000, -1.000000000000000000 ) ) ;
#326 =( NAMED_UNIT ( * ) SI_UNIT ( $, .STERADIAN. ) SOLID_ANGLE_UNIT ( ) );
#327 = SURFACE_STYLE_FILL_AREA ( #100 ) ;
#328 = CARTESIAN_POINT ( 'NONE',  ( 0.000000000000000000, 0.000000000000000000, 0.000000000000000000 ) ) ;
#329 = COLOUR_RGB ( '',1.000000000000000000, 0.000000000000000000, 0.000000000000000000 ) ;
#330 = AXIS2_PLACEMENT_3D ( 'NONE', #233, #2, #110 ) ;
#331 = DIRECTION ( 'NONE',  ( -1.000000000000000000, 0.000000000000000000, 0.000000000000000000 ) ) ;
#332 = CARTESIAN_POINT ( 'NONE',  ( -3.999999999999991562, 24.00000000000000000, 0.000000000000000000 ) ) ;
#333 = ORIENTED_EDGE ( 'NONE', *, *, #58, .F. ) ;
#334 = ORIENTED_EDGE ( 'NONE', *, *, #186, .F. ) ;
#335 =( GEOMETRIC_REPRESENTATION_CONTEXT ( 3 ) GLOBAL_UNCERTAINTY_ASSIGNED_CONTEXT ( ( #304 ) ) GLOBAL_UNIT_ASSIGNED_CONTEXT ( ( #4, #7, #66 ) ) REPRESENTATION_CONTEXT ( 'NONE', 'WORKASPACE' ) );
#336 = PRODUCT_DEFINITION_CONTEXT ( 'detailed design', #263, 'design' ) ;
#337 = CIRCLE ( 'NONE', #195, 4.000000000000000000 ) ;
#338 = ORIENTED_EDGE ( 'NONE', *, *, #64, .T. ) ;
#339 = FILL_AREA_STYLE_COLOUR ( '', #324 ) ;
#340 = ORIENTED_EDGE ( 'NONE', *, *, #58, .T. ) ;
#341 = EDGE_CURVE ( 'NONE', #48, #276, #23, .T. ) ;
#342 = PRESENTATION_STYLE_ASSIGNMENT (( #3 ) ) ;
#343 = SURFACE_STYLE_USAGE ( .BOTH. , #218 ) ;
#344 =( GEOMETRIC_REPRESENTATION_CONTEXT ( 3 ) GLOBAL_UNCERTAINTY_ASSIGNED_CONTEXT ( ( #132 ) ) GLOBAL_UNIT_ASSIGNED_CONTEXT ( ( #356, #176, #267 ) ) REPRESENTATION_CONTEXT ( 'NONE', 'WORKASPACE' ) );
#345 = STYLED_ITEM ( 'NONE', ( #162 ), #269 ) ;
#346 =( LENGTH_UNIT ( ) NAMED_UNIT ( * ) SI_UNIT ( .MILLI., .METRE. ) );
#347 = CIRCLE ( 'NONE', #235, 4.000000000000000000 ) ;
#348 =( GEOMETRIC_REPRESENTATION_CONTEXT ( 3 ) GLOBAL_UNCERTAINTY_ASSIGNED_CONTEXT ( ( #215 ) ) GLOBAL_UNIT_ASSIGNED_CONTEXT ( ( #289, #115, #286 ) ) REPRESENTATION_CONTEXT ( 'NONE', 'WORKASPACE' ) );
#349 =( NAMED_UNIT ( * ) SI_UNIT ( $, .STERADIAN. ) SOLID_ANGLE_UNIT ( ) );
#350 = SURFACE_SIDE_STYLE ('',( #290 ) ) ;
#351 = CARTESIAN_POINT ( 'NONE',  ( -4.000000000000000000, 75.00000000000000000, 0.000000000000000000 ) ) ;
#352 =( LENGTH_UNIT ( ) NAMED_UNIT ( * ) SI_UNIT ( .MILLI., .METRE. ) );
#353 = CIRCLE ( 'NONE', #188, 3.000000000000000000 ) ;
#354 = CIRCLE ( 'NONE', #40, 4.000000000000001776 ) ;
#355 = CARTESIAN_POINT ( 'NONE',  ( 0.000000000000000000, 1.000000000000000000, -4.000000000000000000 ) ) ;
#356 =( LENGTH_UNIT ( ) NAMED_UNIT ( * ) SI_UNIT ( .MILLI., .METRE. ) );
#357 = ADVANCED_FACE ( 'NONE', ( #150 ), #230, .T. ) ;
#358 = APPLICATION_PROTOCOL_DEFINITION ( 'draft international standard', 'automotive_design', 1998, #24 ) ;
#359 = EDGE_LOOP ( 'NONE', ( #277, #161, #338, #74 ) ) ;
#360 = CLOSED_SHELL ( 'NONE', ( #106, #84, #357, #177 ) ) ;
#361 = ORIENTED_EDGE ( 'NONE', *, *, #21, .F. ) ;
#362 = DIRECTION ( 'NONE',  ( -1.223542297630008506E-16, 1.000000000000000000, -0.000000000000000000 ) ) ;
#363 = PLANE ( 'NONE',  #272 ) ;
#364 = CIRCLE ( 'NONE', #22, 3.999999999999996447 ) ;
#365 = CIRCLE ( 'NONE', #89, 3.999999999999996447 ) ;
#366 = UNCERTAINTY_MEASURE_WITH_UNIT (LENGTH_MEASURE( 1.000000000000000082E-05 ), #217, 'distance_accuracy_value', 'NONE');
#367 = VERTEX_POINT ( 'NONE', #234 ) ;
#368 = SURFACE_STYLE_USAGE ( .BOTH. , #137 ) ;
#369 = AXIS2_PLACEMENT_3D ( 'NONE', #73, #305, #92 ) ;
#370 = ADVANCED_BREP_SHAPE_REPRESENTATION ( '59573', ( #37, #281, #166 ), #294 ) ;
ENDSEC;
END-ISO-10303-21;
