ISO-10303-21;
HEADER;
FILE_DESCRIPTION (( 'STEP AP214' ),
    '1' );
FILE_NAME ('Micro_GEC-625-2-060.STEP',
    '2021-09-03T17:25:54',
    ( '' ),
    ( '' ),
    'SwSTEP 2.0',
    'SolidWorks 2020',
    '' );
FILE_SCHEMA (( 'AUTOMOTIVE_DESIGN' ));
ENDSEC;

DATA;
#1 = CYLINDRICAL_SURFACE ( 'NONE', #168, 0.3125000000000000000 ) ;
#2 = DIRECTION ( 'NONE',  ( 1.000000000000000000, 0.0000000000000000000, 0.0000000000000000000 ) ) ;
#3 = LINE ( 'NONE', #322, #169 ) ;
#4 = CARTESIAN_POINT ( 'NONE',  ( 0.0000000000000000000, 0.0000000000000000000, 0.0000000000000000000 ) ) ;
#5 = ORIENTED_EDGE ( 'NONE', *, *, #138, .T. ) ;
#6 = CIRCLE ( 'NONE', #101, 0.3125000000000000000 ) ;
#7 =( GEOMETRIC_REPRESENTATION_CONTEXT ( 3 ) GLOBAL_UNCERTAINTY_ASSIGNED_CONTEXT ( ( #39 ) ) GLOBAL_UNIT_ASSIGNED_CONTEXT ( ( #64, #43, #238 ) ) REPRESENTATION_CONTEXT ( 'NONE', 'WORKASPACE' ) );
#8 = EDGE_CURVE ( 'NONE', #292, #26, #221, .T. ) ;
#9 = CYLINDRICAL_SURFACE ( 'NONE', #116, 0.3125000000000000000 ) ;
#10 = DIRECTION ( 'NONE',  ( -1.000000000000000000, 0.0000000000000000000, 0.0000000000000000000 ) ) ;
#11 = CIRCLE ( 'NONE', #186, 0.2821874999999999245 ) ;
#12 = CIRCLE ( 'NONE', #148, 0.2975000000000003197 ) ;
#13 = LENGTH_MEASURE_WITH_UNIT ( LENGTH_MEASURE( 0.02539999999999999897 ), #331 );
#14 = EDGE_CURVE ( 'NONE', #267, #178, #11, .T. ) ;
#15 = FACE_OUTER_BOUND ( 'NONE', #19, .T. ) ;
#16 = VECTOR ( 'NONE', #332, 39.37007874015748143 ) ;
#17 = STYLED_ITEM ( 'NONE', ( #134 ), #335 ) ;
#18 = CARTESIAN_POINT ( 'NONE',  ( 0.0000000000000000000, 0.0000000000000000000, 3.500000000000000000 ) ) ;
#19 = EDGE_LOOP ( 'NONE', ( #98, #86, #44, #151 ) ) ;
#20 = DIRECTION ( 'NONE',  ( 1.000000000000000000, 0.0000000000000000000, 0.0000000000000000000 ) ) ;
#21 = VERTEX_POINT ( 'NONE', #350 ) ;
#22 = DIRECTION ( 'NONE',  ( 0.0000000000000000000, 0.0000000000000000000, -1.000000000000000000 ) ) ;
#23 = MECHANICAL_DESIGN_GEOMETRIC_PRESENTATION_REPRESENTATION (  '', ( #115 ), #269 ) ;
#24 = PLANE ( 'NONE',  #204 ) ;
#25 = EDGE_LOOP ( 'NONE', ( #133, #5, #172, #230 ) ) ;
#26 = VERTEX_POINT ( 'NONE', #59 ) ;
#27 =( LENGTH_UNIT ( ) NAMED_UNIT ( * ) SI_UNIT ( $, .METRE. ) );
#28 = FACE_OUTER_BOUND ( 'NONE', #320, .T. ) ;
#29 = AXIS2_PLACEMENT_3D ( 'NONE', #257, #294, #240 ) ;
#30 = CARTESIAN_POINT ( 'NONE',  ( 1.530808498934191571E-16, 0.0000000000000000000, 1.250000000000000000 ) ) ;
#31 = DIRECTION ( 'NONE',  ( -0.0000000000000000000, -0.0000000000000000000, -1.000000000000000000 ) ) ;
#32 = CARTESIAN_POINT ( 'NONE',  ( -0.3124999999999998890, 0.0000000000000000000, 1.251772275568631132 ) ) ;
#33 = TOROIDAL_SURFACE ( 'NONE', #147, 0.2821874999999999245, 0.02999999999999999889 ) ;
#34 = PRODUCT_RELATED_PRODUCT_CATEGORY ( 'part', '', ( #87 ) ) ;
#35 = DIRECTION ( 'NONE',  ( 1.224646799147353207E-16, 1.000000000000000000, -0.0000000000000000000 ) ) ;
#36 = ADVANCED_FACE ( 'NONE', ( #328 ), #202, .T. ) ;
#37 = CARTESIAN_POINT ( 'NONE',  ( 3.673940397442059190E-18, 0.0000000000000000000, 0.02999999999999999889 ) ) ;
#38 = CARTESIAN_POINT ( 'NONE',  ( 0.0000000000000000000, 0.0000000000000000000, 3.500000000000000000 ) ) ;
#39 = UNCERTAINTY_MEASURE_WITH_UNIT (LENGTH_MEASURE( 1.000000000000000082E-05 ), #64, 'distance_accuracy_value', 'NONE');
#40 = VECTOR ( 'NONE', #157, 39.37007874015748143 ) ;
#41 = VERTEX_POINT ( 'NONE', #32 ) ;
#42 = DIRECTION ( 'NONE',  ( 1.000000000000000000, 0.0000000000000000000, -0.0000000000000000000 ) ) ;
#43 =( NAMED_UNIT ( * ) PLANE_ANGLE_UNIT ( ) SI_UNIT ( $, .RADIAN. ) );
#44 = ORIENTED_EDGE ( 'NONE', *, *, #208, .T. ) ;
#45 = ORIENTED_EDGE ( 'NONE', *, *, #166, .T. ) ;
#46 = LINE ( 'NONE', #69, #273 ) ;
#47 = EDGE_LOOP ( 'NONE', ( #339, #210 ) ) ;
#48 =( GEOMETRIC_REPRESENTATION_CONTEXT ( 3 ) GLOBAL_UNCERTAINTY_ASSIGNED_CONTEXT ( ( #122 ) ) GLOBAL_UNIT_ASSIGNED_CONTEXT ( ( #329, #242, #188 ) ) REPRESENTATION_CONTEXT ( 'NONE', 'WORKASPACE' ) );
#49 = FACE_OUTER_BOUND ( 'NONE', #47, .T. ) ;
#50 = DIMENSIONAL_EXPONENTS ( 1.000000000000000000, 0.0000000000000000000, 0.0000000000000000000, 0.0000000000000000000, 0.0000000000000000000, 0.0000000000000000000, 0.0000000000000000000 ) ;
#51 = EDGE_LOOP ( 'NONE', ( #128, #201, #283, #131 ) ) ;
#52 = DIRECTION ( 'NONE',  ( 1.000000000000000000, 0.0000000000000000000, 0.0000000000000000000 ) ) ;
#53 = LINE ( 'NONE', #243, #251 ) ;
#54 = ADVANCED_FACE ( 'NONE', ( #28 ), #300, .T. ) ;
#55 = DIRECTION ( 'NONE',  ( 1.000000000000000000, 0.0000000000000000000, 0.0000000000000000000 ) ) ;
#56 = ORIENTED_EDGE ( 'NONE', *, *, #112, .F. ) ;
#57 = CIRCLE ( 'NONE', #154, 0.3121874999999998956 ) ;
#58 = LINE ( 'NONE', #123, #222 ) ;
#59 = CARTESIAN_POINT ( 'NONE',  ( -0.3125000000000000000, 0.0000000000000000000, 3.484999999999999432 ) ) ;
#60 = CONICAL_SURFACE ( 'NONE', #234, 0.3121874999999998956, 0.1745329251994340303 ) ;
#61 = COLOUR_RGB ( '',0.7921568627450980005, 0.8196078431372548767, 0.9333333333333333481 ) ;
#62 = EDGE_CURVE ( 'NONE', #307, #125, #100, .T. ) ;
#63 = DIRECTION ( 'NONE',  ( 1.000000000000000000, 0.0000000000000000000, 0.0000000000000000000 ) ) ;
#64 =( CONVERSION_BASED_UNIT ( 'INCH', #281 ) LENGTH_UNIT ( ) NAMED_UNIT ( #108 ) );
#65 = ADVANCED_FACE ( 'NONE', ( #141 ), #1, .T. ) ;
#66 = ORIENTED_EDGE ( 'NONE', *, *, #8, .F. ) ;
#67 = DIRECTION ( 'NONE',  ( -1.224646799147353207E-16, -0.0000000000000000000, -1.000000000000000000 ) ) ;
#68 = ORIENTED_EDGE ( 'NONE', *, *, #265, .F. ) ;
#69 = CARTESIAN_POINT ( 'NONE',  ( -0.3121874999999998956, 0.0000000000000000000, 3.823194226088142147E-17 ) ) ;
#70 = FACE_OUTER_BOUND ( 'NONE', #228, .T. ) ;
#71 = ADVANCED_FACE ( 'NONE', ( #241 ), #219, .T. ) ;
#72 = ORIENTED_EDGE ( 'NONE', *, *, #223, .T. ) ;
#73 =( LENGTH_UNIT ( ) NAMED_UNIT ( * ) SI_UNIT ( $, .METRE. ) );
#74 = ORIENTED_EDGE ( 'NONE', *, *, #112, .T. ) ;
#75 = DIRECTION ( 'NONE',  ( 1.000000000000000000, 0.0000000000000000000, 0.0000000000000000000 ) ) ;
#76 = ORIENTED_EDGE ( 'NONE', *, *, #197, .F. ) ;
#77 = CIRCLE ( 'NONE', #334, 0.3121874999999998956 ) ;
#78 = DIRECTION ( 'NONE',  ( 1.000000000000000000, 0.0000000000000000000, 0.0000000000000000000 ) ) ;
#79 = DIRECTION ( 'NONE',  ( 0.7071067811865346942, 8.659560562354773853E-17, -0.7071067811865603403 ) ) ;
#80 = CARTESIAN_POINT ( 'NONE',  ( 1.530808498934191571E-16, 0.0000000000000000000, 1.250000000000000000 ) ) ;
#81 = DIRECTION ( 'NONE',  ( 0.1736481776669315247, 0.0000000000000000000, 0.9848077530122077983 ) ) ;
#82 = DIRECTION ( 'NONE',  ( 1.000000000000000000, 0.0000000000000000000, 0.0000000000000000000 ) ) ;
#83 = SURFACE_STYLE_USAGE ( .BOTH. , #110 ) ;
#84 = CARTESIAN_POINT ( 'NONE',  ( 3.673940397442059190E-18, 0.0000000000000000000, 0.0000000000000000000 ) ) ;
#85 = COLOUR_RGB ( '',0.7921568627450980005, 0.8196078431372548767, 0.9333333333333333481 ) ;
#86 = ORIENTED_EDGE ( 'NONE', *, *, #197, .T. ) ;
#87 = PRODUCT ( 'Micro_GEC-625-2-060', 'Micro_GEC-625-2-060', '', ( #177 ) ) ;
#88 = ORIENTED_EDGE ( 'NONE', *, *, #229, .T. ) ;
#89 = CIRCLE ( 'NONE', #130, 0.3125000000000000000 ) ;
#90 = CARTESIAN_POINT ( 'NONE',  ( -0.2821874999999999245, 3.455800186343936382E-17, 0.02999999999999999889 ) ) ;
#91 = AXIS2_PLACEMENT_3D ( 'NONE', #30, #117, #82 ) ;
#92 = CIRCLE ( 'NONE', #226, 0.2821874999999999245 ) ;
#93 = CARTESIAN_POINT ( 'NONE',  ( -0.2821874999999999245, 3.639497206216039572E-17, 0.0000000000000000000 ) ) ;
#94 = SURFACE_STYLE_FILL_AREA ( #312 ) ;
#95 = VERTEX_POINT ( 'NONE', #184 ) ;
#96 = CARTESIAN_POINT ( 'NONE',  ( 0.3125000000000001665, 3.827021247335480159E-17, 1.251772275568631132 ) ) ;
#97 = SURFACE_STYLE_USAGE ( .BOTH. , #346 ) ;
#98 = ORIENTED_EDGE ( 'NONE', *, *, #163, .F. ) ;
#99 = CYLINDRICAL_SURFACE ( 'NONE', #195, 0.3121874999999998956 ) ;
#100 = CIRCLE ( 'NONE', #143, 0.3121874999999998956 ) ;
#101 = AXIS2_PLACEMENT_3D ( 'NONE', #271, #185, #2 ) ;
#102 = ORIENTED_EDGE ( 'NONE', *, *, #138, .F. ) ;
#103 = LINE ( 'NONE', #105, #137 ) ;
#104 = EDGE_LOOP ( 'NONE', ( #56, #206, #258, #76 ) ) ;
#105 = CARTESIAN_POINT ( 'NONE',  ( -0.3125000000000000000, 0.0000000000000000000, 3.500000000000000000 ) ) ;
#106 = MANIFOLD_SOLID_BREP ( 'Fillet1', #120 ) ;
#107 = ORIENTED_EDGE ( 'NONE', *, *, #265, .T. ) ;
#108 = DIMENSIONAL_EXPONENTS ( 1.000000000000000000, 0.0000000000000000000, 0.0000000000000000000, 0.0000000000000000000, 0.0000000000000000000, 0.0000000000000000000, 0.0000000000000000000 ) ;
#109 = DIRECTION ( 'NONE',  ( 1.224646799147353207E-16, 0.0000000000000000000, 1.000000000000000000 ) ) ;
#110 = SURFACE_SIDE_STYLE ('',( #164 ) ) ;
#111 = DIRECTION ( 'NONE',  ( -0.0000000000000000000, -0.0000000000000000000, -1.000000000000000000 ) ) ;
#112 = EDGE_CURVE ( 'NONE', #181, #95, #3, .T. ) ;
#113 = FILL_AREA_STYLE_COLOUR ( '', #61 ) ;
#114 = DIRECTION ( 'NONE',  ( -1.000000000000000000, 0.0000000000000000000, 0.0000000000000000000 ) ) ;
#115 = STYLED_ITEM ( 'NONE', ( #211 ), #106 ) ;
#116 = AXIS2_PLACEMENT_3D ( 'NONE', #38, #224, #10 ) ;
#117 = DIRECTION ( 'NONE',  ( 1.224646799147353207E-16, 0.0000000000000000000, 1.000000000000000000 ) ) ;
#118 = EDGE_CURVE ( 'NONE', #125, #236, #53, .T. ) ;
#119 = CARTESIAN_POINT ( 'NONE',  ( 0.2821874999999999245, 0.0000000000000000000, 0.0000000000000000000 ) ) ;
#120 = CLOSED_SHELL ( 'NONE', ( #36, #318, #336, #225, #65, #171, #297, #71, #54, #235, #282, #126 ) ) ;
#121 = CIRCLE ( 'NONE', #190, 0.02999999999999999889 ) ;
#122 = UNCERTAINTY_MEASURE_WITH_UNIT (LENGTH_MEASURE( 1.000000000000000082E-05 ), #329, 'distance_accuracy_value', 'NONE');
#123 = CARTESIAN_POINT ( 'NONE',  ( 0.3125000000000000000, 3.827021247335478926E-17, 3.500000000000000000 ) ) ;
#124 = EDGE_LOOP ( 'NONE', ( #255, #45, #88, #262 ) ) ;
#125 = VERTEX_POINT ( 'NONE', #313 ) ;
#126 = ADVANCED_FACE ( 'NONE', ( #70 ), #33, .T. ) ;
#127 = CARTESIAN_POINT ( 'NONE',  ( -0.3121874999999997846, 3.825107736711810845E-17, 1.250000000000000000 ) ) ;
#128 = ORIENTED_EDGE ( 'NONE', *, *, #340, .T. ) ;
#129 = FACE_OUTER_BOUND ( 'NONE', #239, .T. ) ;
#130 = AXIS2_PLACEMENT_3D ( 'NONE', #175, #316, #341 ) ;
#131 = ORIENTED_EDGE ( 'NONE', *, *, #208, .F. ) ;
#132 = DIRECTION ( 'NONE',  ( -0.0000000000000000000, -0.0000000000000000000, -1.000000000000000000 ) ) ;
#133 = ORIENTED_EDGE ( 'NONE', *, *, #327, .F. ) ;
#134 = PRESENTATION_STYLE_ASSIGNMENT (( #97 ) ) ;
#135 = DIRECTION ( 'NONE',  ( 0.0000000000000000000, 0.0000000000000000000, 1.000000000000000000 ) ) ;
#136 = DIRECTION ( 'NONE',  ( -1.224646799147353207E-16, -0.0000000000000000000, -1.000000000000000000 ) ) ;
#137 = VECTOR ( 'NONE', #132, 39.37007874015748143 ) ;
#138 = EDGE_CURVE ( 'NONE', #125, #307, #77, .T. ) ;
#139 = EDGE_CURVE ( 'NONE', #178, #267, #92, .T. ) ;
#140 = PRODUCT_DEFINITION_CONTEXT ( 'detailed design', #326, 'design' ) ;
#141 = FACE_OUTER_BOUND ( 'NONE', #51, .T. ) ;
#142 = DIRECTION ( 'NONE',  ( -1.000000000000000000, 1.224646799147353454E-16, 0.0000000000000000000 ) ) ;
#143 = AXIS2_PLACEMENT_3D ( 'NONE', #80, #245, #182 ) ;
#144 = CONICAL_SURFACE ( 'NONE', #295, 0.2975000000000003197, 0.7853981633974300713 ) ;
#145 = CARTESIAN_POINT ( 'NONE',  ( 0.2975000000000003197, 3.735172737399428256E-17, 3.500000000000000000 ) ) ;
#146 = DIRECTION ( 'NONE',  ( 0.0000000000000000000, 0.0000000000000000000, 1.000000000000000000 ) ) ;
#147 = AXIS2_PLACEMENT_3D ( 'NONE', #37, #196, #78 ) ;
#148 = AXIS2_PLACEMENT_3D ( 'NONE', #319, #200, #153 ) ;
#149 = ORIENTED_EDGE ( 'NONE', *, *, #223, .F. ) ;
#150 = CARTESIAN_POINT ( 'NONE',  ( 3.673940397442059960E-18, 0.0000000000000000000, 0.03000000000000000583 ) ) ;
#151 = ORIENTED_EDGE ( 'NONE', *, *, #214, .F. ) ;
#152 = ORIENTED_EDGE ( 'NONE', *, *, #118, .T. ) ;
#153 = DIRECTION ( 'NONE',  ( 1.000000000000000000, 0.0000000000000000000, 0.0000000000000000000 ) ) ;
#154 = AXIS2_PLACEMENT_3D ( 'NONE', #150, #254, #20 ) ;
#155 = ORIENTED_EDGE ( 'NONE', *, *, #139, .F. ) ;
#156 = VERTEX_POINT ( 'NONE', #212 ) ;
#157 = DIRECTION ( 'NONE',  ( -1.224646799147353207E-16, -0.0000000000000000000, -1.000000000000000000 ) ) ;
#158 = APPLICATION_PROTOCOL_DEFINITION ( 'draft international standard', 'automotive_design', 1998, #272 ) ;
#159 = VECTOR ( 'NONE', #165, 39.37007874015748143 ) ;
#160 = ORIENTED_EDGE ( 'NONE', *, *, #340, .F. ) ;
#161 = PRODUCT_DEFINITION_SHAPE ( 'NONE', 'NONE',  #309 ) ;
#162 = DIRECTION ( 'NONE',  ( 1.000000000000000000, 0.0000000000000000000, 0.0000000000000000000 ) ) ;
#163 = EDGE_CURVE ( 'NONE', #95, #236, #58, .T. ) ;
#164 = SURFACE_STYLE_FILL_AREA ( #218 ) ;
#165 = DIRECTION ( 'NONE',  ( -0.1736481776669313026, 2.126576849575784549E-17, 0.9848077530122077983 ) ) ;
#166 = EDGE_CURVE ( 'NONE', #307, #41, #277, .T. ) ;
#167 = DIRECTION ( 'NONE',  ( 1.000000000000000000, 0.0000000000000000000, 0.0000000000000000000 ) ) ;
#168 = AXIS2_PLACEMENT_3D ( 'NONE', #323, #248, #114 ) ;
#169 = VECTOR ( 'NONE', #79, 39.37007874015748143 ) ;
#170 = CARTESIAN_POINT ( 'NONE',  ( 0.2821874999999999245, 0.0000000000000000000, 0.02999999999999999889 ) ) ;
#171 = ADVANCED_FACE ( 'NONE', ( #15 ), #9, .T. ) ;
#172 = ORIENTED_EDGE ( 'NONE', *, *, #279, .T. ) ;
#173 = CIRCLE ( 'NONE', #250, 0.3125000000000000000 ) ;
#174 = ORIENTED_EDGE ( 'NONE', *, *, #189, .F. ) ;
#175 = CARTESIAN_POINT ( 'NONE',  ( 1.532978910536522803E-16, 0.0000000000000000000, 1.251772275568631132 ) ) ;
#176 = ORIENTED_EDGE ( 'NONE', *, *, #298, .F. ) ;
#177 = PRODUCT_CONTEXT ( 'NONE', #272, 'mechanical' ) ;
#178 = VERTEX_POINT ( 'NONE', #119 ) ;
#179 = DIRECTION ( 'NONE',  ( 1.000000000000000000, 0.0000000000000000000, 0.0000000000000000000 ) ) ;
#180 = AXIS2_PLACEMENT_3D ( 'NONE', #338, #237, #280 ) ;
#181 = VERTEX_POINT ( 'NONE', #145 ) ;
#182 = DIRECTION ( 'NONE',  ( -1.000000000000000000, 0.0000000000000000000, 0.0000000000000000000 ) ) ;
#183 = DIRECTION ( 'NONE',  ( -1.224646799147353207E-16, -0.0000000000000000000, -1.000000000000000000 ) ) ;
#184 = CARTESIAN_POINT ( 'NONE',  ( 0.3125000000000000000, 3.827021247335478926E-17, 3.484999999999999432 ) ) ;
#185 = DIRECTION ( 'NONE',  ( 0.0000000000000000000, 0.0000000000000000000, -1.000000000000000000 ) ) ;
#186 = AXIS2_PLACEMENT_3D ( 'NONE', #302, #31, #162 ) ;
#187 = CARTESIAN_POINT ( 'NONE',  ( 3.673940397442059190E-18, 0.0000000000000000000, 0.02999999999999999889 ) ) ;
#188 =( NAMED_UNIT ( * ) SI_UNIT ( $, .STERADIAN. ) SOLID_ANGLE_UNIT ( ) );
#189 = EDGE_CURVE ( 'NONE', #267, #21, #244, .T. ) ;
#190 = AXIS2_PLACEMENT_3D ( 'NONE', #170, #290, #308 ) ;
#191 = CARTESIAN_POINT ( 'NONE',  ( -0.3121874999999997846, 3.823194226088142147E-17, 1.250000000000000000 ) ) ;
#192 =( CONVERSION_BASED_UNIT ( 'INCH', #13 ) LENGTH_UNIT ( ) NAMED_UNIT ( #50 ) );
#193 = CARTESIAN_POINT ( 'NONE',  ( 3.673940397442059960E-18, 0.0000000000000000000, 0.03000000000000000583 ) ) ;
#194 = EDGE_CURVE ( 'NONE', #21, #156, #284, .T. ) ;
#195 = AXIS2_PLACEMENT_3D ( 'NONE', #4, #183, #217 ) ;
#196 = DIRECTION ( 'NONE',  ( 0.0000000000000000000, 0.0000000000000000000, 1.000000000000000000 ) ) ;
#197 = EDGE_CURVE ( 'NONE', #95, #26, #321, .T. ) ;
#198 = APPLICATION_PROTOCOL_DEFINITION ( 'draft international standard', 'automotive_design', 1998, #326 ) ;
#199 = EDGE_LOOP ( 'NONE', ( #344, #296, #176, #68 ) ) ;
#200 = DIRECTION ( 'NONE',  ( 0.0000000000000000000, 0.0000000000000000000, 1.000000000000000000 ) ) ;
#201 = ORIENTED_EDGE ( 'NONE', *, *, #163, .T. ) ;
#202 = TOROIDAL_SURFACE ( 'NONE', #249, 0.2821874999999999245, 0.02999999999999999889 ) ;
#203 = DIRECTION ( 'NONE',  ( -1.224646799147353207E-16, -0.0000000000000000000, -1.000000000000000000 ) ) ;
#204 = AXIS2_PLACEMENT_3D ( 'NONE', #285, #209, #42 ) ;
#205 =( NAMED_UNIT ( * ) PLANE_ANGLE_UNIT ( ) SI_UNIT ( $, .RADIAN. ) );
#206 = ORIENTED_EDGE ( 'NONE', *, *, #253, .F. ) ;
#207 = DIRECTION ( 'NONE',  ( -1.000000000000000000, 0.0000000000000000000, 1.224646799147353207E-16 ) ) ;
#208 = EDGE_CURVE ( 'NONE', #26, #41, #103, .T. ) ;
#209 = DIRECTION ( 'NONE',  ( 0.0000000000000000000, 0.0000000000000000000, 1.000000000000000000 ) ) ;
#210 = ORIENTED_EDGE ( 'NONE', *, *, #14, .T. ) ;
#211 = PRESENTATION_STYLE_ASSIGNMENT (( #83 ) ) ;
#212 = CARTESIAN_POINT ( 'NONE',  ( 0.3121874999999998956, 3.823194226088142147E-17, 0.03000000000000000583 ) ) ;
#213 = CARTESIAN_POINT ( 'NONE',  ( 1.530808498934191571E-16, 0.0000000000000000000, 1.250000000000000000 ) ) ;
#214 = EDGE_CURVE ( 'NONE', #236, #41, #173, .T. ) ;
#215 = DIRECTION ( 'NONE',  ( -1.000000000000000000, 0.0000000000000000000, 0.0000000000000000000 ) ) ;
#216 = DIRECTION ( 'NONE',  ( -1.000000000000000000, 0.0000000000000000000, 0.0000000000000000000 ) ) ;
#217 = DIRECTION ( 'NONE',  ( -1.000000000000000000, 0.0000000000000000000, 1.224646799147353207E-16 ) ) ;
#218 = FILL_AREA_STYLE ('',( #113 ) ) ;
#219 = CONICAL_SURFACE ( 'NONE', #259, 0.2975000000000003197, 0.7853981633974300713 ) ;
#220 = CIRCLE ( 'NONE', #337, 0.2975000000000003197 ) ;
#221 = LINE ( 'NONE', #270, #16 ) ;
#222 = VECTOR ( 'NONE', #278, 39.37007874015748143 ) ;
#223 = EDGE_CURVE ( 'NONE', #181, #292, #220, .T. ) ;
#224 = DIRECTION ( 'NONE',  ( -0.0000000000000000000, -0.0000000000000000000, -1.000000000000000000 ) ) ;
#225 = ADVANCED_FACE ( 'NONE', ( #129 ), #144, .T. ) ;
#226 = AXIS2_PLACEMENT_3D ( 'NONE', #84, #111, #324 ) ;
#227 = CARTESIAN_POINT ( 'NONE',  ( 0.0000000000000000000, 0.0000000000000000000, 3.500000000000000000 ) ) ;
#228 = EDGE_LOOP ( 'NONE', ( #174, #155, #107, #266 ) ) ;
#229 = EDGE_CURVE ( 'NONE', #41, #236, #89, .T. ) ;
#230 = ORIENTED_EDGE ( 'NONE', *, *, #194, .T. ) ;
#231 = FACE_OUTER_BOUND ( 'NONE', #347, .T. ) ;
#232 =( NAMED_UNIT ( * ) SI_UNIT ( $, .STERADIAN. ) SOLID_ANGLE_UNIT ( ) );
#233 = CARTESIAN_POINT ( 'NONE',  ( 1.532978910536522803E-16, 0.0000000000000000000, 1.251772275568631132 ) ) ;
#234 = AXIS2_PLACEMENT_3D ( 'NONE', #213, #109, #52 ) ;
#235 = ADVANCED_FACE ( 'NONE', ( #293 ), #311, .T. ) ;
#236 = VERTEX_POINT ( 'NONE', #96 ) ;
#237 = DIRECTION ( 'NONE',  ( 0.0000000000000000000, 0.0000000000000000000, 1.000000000000000000 ) ) ;
#238 =( NAMED_UNIT ( * ) SI_UNIT ( $, .STERADIAN. ) SOLID_ANGLE_UNIT ( ) );
#239 = EDGE_LOOP ( 'NONE', ( #149, #74, #160, #66 ) ) ;
#240 = DIRECTION ( 'NONE',  ( 1.000000000000000000, 0.0000000000000000000, 0.0000000000000000000 ) ) ;
#241 = FACE_OUTER_BOUND ( 'NONE', #104, .T. ) ;
#242 =( NAMED_UNIT ( * ) PLANE_ANGLE_UNIT ( ) SI_UNIT ( $, .RADIAN. ) );
#243 = CARTESIAN_POINT ( 'NONE',  ( 0.3121875000000000622, 0.0000000000000000000, 1.250000000000000000 ) ) ;
#244 = CIRCLE ( 'NONE', #351, 0.02999999999999998848 ) ;
#245 = DIRECTION ( 'NONE',  ( -1.224646799147353207E-16, -0.0000000000000000000, -1.000000000000000000 ) ) ;
#246 = CARTESIAN_POINT ( 'NONE',  ( 0.0000000000000000000, 0.0000000000000000000, 3.500000000000000000 ) ) ;
#247 = DIRECTION ( 'NONE',  ( 0.0000000000000000000, 0.0000000000000000000, -1.000000000000000000 ) ) ;
#248 = DIRECTION ( 'NONE',  ( -0.0000000000000000000, -0.0000000000000000000, -1.000000000000000000 ) ) ;
#249 = AXIS2_PLACEMENT_3D ( 'NONE', #187, #135, #55 ) ;
#250 = AXIS2_PLACEMENT_3D ( 'NONE', #233, #260, #63 ) ;
#251 = VECTOR ( 'NONE', #81, 39.37007874015748143 ) ;
#252 = ORIENTED_EDGE ( 'NONE', *, *, #253, .T. ) ;
#253 = EDGE_CURVE ( 'NONE', #292, #181, #12, .T. ) ;
#254 = DIRECTION ( 'NONE',  ( 0.0000000000000000000, 0.0000000000000000000, 1.000000000000000000 ) ) ;
#255 = ORIENTED_EDGE ( 'NONE', *, *, #62, .F. ) ;
#256 = DIRECTION ( 'NONE',  ( -1.000000000000000000, 0.0000000000000000000, 0.0000000000000000000 ) ) ;
#257 = CARTESIAN_POINT ( 'NONE',  ( 0.0000000000000000000, 0.0000000000000000000, 0.0000000000000000000 ) ) ;
#258 = ORIENTED_EDGE ( 'NONE', *, *, #8, .T. ) ;
#259 = AXIS2_PLACEMENT_3D ( 'NONE', #246, #247, #215 ) ;
#260 = DIRECTION ( 'NONE',  ( -1.224646799147353207E-16, -0.0000000000000000000, -1.000000000000000000 ) ) ;
#261 = AXIS2_PLACEMENT_3D ( 'NONE', #287, #203, #207 ) ;
#262 = ORIENTED_EDGE ( 'NONE', *, *, #118, .F. ) ;
#263 = CARTESIAN_POINT ( 'NONE',  ( -0.2975000000000003197, 0.0000000000000000000, 3.500000000000000000 ) ) ;
#264 = FILL_AREA_STYLE_COLOUR ( '', #85 ) ;
#265 = EDGE_CURVE ( 'NONE', #178, #156, #121, .T. ) ;
#266 = ORIENTED_EDGE ( 'NONE', *, *, #194, .F. ) ;
#267 = VERTEX_POINT ( 'NONE', #93 ) ;
#268 = CARTESIAN_POINT ( 'NONE',  ( 0.3121874999999998956, 3.823194226088142147E-17, -3.823194226088142147E-17 ) ) ;
#269 =( GEOMETRIC_REPRESENTATION_CONTEXT ( 3 ) GLOBAL_UNCERTAINTY_ASSIGNED_CONTEXT ( ( #333 ) ) GLOBAL_UNIT_ASSIGNED_CONTEXT ( ( #192, #205, #232 ) ) REPRESENTATION_CONTEXT ( 'NONE', 'WORKASPACE' ) );
#270 = CARTESIAN_POINT ( 'NONE',  ( -0.2975000000000003197, 0.0000000000000000000, 3.500000000000000000 ) ) ;
#271 = CARTESIAN_POINT ( 'NONE',  ( 0.0000000000000000000, 0.0000000000000000000, 3.484999999999999432 ) ) ;
#272 = APPLICATION_CONTEXT ( 'automotive_design' ) ;
#273 = VECTOR ( 'NONE', #67, 39.37007874015748143 ) ;
#274 = CARTESIAN_POINT ( 'NONE',  ( 0.0000000000000000000, 0.0000000000000000000, 3.484999999999999432 ) ) ;
#275 = PRESENTATION_LAYER_ASSIGNMENT (  '', '', ( #17 ) ) ;
#276 = PRODUCT_DEFINITION_FORMATION_WITH_SPECIFIED_SOURCE ( 'ANY', '', #87, .NOT_KNOWN. ) ;
#277 = LINE ( 'NONE', #191, #159 ) ;
#278 = DIRECTION ( 'NONE',  ( -0.0000000000000000000, -0.0000000000000000000, -1.000000000000000000 ) ) ;
#279 = EDGE_CURVE ( 'NONE', #307, #21, #46, .T. ) ;
#280 = DIRECTION ( 'NONE',  ( 1.000000000000000000, 0.0000000000000000000, -0.0000000000000000000 ) ) ;
#281 = LENGTH_MEASURE_WITH_UNIT ( LENGTH_MEASURE( 0.02539999999999999897 ), #73 );
#282 = ADVANCED_FACE ( 'NONE', ( #49 ), #24, .F. ) ;
#283 = ORIENTED_EDGE ( 'NONE', *, *, #229, .F. ) ;
#284 = CIRCLE ( 'NONE', #304, 0.3121874999999998956 ) ;
#285 = CARTESIAN_POINT ( 'NONE',  ( 0.0000000000000000000, 0.0000000000000000000, 0.0000000000000000000 ) ) ;
#286 = ORIENTED_EDGE ( 'NONE', *, *, #62, .T. ) ;
#287 = CARTESIAN_POINT ( 'NONE',  ( 0.0000000000000000000, 0.0000000000000000000, 0.0000000000000000000 ) ) ;
#288 = CARTESIAN_POINT ( 'NONE',  ( 1.530808498934191571E-16, 0.0000000000000000000, 1.250000000000000000 ) ) ;
#289 = ORIENTED_EDGE ( 'NONE', *, *, #327, .T. ) ;
#290 = DIRECTION ( 'NONE',  ( 0.0000000000000000000, -1.000000000000000000, 0.0000000000000000000 ) ) ;
#291 = SHAPE_DEFINITION_REPRESENTATION ( #161, #335 ) ;
#292 = VERTEX_POINT ( 'NONE', #263 ) ;
#293 = FACE_OUTER_BOUND ( 'NONE', #25, .T. ) ;
#294 = DIRECTION ( 'NONE',  ( 0.0000000000000000000, 0.0000000000000000000, 1.000000000000000000 ) ) ;
#295 = AXIS2_PLACEMENT_3D ( 'NONE', #18, #345, #256 ) ;
#296 = ORIENTED_EDGE ( 'NONE', *, *, #189, .T. ) ;
#297 = ADVANCED_FACE ( 'NONE', ( #343 ), #306, .T. ) ;
#298 = EDGE_CURVE ( 'NONE', #156, #21, #57, .T. ) ;
#299 = FACE_OUTER_BOUND ( 'NONE', #124, .T. ) ;
#300 = CONICAL_SURFACE ( 'NONE', #91, 0.3121874999999998956, 0.1745329251994340303 ) ;
#301 = AXIS2_PLACEMENT_3D ( 'NONE', #274, #22, #179 ) ;
#302 = CARTESIAN_POINT ( 'NONE',  ( 3.673940397442059190E-18, 0.0000000000000000000, 0.0000000000000000000 ) ) ;
#303 = PRESENTATION_LAYER_ASSIGNMENT (  '', '', ( #115 ) ) ;
#304 = AXIS2_PLACEMENT_3D ( 'NONE', #193, #305, #167 ) ;
#305 = DIRECTION ( 'NONE',  ( 0.0000000000000000000, 0.0000000000000000000, 1.000000000000000000 ) ) ;
#306 = PLANE ( 'NONE',  #180 ) ;
#307 = VERTEX_POINT ( 'NONE', #127 ) ;
#308 = DIRECTION ( 'NONE',  ( 0.0000000000000000000, 0.0000000000000000000, -1.000000000000000000 ) ) ;
#309 = PRODUCT_DEFINITION ( 'UNKNOWN', '', #276, #140 ) ;
#310 = ORIENTED_EDGE ( 'NONE', *, *, #279, .F. ) ;
#311 = CYLINDRICAL_SURFACE ( 'NONE', #261, 0.3121874999999998956 ) ;
#312 = FILL_AREA_STYLE ('',( #264 ) ) ;
#313 = CARTESIAN_POINT ( 'NONE',  ( 0.3121875000000000622, 0.0000000000000000000, 1.250000000000000000 ) ) ;
#314 = EDGE_LOOP ( 'NONE', ( #252, #72 ) ) ;
#315 = DIMENSIONAL_EXPONENTS ( 1.000000000000000000, 0.0000000000000000000, 0.0000000000000000000, 0.0000000000000000000, 0.0000000000000000000, 0.0000000000000000000, 0.0000000000000000000 ) ;
#316 = DIRECTION ( 'NONE',  ( -1.224646799147353207E-16, -0.0000000000000000000, -1.000000000000000000 ) ) ;
#317 = ORIENTED_EDGE ( 'NONE', *, *, #214, .T. ) ;
#318 = ADVANCED_FACE ( 'NONE', ( #231 ), #99, .T. ) ;
#319 = CARTESIAN_POINT ( 'NONE',  ( 0.0000000000000000000, 0.0000000000000000000, 3.500000000000000000 ) ) ;
#320 = EDGE_LOOP ( 'NONE', ( #342, #102, #152, #317 ) ) ;
#321 = CIRCLE ( 'NONE', #301, 0.3125000000000000000 ) ;
#322 = CARTESIAN_POINT ( 'NONE',  ( 0.2975000000000003197, 3.643324227463378817E-17, 3.500000000000000000 ) ) ;
#323 = CARTESIAN_POINT ( 'NONE',  ( 0.0000000000000000000, 0.0000000000000000000, 3.500000000000000000 ) ) ;
#324 = DIRECTION ( 'NONE',  ( 1.000000000000000000, 0.0000000000000000000, 0.0000000000000000000 ) ) ;
#325 = LENGTH_MEASURE_WITH_UNIT ( LENGTH_MEASURE( 0.02539999999999999897 ), #27 );
#326 = APPLICATION_CONTEXT ( 'automotive_design' ) ;
#327 = EDGE_CURVE ( 'NONE', #125, #156, #349, .T. ) ;
#328 = FACE_OUTER_BOUND ( 'NONE', #199, .T. ) ;
#329 =( CONVERSION_BASED_UNIT ( 'INCH', #325 ) LENGTH_UNIT ( ) NAMED_UNIT ( #315 ) );
#330 = MECHANICAL_DESIGN_GEOMETRIC_PRESENTATION_REPRESENTATION (  '', ( #17 ), #7 ) ;
#331 =( LENGTH_UNIT ( ) NAMED_UNIT ( * ) SI_UNIT ( $, .METRE. ) );
#332 = DIRECTION ( 'NONE',  ( -0.7071067811865346942, 0.0000000000000000000, -0.7071067811865603403 ) ) ;
#333 = UNCERTAINTY_MEASURE_WITH_UNIT (LENGTH_MEASURE( 1.000000000000000082E-05 ), #192, 'distance_accuracy_value', 'NONE');
#334 = AXIS2_PLACEMENT_3D ( 'NONE', #288, #136, #216 ) ;
#335 = ADVANCED_BREP_SHAPE_REPRESENTATION ( 'Micro_GEC-625-2-060', ( #106, #29 ), #48 ) ;
#336 = ADVANCED_FACE ( 'NONE', ( #299 ), #60, .T. ) ;
#337 = AXIS2_PLACEMENT_3D ( 'NONE', #227, #146, #75 ) ;
#338 = CARTESIAN_POINT ( 'NONE',  ( 0.0000000000000000000, 0.0000000000000000000, 3.500000000000000000 ) ) ;
#339 = ORIENTED_EDGE ( 'NONE', *, *, #139, .T. ) ;
#340 = EDGE_CURVE ( 'NONE', #26, #95, #6, .T. ) ;
#341 = DIRECTION ( 'NONE',  ( 1.000000000000000000, 0.0000000000000000000, 0.0000000000000000000 ) ) ;
#342 = ORIENTED_EDGE ( 'NONE', *, *, #166, .F. ) ;
#343 = FACE_OUTER_BOUND ( 'NONE', #314, .T. ) ;
#344 = ORIENTED_EDGE ( 'NONE', *, *, #14, .F. ) ;
#345 = DIRECTION ( 'NONE',  ( 0.0000000000000000000, 0.0000000000000000000, -1.000000000000000000 ) ) ;
#346 = SURFACE_SIDE_STYLE ('',( #94 ) ) ;
#347 = EDGE_LOOP ( 'NONE', ( #286, #289, #348, #310 ) ) ;
#348 = ORIENTED_EDGE ( 'NONE', *, *, #298, .T. ) ;
#349 = LINE ( 'NONE', #268, #40 ) ;
#350 = CARTESIAN_POINT ( 'NONE',  ( -0.3121874999999998956, 0.0000000000000000000, 0.03000000000000000583 ) ) ;
#351 = AXIS2_PLACEMENT_3D ( 'NONE', #90, #35, #142 ) ;
ENDSEC;
END-ISO-10303-21;
