ISO-10303-21;
HEADER;
FILE_DESCRIPTION (( 'STEP AP214' ),
    '1' );
FILE_NAME ('Micro_RSCM-050-1X.STEP',
    '2021-09-03T17:57:26',
    ( '' ),
    ( '' ),
    'SwSTEP 2.0',
    'SolidWorks 2020',
    '' );
FILE_SCHEMA (( 'AUTOMOTIVE_DESIGN' ));
ENDSEC;

DATA;
#1 = ADVANCED_FACE ( 'NONE', ( #16 ), #12, .F. ) ;
#2 = CIRCLE ( 'NONE', #219, 0.003936999999999995191 ) ;
#3 = ADVANCED_BREP_SHAPE_REPRESENTATION ( 'Micro_RSCM-050-1X', ( #223, #73 ), #177 ) ;
#4 = DIRECTION ( 'NONE',  ( 1.000000000000000000, 0.0000000000000000000, 0.0000000000000000000 ) ) ;
#5 = VERTEX_POINT ( 'NONE', #134 ) ;
#6 = LENGTH_MEASURE_WITH_UNIT ( LENGTH_MEASURE( 0.02539999999999999897 ), #8 );
#7 = CARTESIAN_POINT ( 'NONE',  ( 0.0000000000000000000, 0.0000000000000000000, 1.968503999999999809 ) ) ;
#8 =( LENGTH_UNIT ( ) NAMED_UNIT ( * ) SI_UNIT ( $, .METRE. ) );
#9 = ORIENTED_EDGE ( 'NONE', *, *, #144, .F. ) ;
#10 = APPLICATION_CONTEXT ( 'automotive_design' ) ;
#11 = ADVANCED_FACE ( 'NONE', ( #188 ), #13, .T. ) ;
#12 = PLANE ( 'NONE',  #81 ) ;
#13 = CONICAL_SURFACE ( 'NONE', #103, 0.003936999999999995191, 0.5235987755983005920 ) ;
#14 = DIRECTION ( 'NONE',  ( -0.0000000000000000000, -0.0000000000000000000, -1.000000000000000000 ) ) ;
#15 = DIRECTION ( 'NONE',  ( -0.5000000000000013323, 6.123233995736782060E-17, 0.8660254037844377084 ) ) ;
#16 = FACE_OUTER_BOUND ( 'NONE', #168, .T. ) ;
#17 = ORIENTED_EDGE ( 'NONE', *, *, #25, .T. ) ;
#18 = VECTOR ( 'NONE', #31, 39.37007874015748854 ) ;
#19 = CARTESIAN_POINT ( 'NONE',  ( 0.09842500000000001248, 1.205358612060782468E-17, 1.968503999999999809 ) ) ;
#20 = PRODUCT_DEFINITION ( 'UNKNOWN', '', #136, #172 ) ;
#21 = SHAPE_DEFINITION_REPRESENTATION ( #60, #3 ) ;
#22 = DIRECTION ( 'NONE',  ( -1.000000000000000000, 0.0000000000000000000, 0.0000000000000000000 ) ) ;
#23 = AXIS2_PLACEMENT_3D ( 'NONE', #108, #234, #232 ) ;
#24 = DIRECTION ( 'NONE',  ( 1.000000000000000000, 0.0000000000000000000, 0.0000000000000000000 ) ) ;
#25 = EDGE_CURVE ( 'NONE', #206, #187, #38, .T. ) ;
#26 = DIRECTION ( 'NONE',  ( -1.000000000000000000, 0.0000000000000000000, 0.0000000000000000000 ) ) ;
#27 = EDGE_LOOP ( 'NONE', ( #9, #17, #39, #165 ) ) ;
#28 = VECTOR ( 'NONE', #14, 39.37007874015748143 ) ;
#29 = SURFACE_SIDE_STYLE ('',( #116 ) ) ;
#30 = AXIS2_PLACEMENT_3D ( 'NONE', #90, #72, #4 ) ;
#31 = DIRECTION ( 'NONE',  ( -0.7071067811865430208, 0.0000000000000000000, -0.7071067811865517916 ) ) ;
#32 = CIRCLE ( 'NONE', #30, 0.08342499999999994365 ) ;
#33 = ADVANCED_FACE ( 'NONE', ( #137 ), #222, .T. ) ;
#34 = ORIENTED_EDGE ( 'NONE', *, *, #159, .T. ) ;
#35 = CARTESIAN_POINT ( 'NONE',  ( 0.0000000000000000000, 0.0000000000000000000, 0.0000000000000000000 ) ) ;
#36 = APPLICATION_CONTEXT ( 'automotive_design' ) ;
#37 = VECTOR ( 'NONE', #190, 39.37007874015748854 ) ;
#38 = LINE ( 'NONE', #77, #196 ) ;
#39 = ORIENTED_EDGE ( 'NONE', *, *, #217, .F. ) ;
#40 = CIRCLE ( 'NONE', #112, 0.09842500000000001248 ) ;
#41 =( CONVERSION_BASED_UNIT ( 'INCH', #247 ) LENGTH_UNIT ( ) NAMED_UNIT ( #78 ) );
#42 = ADVANCED_FACE ( 'NONE', ( #123 ), #237, .T. ) ;
#43 = DIRECTION ( 'NONE',  ( 0.0000000000000000000, 0.0000000000000000000, -1.000000000000000000 ) ) ;
#44 = LINE ( 'NONE', #19, #213 ) ;
#45 = FACE_OUTER_BOUND ( 'NONE', #204, .T. ) ;
#46 = PRODUCT_RELATED_PRODUCT_CATEGORY ( 'part', '', ( #122 ) ) ;
#47 = EDGE_CURVE ( 'NONE', #97, #99, #120, .T. ) ;
#48 = AXIS2_PLACEMENT_3D ( 'NONE', #64, #132, #202 ) ;
#49 = SURFACE_STYLE_USAGE ( .BOTH. , #141 ) ;
#50 = EDGE_LOOP ( 'NONE', ( #56, #58, #224, #167 ) ) ;
#51 = DIRECTION ( 'NONE',  ( -1.000000000000000000, 0.0000000000000000000, 0.0000000000000000000 ) ) ;
#52 = CIRCLE ( 'NONE', #227, 0.09842500000000001248 ) ;
#53 = CONICAL_SURFACE ( 'NONE', #83, 0.08342499999999994365, 0.7853981633974420618 ) ;
#54 = DIRECTION ( 'NONE',  ( -0.0000000000000000000, -0.0000000000000000000, -1.000000000000000000 ) ) ;
#55 = CARTESIAN_POINT ( 'NONE',  ( 0.0000000000000000000, 0.0000000000000000000, 0.0000000000000000000 ) ) ;
#56 = ORIENTED_EDGE ( 'NONE', *, *, #47, .F. ) ;
#57 = PRODUCT_CONTEXT ( 'NONE', #10, 'mechanical' ) ;
#58 = ORIENTED_EDGE ( 'NONE', *, *, #91, .F. ) ;
#59 = ORIENTED_EDGE ( 'NONE', *, *, #199, .T. ) ;
#60 = PRODUCT_DEFINITION_SHAPE ( 'NONE', 'NONE',  #20 ) ;
#61 = VERTEX_POINT ( 'NONE', #75 ) ;
#62 = AXIS2_PLACEMENT_3D ( 'NONE', #189, #249, #211 ) ;
#63 = DIRECTION ( 'NONE',  ( 0.0000000000000000000, 0.0000000000000000000, 1.000000000000000000 ) ) ;
#64 = CARTESIAN_POINT ( 'NONE',  ( 0.0000000000000000000, 0.0000000000000000000, 1.968503999999999809 ) ) ;
#65 = AXIS2_PLACEMENT_3D ( 'NONE', #105, #171, #87 ) ;
#66 = DIRECTION ( 'NONE',  ( -0.0000000000000000000, -0.0000000000000000000, -1.000000000000000000 ) ) ;
#67 = CARTESIAN_POINT ( 'NONE',  ( -0.003936999999999995191, 6.267864782716068801E-18, 0.0000000000000000000 ) ) ;
#68 = LINE ( 'NONE', #142, #37 ) ;
#69 = DIRECTION ( 'NONE',  ( 1.000000000000000000, 0.0000000000000000000, 0.0000000000000000000 ) ) ;
#70 = CONICAL_SURFACE ( 'NONE', #166, 0.003936999999999995191, 0.5235987755983005920 ) ;
#71 =( NAMED_UNIT ( * ) PLANE_ANGLE_UNIT ( ) SI_UNIT ( $, .RADIAN. ) );
#72 = DIRECTION ( 'NONE',  ( 0.0000000000000000000, 0.0000000000000000000, 1.000000000000000000 ) ) ;
#73 = AXIS2_PLACEMENT_3D ( 'NONE', #55, #89, #146 ) ;
#74 = EDGE_LOOP ( 'NONE', ( #163, #169, #59, #152 ) ) ;
#75 = CARTESIAN_POINT ( 'NONE',  ( 0.003936999999999995191, 0.0000000000000000000, 0.0000000000000000000 ) ) ;
#76 = AXIS2_PLACEMENT_3D ( 'NONE', #7, #54, #51 ) ;
#77 = CARTESIAN_POINT ( 'NONE',  ( 0.08342499999999994365, 1.021661592188678507E-17, 1.968503999999999809 ) ) ;
#78 = DIMENSIONAL_EXPONENTS ( 1.000000000000000000, 0.0000000000000000000, 0.0000000000000000000, 0.0000000000000000000, 0.0000000000000000000, 0.0000000000000000000, 0.0000000000000000000 ) ;
#79 = CARTESIAN_POINT ( 'NONE',  ( 0.0000000000000000000, 0.0000000000000000000, 1.968503999999999809 ) ) ;
#80 = UNCERTAINTY_MEASURE_WITH_UNIT (LENGTH_MEASURE( 1.000000000000000082E-05 ), #128, 'distance_accuracy_value', 'NONE');
#81 = AXIS2_PLACEMENT_3D ( 'NONE', #139, #63, #100 ) ;
#82 = ORIENTED_EDGE ( 'NONE', *, *, #229, .T. ) ;
#83 = AXIS2_PLACEMENT_3D ( 'NONE', #125, #43, #26 ) ;
#84 =( LENGTH_UNIT ( ) NAMED_UNIT ( * ) SI_UNIT ( $, .METRE. ) );
#85 = CARTESIAN_POINT ( 'NONE',  ( 0.0000000000000000000, 0.0000000000000000000, 1.953503999999999685 ) ) ;
#86 = PRESENTATION_LAYER_ASSIGNMENT (  '', '', ( #185 ) ) ;
#87 = DIRECTION ( 'NONE',  ( -1.000000000000000000, 0.0000000000000000000, 0.0000000000000000000 ) ) ;
#88 = DIRECTION ( 'NONE',  ( -1.000000000000000000, 0.0000000000000000000, 0.0000000000000000000 ) ) ;
#89 = DIRECTION ( 'NONE',  ( 0.0000000000000000000, 0.0000000000000000000, 1.000000000000000000 ) ) ;
#90 = CARTESIAN_POINT ( 'NONE',  ( 0.0000000000000000000, 0.0000000000000000000, 1.968503999999999809 ) ) ;
#91 = EDGE_CURVE ( 'NONE', #61, #97, #2, .T. ) ;
#92 = CARTESIAN_POINT ( 'NONE',  ( -0.08342499999999994365, 0.0000000000000000000, 1.968503999999999809 ) ) ;
#93 = CIRCLE ( 'NONE', #62, 0.08342499999999994365 ) ;
#94 = EDGE_CURVE ( 'NONE', #200, #99, #203, .T. ) ;
#95 = MECHANICAL_DESIGN_GEOMETRIC_PRESENTATION_REPRESENTATION (  '', ( #185 ), #209 ) ;
#96 = ORIENTED_EDGE ( 'NONE', *, *, #91, .T. ) ;
#97 = VERTEX_POINT ( 'NONE', #67 ) ;
#98 = DIMENSIONAL_EXPONENTS ( 1.000000000000000000, 0.0000000000000000000, 0.0000000000000000000, 0.0000000000000000000, 0.0000000000000000000, 0.0000000000000000000, 0.0000000000000000000 ) ;
#99 = VERTEX_POINT ( 'NONE', #107 ) ;
#100 = DIRECTION ( 'NONE',  ( 1.000000000000000000, 0.0000000000000000000, -0.0000000000000000000 ) ) ;
#101 = UNCERTAINTY_MEASURE_WITH_UNIT (LENGTH_MEASURE( 1.000000000000000082E-05 ), #41, 'distance_accuracy_value', 'NONE');
#102 = EDGE_CURVE ( 'NONE', #61, #5, #68, .T. ) ;
#103 = AXIS2_PLACEMENT_3D ( 'NONE', #246, #207, #242 ) ;
#104 = DIRECTION ( 'NONE',  ( 0.7071067811865430208, 8.659560562354874926E-17, -0.7071067811865517916 ) ) ;
#105 = CARTESIAN_POINT ( 'NONE',  ( 0.0000000000000000000, 0.0000000000000000000, 0.0000000000000000000 ) ) ;
#106 =( NAMED_UNIT ( * ) PLANE_ANGLE_UNIT ( ) SI_UNIT ( $, .RADIAN. ) );
#107 = CARTESIAN_POINT ( 'NONE',  ( -0.09842500000000001248, 0.0000000000000000000, 0.1636580167055674828 ) ) ;
#108 = CARTESIAN_POINT ( 'NONE',  ( 0.0000000000000000000, 0.0000000000000000000, 1.953503999999999685 ) ) ;
#109 = FACE_OUTER_BOUND ( 'NONE', #50, .T. ) ;
#110 = EDGE_CURVE ( 'NONE', #187, #200, #40, .T. ) ;
#111 = PRESENTATION_STYLE_ASSIGNMENT (( #178 ) ) ;
#112 = AXIS2_PLACEMENT_3D ( 'NONE', #85, #212, #69 ) ;
#113 = CYLINDRICAL_SURFACE ( 'NONE', #76, 0.09842500000000001248 ) ;
#114 =( NAMED_UNIT ( * ) SI_UNIT ( $, .STERADIAN. ) SOLID_ANGLE_UNIT ( ) );
#115 = PRESENTATION_LAYER_ASSIGNMENT (  '', '', ( #145 ) ) ;
#116 = SURFACE_STYLE_FILL_AREA ( #236 ) ;
#117 = ORIENTED_EDGE ( 'NONE', *, *, #198, .T. ) ;
#118 = CARTESIAN_POINT ( 'NONE',  ( -0.09842500000000001248, 0.0000000000000000000, 1.968503999999999809 ) ) ;
#119 = AXIS2_PLACEMENT_3D ( 'NONE', #192, #231, #22 ) ;
#120 = LINE ( 'NONE', #186, #135 ) ;
#121 = ORIENTED_EDGE ( 'NONE', *, *, #199, .F. ) ;
#122 = PRODUCT ( 'Micro_RSCM-050-1X', 'Micro_RSCM-050-1X', '', ( #57 ) ) ;
#123 = FACE_OUTER_BOUND ( 'NONE', #27, .T. ) ;
#124 = LINE ( 'NONE', #92, #18 ) ;
#125 = CARTESIAN_POINT ( 'NONE',  ( 0.0000000000000000000, 0.0000000000000000000, 1.968503999999999809 ) ) ;
#126 = AXIS2_PLACEMENT_3D ( 'NONE', #214, #157, #88 ) ;
#127 = CYLINDRICAL_SURFACE ( 'NONE', #119, 0.09842500000000001248 ) ;
#128 =( CONVERSION_BASED_UNIT ( 'INCH', #218 ) LENGTH_UNIT ( ) NAMED_UNIT ( #98 ) );
#129 = ORIENTED_EDGE ( 'NONE', *, *, #217, .T. ) ;
#130 = AXIS2_PLACEMENT_3D ( 'NONE', #79, #154, #239 ) ;
#131 = APPLICATION_PROTOCOL_DEFINITION ( 'draft international standard', 'automotive_design', 1998, #36 ) ;
#132 = DIRECTION ( 'NONE',  ( 0.0000000000000000000, 0.0000000000000000000, -1.000000000000000000 ) ) ;
#133 = DIRECTION ( 'NONE',  ( -1.000000000000000000, 0.0000000000000000000, 0.0000000000000000000 ) ) ;
#134 = CARTESIAN_POINT ( 'NONE',  ( 0.09842500000000001248, 1.205358612060782468E-17, 0.1636580167055674828 ) ) ;
#135 = VECTOR ( 'NONE', #15, 39.37007874015748854 ) ;
#136 = PRODUCT_DEFINITION_FORMATION_WITH_SPECIFIED_SOURCE ( 'ANY', '', #122, .NOT_KNOWN. ) ;
#137 = FACE_OUTER_BOUND ( 'NONE', #182, .T. ) ;
#138 = ADVANCED_FACE ( 'NONE', ( #45 ), #127, .T. ) ;
#139 = CARTESIAN_POINT ( 'NONE',  ( 0.0000000000000000000, 0.0000000000000000000, 0.0000000000000000000 ) ) ;
#140 = FACE_OUTER_BOUND ( 'NONE', #241, .T. ) ;
#141 = SURFACE_SIDE_STYLE ('',( #233 ) ) ;
#142 = CARTESIAN_POINT ( 'NONE',  ( 0.003936999999999995191, 0.0000000000000000000, 0.0000000000000000000 ) ) ;
#143 = CARTESIAN_POINT ( 'NONE',  ( 0.0000000000000000000, 0.0000000000000000000, 0.1636580167055674828 ) ) ;
#144 = EDGE_CURVE ( 'NONE', #206, #150, #93, .T. ) ;
#145 = STYLED_ITEM ( 'NONE', ( #174 ), #223 ) ;
#146 = DIRECTION ( 'NONE',  ( 1.000000000000000000, 0.0000000000000000000, 0.0000000000000000000 ) ) ;
#147 =( LENGTH_UNIT ( ) NAMED_UNIT ( * ) SI_UNIT ( $, .METRE. ) );
#148 =( NAMED_UNIT ( * ) SI_UNIT ( $, .STERADIAN. ) SOLID_ANGLE_UNIT ( ) );
#149 = DIMENSIONAL_EXPONENTS ( 1.000000000000000000, 0.0000000000000000000, 0.0000000000000000000, 0.0000000000000000000, 0.0000000000000000000, 0.0000000000000000000, 0.0000000000000000000 ) ;
#150 = VERTEX_POINT ( 'NONE', #156 ) ;
#151 = DIRECTION ( 'NONE',  ( -0.0000000000000000000, -0.0000000000000000000, -1.000000000000000000 ) ) ;
#152 = ORIENTED_EDGE ( 'NONE', *, *, #102, .F. ) ;
#153 = ORIENTED_EDGE ( 'NONE', *, *, #94, .T. ) ;
#154 = DIRECTION ( 'NONE',  ( 0.0000000000000000000, 0.0000000000000000000, 1.000000000000000000 ) ) ;
#155 = CARTESIAN_POINT ( 'NONE',  ( 0.0000000000000000000, 0.0000000000000000000, 0.0000000000000000000 ) ) ;
#156 = CARTESIAN_POINT ( 'NONE',  ( -0.08342499999999994365, 0.0000000000000000000, 1.968503999999999809 ) ) ;
#157 = DIRECTION ( 'NONE',  ( -0.0000000000000000000, -0.0000000000000000000, -1.000000000000000000 ) ) ;
#158 = FILL_AREA_STYLE ('',( #230 ) ) ;
#159 = EDGE_CURVE ( 'NONE', #187, #5, #44, .T. ) ;
#160 = CARTESIAN_POINT ( 'NONE',  ( 0.08342499999999994365, 1.113510102124730410E-17, 1.968503999999999809 ) ) ;
#161 = FACE_OUTER_BOUND ( 'NONE', #170, .T. ) ;
#162 =( NAMED_UNIT ( * ) SI_UNIT ( $, .STERADIAN. ) SOLID_ANGLE_UNIT ( ) );
#163 = ORIENTED_EDGE ( 'NONE', *, *, #198, .F. ) ;
#164 = ORIENTED_EDGE ( 'NONE', *, *, #110, .F. ) ;
#165 = ORIENTED_EDGE ( 'NONE', *, *, #229, .F. ) ;
#166 = AXIS2_PLACEMENT_3D ( 'NONE', #155, #248, #24 ) ;
#167 = ORIENTED_EDGE ( 'NONE', *, *, #197, .T. ) ;
#168 = EDGE_LOOP ( 'NONE', ( #96, #117 ) ) ;
#169 = ORIENTED_EDGE ( 'NONE', *, *, #47, .T. ) ;
#170 = EDGE_LOOP ( 'NONE', ( #129, #34, #121, #195 ) ) ;
#171 = DIRECTION ( 'NONE',  ( -0.0000000000000000000, -0.0000000000000000000, -1.000000000000000000 ) ) ;
#172 = PRODUCT_DEFINITION_CONTEXT ( 'detailed design', #36, 'design' ) ;
#173 = CARTESIAN_POINT ( 'NONE',  ( 0.09842500000000001248, 1.205358612060782468E-17, 1.953503999999999685 ) ) ;
#174 = PRESENTATION_STYLE_ASSIGNMENT (( #49 ) ) ;
#175 = DIRECTION ( 'NONE',  ( -0.0000000000000000000, -0.0000000000000000000, -1.000000000000000000 ) ) ;
#176 = ORIENTED_EDGE ( 'NONE', *, *, #243, .T. ) ;
#177 =( GEOMETRIC_REPRESENTATION_CONTEXT ( 3 ) GLOBAL_UNCERTAINTY_ASSIGNED_CONTEXT ( ( #80 ) ) GLOBAL_UNIT_ASSIGNED_CONTEXT ( ( #128, #216, #148 ) ) REPRESENTATION_CONTEXT ( 'NONE', 'WORKASPACE' ) );
#178 = SURFACE_STYLE_USAGE ( .BOTH. , #29 ) ;
#179 =( CONVERSION_BASED_UNIT ( 'INCH', #6 ) LENGTH_UNIT ( ) NAMED_UNIT ( #149 ) );
#180 = CLOSED_SHELL ( 'NONE', ( #11, #42, #240, #138, #33, #208, #181, #1 ) ) ;
#181 = ADVANCED_FACE ( 'NONE', ( #109 ), #70, .T. ) ;
#182 = EDGE_LOOP ( 'NONE', ( #176, #184 ) ) ;
#183 = ORIENTED_EDGE ( 'NONE', *, *, #110, .T. ) ;
#184 = ORIENTED_EDGE ( 'NONE', *, *, #144, .T. ) ;
#185 = STYLED_ITEM ( 'NONE', ( #111 ), #3 ) ;
#186 = CARTESIAN_POINT ( 'NONE',  ( -0.003936999999999995191, 4.821434448243123477E-19, 0.0000000000000000000 ) ) ;
#187 = VERTEX_POINT ( 'NONE', #173 ) ;
#188 = FACE_OUTER_BOUND ( 'NONE', #74, .T. ) ;
#189 = CARTESIAN_POINT ( 'NONE',  ( 0.0000000000000000000, 0.0000000000000000000, 1.968503999999999809 ) ) ;
#190 = DIRECTION ( 'NONE',  ( 0.5000000000000013323, 0.0000000000000000000, 0.8660254037844377084 ) ) ;
#191 = CIRCLE ( 'NONE', #126, 0.09842500000000001248 ) ;
#192 = CARTESIAN_POINT ( 'NONE',  ( 0.0000000000000000000, 0.0000000000000000000, 1.968503999999999809 ) ) ;
#193 = DIRECTION ( 'NONE',  ( -1.000000000000000000, 0.0000000000000000000, 0.0000000000000000000 ) ) ;
#194 = APPLICATION_PROTOCOL_DEFINITION ( 'draft international standard', 'automotive_design', 1998, #10 ) ;
#195 = ORIENTED_EDGE ( 'NONE', *, *, #94, .F. ) ;
#196 = VECTOR ( 'NONE', #104, 39.37007874015748854 ) ;
#197 = EDGE_CURVE ( 'NONE', #5, #99, #52, .T. ) ;
#198 = EDGE_CURVE ( 'NONE', #97, #61, #235, .T. ) ;
#199 = EDGE_CURVE ( 'NONE', #99, #5, #191, .T. ) ;
#200 = VERTEX_POINT ( 'NONE', #210 ) ;
#201 = CIRCLE ( 'NONE', #23, 0.09842500000000001248 ) ;
#202 = DIRECTION ( 'NONE',  ( -1.000000000000000000, 0.0000000000000000000, 0.0000000000000000000 ) ) ;
#203 = LINE ( 'NONE', #118, #28 ) ;
#204 = EDGE_LOOP ( 'NONE', ( #228, #183, #153, #226 ) ) ;
#205 = MECHANICAL_DESIGN_GEOMETRIC_PRESENTATION_REPRESENTATION (  '', ( #145 ), #220 ) ;
#206 = VERTEX_POINT ( 'NONE', #160 ) ;
#207 = DIRECTION ( 'NONE',  ( 0.0000000000000000000, 0.0000000000000000000, 1.000000000000000000 ) ) ;
#208 = ADVANCED_FACE ( 'NONE', ( #140 ), #53, .T. ) ;
#209 =( GEOMETRIC_REPRESENTATION_CONTEXT ( 3 ) GLOBAL_UNCERTAINTY_ASSIGNED_CONTEXT ( ( #245 ) ) GLOBAL_UNIT_ASSIGNED_CONTEXT ( ( #179, #71, #162 ) ) REPRESENTATION_CONTEXT ( 'NONE', 'WORKASPACE' ) );
#210 = CARTESIAN_POINT ( 'NONE',  ( -0.09842500000000001248, 0.0000000000000000000, 1.953503999999999685 ) ) ;
#211 = DIRECTION ( 'NONE',  ( 1.000000000000000000, 0.0000000000000000000, 0.0000000000000000000 ) ) ;
#212 = DIRECTION ( 'NONE',  ( 0.0000000000000000000, 0.0000000000000000000, -1.000000000000000000 ) ) ;
#213 = VECTOR ( 'NONE', #66, 39.37007874015748143 ) ;
#214 = CARTESIAN_POINT ( 'NONE',  ( 0.0000000000000000000, 0.0000000000000000000, 0.1636580167055674828 ) ) ;
#215 = COLOUR_RGB ( '',0.7921568627450980005, 0.8196078431372548767, 0.9333333333333333481 ) ;
#216 =( NAMED_UNIT ( * ) PLANE_ANGLE_UNIT ( ) SI_UNIT ( $, .RADIAN. ) );
#217 = EDGE_CURVE ( 'NONE', #200, #187, #201, .T. ) ;
#218 = LENGTH_MEASURE_WITH_UNIT ( LENGTH_MEASURE( 0.02539999999999999897 ), #147 );
#219 = AXIS2_PLACEMENT_3D ( 'NONE', #35, #151, #133 ) ;
#220 =( GEOMETRIC_REPRESENTATION_CONTEXT ( 3 ) GLOBAL_UNCERTAINTY_ASSIGNED_CONTEXT ( ( #101 ) ) GLOBAL_UNIT_ASSIGNED_CONTEXT ( ( #41, #106, #114 ) ) REPRESENTATION_CONTEXT ( 'NONE', 'WORKASPACE' ) );
#221 = FILL_AREA_STYLE_COLOUR ( '', #238 ) ;
#222 = PLANE ( 'NONE',  #130 ) ;
#223 = MANIFOLD_SOLID_BREP ( 'Cut-Revolve1', #180 ) ;
#224 = ORIENTED_EDGE ( 'NONE', *, *, #102, .T. ) ;
#225 = ORIENTED_EDGE ( 'NONE', *, *, #25, .F. ) ;
#226 = ORIENTED_EDGE ( 'NONE', *, *, #197, .F. ) ;
#227 = AXIS2_PLACEMENT_3D ( 'NONE', #143, #175, #193 ) ;
#228 = ORIENTED_EDGE ( 'NONE', *, *, #159, .F. ) ;
#229 = EDGE_CURVE ( 'NONE', #150, #200, #124, .T. ) ;
#230 = FILL_AREA_STYLE_COLOUR ( '', #215 ) ;
#231 = DIRECTION ( 'NONE',  ( -0.0000000000000000000, -0.0000000000000000000, -1.000000000000000000 ) ) ;
#232 = DIRECTION ( 'NONE',  ( 1.000000000000000000, 0.0000000000000000000, 0.0000000000000000000 ) ) ;
#233 = SURFACE_STYLE_FILL_AREA ( #158 ) ;
#234 = DIRECTION ( 'NONE',  ( 0.0000000000000000000, 0.0000000000000000000, -1.000000000000000000 ) ) ;
#235 = CIRCLE ( 'NONE', #65, 0.003936999999999995191 ) ;
#236 = FILL_AREA_STYLE ('',( #221 ) ) ;
#237 = CONICAL_SURFACE ( 'NONE', #48, 0.08342499999999994365, 0.7853981633974420618 ) ;
#238 = COLOUR_RGB ( '',0.7921568627450980005, 0.8196078431372548767, 0.9333333333333333481 ) ;
#239 = DIRECTION ( 'NONE',  ( 1.000000000000000000, 0.0000000000000000000, -0.0000000000000000000 ) ) ;
#240 = ADVANCED_FACE ( 'NONE', ( #161 ), #113, .T. ) ;
#241 = EDGE_LOOP ( 'NONE', ( #225, #244, #82, #164 ) ) ;
#242 = DIRECTION ( 'NONE',  ( 1.000000000000000000, 0.0000000000000000000, 0.0000000000000000000 ) ) ;
#243 = EDGE_CURVE ( 'NONE', #150, #206, #32, .T. ) ;
#244 = ORIENTED_EDGE ( 'NONE', *, *, #243, .F. ) ;
#245 = UNCERTAINTY_MEASURE_WITH_UNIT (LENGTH_MEASURE( 1.000000000000000082E-05 ), #179, 'distance_accuracy_value', 'NONE');
#246 = CARTESIAN_POINT ( 'NONE',  ( 0.0000000000000000000, 0.0000000000000000000, 0.0000000000000000000 ) ) ;
#247 = LENGTH_MEASURE_WITH_UNIT ( LENGTH_MEASURE( 0.02539999999999999897 ), #84 );
#248 = DIRECTION ( 'NONE',  ( 0.0000000000000000000, 0.0000000000000000000, 1.000000000000000000 ) ) ;
#249 = DIRECTION ( 'NONE',  ( 0.0000000000000000000, 0.0000000000000000000, 1.000000000000000000 ) ) ;
ENDSEC;
END-ISO-10303-21;
