ISO-10303-21;
HEADER;
FILE_DESCRIPTION (( 'STEP AP214' ),
    '1' );
FILE_NAME ('30722.STEP',
    '2023-06-22T19:05:14',
    ( '' ),
    ( '' ),
    'SwSTEP 2.0',
    'SolidWorks 2023',
    '' );
FILE_SCHEMA (( 'AUTOMOTIVE_DESIGN' ));
ENDSEC;

DATA;
#1 = MECHANICAL_DESIGN_GEOMETRIC_PRESENTATION_REPRESENTATION (  '', ( #84 ), #266 ) ;
#2 = FILL_AREA_STYLE ('',( #170 ) ) ;
#3 = FILL_AREA_STYLE_COLOUR ( '', #216 ) ;
#4 = APPLICATION_PROTOCOL_DEFINITION ( 'draft international standard', 'automotive_design', 1998, #53 ) ;
#5 = DIRECTION ( 'NONE',  ( -1.000000000000000000, -2.449293598294709003E-17, 0.000000000000000000 ) ) ;
#6 = STYLED_ITEM ( 'NONE', ( #198 ), #186 ) ;
#7 =( GEOMETRIC_REPRESENTATION_CONTEXT ( 3 ) GLOBAL_UNCERTAINTY_ASSIGNED_CONTEXT ( ( #238 ) ) GLOBAL_UNIT_ASSIGNED_CONTEXT ( ( #308, #263, #150 ) ) REPRESENTATION_CONTEXT ( 'NONE', 'WORKASPACE' ) );
#8 = DIMENSIONAL_EXPONENTS ( 1.000000000000000000, 0.000000000000000000, 0.000000000000000000, 0.000000000000000000, 0.000000000000000000, 0.000000000000000000, 0.000000000000000000 ) ;
#9 = CARTESIAN_POINT ( 'NONE',  ( -6.123233995736772199E-17, 4.500000000000000000, 0.000000000000000000 ) ) ;
#10 = ORIENTED_EDGE ( 'NONE', *, *, #67, .F. ) ;
#11 =( LENGTH_UNIT ( ) NAMED_UNIT ( * ) SI_UNIT ( $, .METRE. ) );
#12 = MECHANICAL_DESIGN_GEOMETRIC_PRESENTATION_REPRESENTATION (  '', ( #144 ), #284 ) ;
#13 = AXIS2_PLACEMENT_3D ( 'NONE', #48, #289, #287 ) ;
#14 = COLOUR_RGB ( '',1.000000000000000000, 0.000000000000000000, 0.000000000000000000 ) ;
#15 = SURFACE_STYLE_USAGE ( .BOTH. , #232 ) ;
#16 = UNCERTAINTY_MEASURE_WITH_UNIT (LENGTH_MEASURE( 1.000000000000000082E-05 ), #257, 'distance_accuracy_value', 'NONE');
#17 = AXIS2_PLACEMENT_3D ( 'NONE', #288, #204, #176 ) ;
#18 = VERTEX_POINT ( 'NONE', #229 ) ;
#19 = EDGE_CURVE ( 'NONE', #137, #58, #81, .T. ) ;
#20 = FACE_OUTER_BOUND ( 'NONE', #139, .T. ) ;
#21 = AXIS2_PLACEMENT_3D ( 'NONE', #118, #195, #280 ) ;
#22 = AXIS2_PLACEMENT_3D ( 'NONE', #9, #187, #212 ) ;
#23 = CARTESIAN_POINT ( 'NONE',  ( 0.000000000000000000, 0.000000000000000000, 0.000000000000000000 ) ) ;
#24 = EDGE_CURVE ( 'NONE', #276, #110, #98, .T. ) ;
#25 = PRODUCT_CONTEXT ( 'NONE', #201, 'mechanical' ) ;
#26 = ORIENTED_EDGE ( 'NONE', *, *, #78, .T. ) ;
#27 =( CONVERSION_BASED_UNIT ( 'INCH', #285 ) LENGTH_UNIT ( ) NAMED_UNIT ( #292 ) );
#28 = DIRECTION ( 'NONE',  ( -2.449293598294709003E-17, 1.000000000000000000, 0.000000000000000000 ) ) ;
#29 = DIRECTION ( 'NONE',  ( -2.449293598294709003E-17, 1.000000000000000000, -0.000000000000000000 ) ) ;
#30 = CIRCLE ( 'NONE', #211, 0.5000000000000000000 ) ;
#31 =( NAMED_UNIT ( * ) SI_UNIT ( $, .STERADIAN. ) SOLID_ANGLE_UNIT ( ) );
#32 = EDGE_CURVE ( 'NONE', #55, #276, #30, .T. ) ;
#33 = SURFACE_STYLE_FILL_AREA ( #222 ) ;
#34 = EDGE_CURVE ( 'NONE', #55, #18, #227, .T. ) ;
#35 = CYLINDRICAL_SURFACE ( 'NONE', #134, 0.5000000000000000000 ) ;
#36 = VERTEX_POINT ( 'NONE', #244 ) ;
#37 = DIRECTION ( 'NONE',  ( 0.000000000000000000, 0.000000000000000000, -1.000000000000000000 ) ) ;
#38 = EDGE_LOOP ( 'NONE', ( #62, #220 ) ) ;
#39 = AXIS2_PLACEMENT_3D ( 'NONE', #231, #277, #107 ) ;
#40 = ORIENTED_EDGE ( 'NONE', *, *, #67, .T. ) ;
#41 = SURFACE_SIDE_STYLE ('',( #73 ) ) ;
#42 = CARTESIAN_POINT ( 'NONE',  ( 0.000000000000000000, 0.000000000000000000, 0.000000000000000000 ) ) ;
#43 = EDGE_LOOP ( 'NONE', ( #191, #40, #305, #61 ) ) ;
#44 = PLANE ( 'NONE',  #124 ) ;
#45 = DIRECTION ( 'NONE',  ( -0.000000000000000000, -1.000000000000000000, -0.000000000000000000 ) ) ;
#46 = DIRECTION ( 'NONE',  ( -1.000000000000000000, 0.000000000000000000, 0.000000000000000000 ) ) ;
#47 = ADVANCED_FACE ( 'NONE', ( #97 ), #50, .T. ) ;
#48 = CARTESIAN_POINT ( 'NONE',  ( 0.5000000000000000000, 4.500000000000000000, 0.000000000000000000 ) ) ;
#49 = MECHANICAL_DESIGN_GEOMETRIC_PRESENTATION_REPRESENTATION (  '', ( #200 ), #221 ) ;
#50 = PLANE ( 'NONE',  #255 ) ;
#51 = UNCERTAINTY_MEASURE_WITH_UNIT (LENGTH_MEASURE( 1.000000000000000082E-05 ), #27, 'distance_accuracy_value', 'NONE');
#52 = VECTOR ( 'NONE', #194, 39.37007874015748143 ) ;
#53 = APPLICATION_CONTEXT ( 'automotive_design' ) ;
#54 = LENGTH_MEASURE_WITH_UNIT ( LENGTH_MEASURE( 0.02539999999999999897 ), #11 );
#55 = VERTEX_POINT ( 'NONE', #272 ) ;
#56 = ORIENTED_EDGE ( 'NONE', *, *, #155, .F. ) ;
#57 = CYLINDRICAL_SURFACE ( 'NONE', #269, 0.5000000000000000000 ) ;
#58 = VERTEX_POINT ( 'NONE', #279 ) ;
#59 = EDGE_CURVE ( 'NONE', #58, #137, #108, .T. ) ;
#60 = DIRECTION ( 'NONE',  ( -1.000000000000000000, 0.000000000000000000, 0.000000000000000000 ) ) ;
#61 = ORIENTED_EDGE ( 'NONE', *, *, #252, .F. ) ;
#62 = ORIENTED_EDGE ( 'NONE', *, *, #32, .F. ) ;
#63 = AXIS2_PLACEMENT_3D ( 'NONE', #146, #45, #182 ) ;
#64 = DIRECTION ( 'NONE',  ( -0.000000000000000000, -1.000000000000000000, -0.000000000000000000 ) ) ;
#65 = EDGE_LOOP ( 'NONE', ( #10, #260, #88, #56 ) ) ;
#66 =( CONVERSION_BASED_UNIT ( 'INCH', #192 ) LENGTH_UNIT ( ) NAMED_UNIT ( #208 ) );
#67 = EDGE_CURVE ( 'NONE', #58, #111, #101, .T. ) ;
#68 =( LENGTH_UNIT ( ) NAMED_UNIT ( * ) SI_UNIT ( $, .METRE. ) );
#69 = UNCERTAINTY_MEASURE_WITH_UNIT (LENGTH_MEASURE( 1.000000000000000082E-05 ), #66, 'distance_accuracy_value', 'NONE');
#70 = CLOSED_SHELL ( 'NONE', ( #186, #299, #199, #47 ) ) ;
#71 = ORIENTED_EDGE ( 'NONE', *, *, #19, .F. ) ;
#72 =( LENGTH_UNIT ( ) NAMED_UNIT ( * ) SI_UNIT ( $, .METRE. ) );
#73 = SURFACE_STYLE_FILL_AREA ( #239 ) ;
#74 = FILL_AREA_STYLE ('',( #3 ) ) ;
#75 = EDGE_CURVE ( 'NONE', #276, #55, #248, .T. ) ;
#76 = FACE_OUTER_BOUND ( 'NONE', #38, .T. ) ;
#77 = PRESENTATION_LAYER_ASSIGNMENT (  '', '', ( #6 ) ) ;
#78 = EDGE_CURVE ( 'NONE', #110, #18, #126, .T. ) ;
#79 = PRESENTATION_STYLE_ASSIGNMENT (( #253 ) ) ;
#80 = CARTESIAN_POINT ( 'NONE',  ( 0.000000000000000000, 0.000000000000000000, -0.5000000000000000000 ) ) ;
#81 = CIRCLE ( 'NONE', #202, 0.5000000000000000000 ) ;
#82 = EDGE_CURVE ( 'NONE', #36, #111, #149, .T. ) ;
#83 = DIMENSIONAL_EXPONENTS ( 1.000000000000000000, 0.000000000000000000, 0.000000000000000000, 0.000000000000000000, 0.000000000000000000, 0.000000000000000000, 0.000000000000000000 ) ;
#84 = STYLED_ITEM ( 'NONE', ( #136 ), #199 ) ;
#85 = ORIENTED_EDGE ( 'NONE', *, *, #24, .F. ) ;
#86 = UNCERTAINTY_MEASURE_WITH_UNIT (LENGTH_MEASURE( 1.000000000000000082E-05 ), #226, 'distance_accuracy_value', 'NONE');
#87 = CARTESIAN_POINT ( 'NONE',  ( -6.123233995736772199E-17, 4.500000000000000000, 0.000000000000000000 ) ) ;
#88 = ORIENTED_EDGE ( 'NONE', *, *, #252, .T. ) ;
#89 = DIRECTION ( 'NONE',  ( 0.000000000000000000, 0.000000000000000000, -1.000000000000000000 ) ) ;
#90 = CARTESIAN_POINT ( 'NONE',  ( -6.123233995736772199E-17, 4.500000000000000000, 0.000000000000000000 ) ) ;
#91 = AXIS2_PLACEMENT_3D ( 'NONE', #309, #267, #230 ) ;
#92 = SURFACE_STYLE_USAGE ( .BOTH. , #41 ) ;
#93 = MECHANICAL_DESIGN_GEOMETRIC_PRESENTATION_REPRESENTATION (  '', ( #286 ), #298 ) ;
#94 = FILL_AREA_STYLE ('',( #302 ) ) ;
#95 = ORIENTED_EDGE ( 'NONE', *, *, #82, .T. ) ;
#96 = VECTOR ( 'NONE', #273, 39.37007874015748143 ) ;
#97 = FACE_OUTER_BOUND ( 'NONE', #159, .T. ) ;
#98 = LINE ( 'NONE', #295, #196 ) ;
#99 =( GEOMETRIC_REPRESENTATION_CONTEXT ( 3 ) GLOBAL_UNCERTAINTY_ASSIGNED_CONTEXT ( ( #291 ) ) GLOBAL_UNIT_ASSIGNED_CONTEXT ( ( #179, #185, #109 ) ) REPRESENTATION_CONTEXT ( 'NONE', 'WORKASPACE' ) );
#100 = SHAPE_DEFINITION_REPRESENTATION ( #131, #162 ) ;
#101 = LINE ( 'NONE', #225, #52 ) ;
#102 = PRESENTATION_STYLE_ASSIGNMENT (( #274 ) ) ;
#103 = VECTOR ( 'NONE', #29, 39.37007874015748143 ) ;
#104 = PLANE ( 'NONE',  #13 ) ;
#105 = SURFACE_STYLE_FILL_AREA ( #2 ) ;
#106 = DIRECTION ( 'NONE',  ( -2.449293598294708695E-17, 1.000000000000000000, -0.000000000000000000 ) ) ;
#107 = DIRECTION ( 'NONE',  ( 0.000000000000000000, 0.000000000000000000, -1.000000000000000000 ) ) ;
#108 = CIRCLE ( 'NONE', #63, 0.5000000000000000000 ) ;
#109 =( NAMED_UNIT ( * ) SI_UNIT ( $, .STERADIAN. ) SOLID_ANGLE_UNIT ( ) );
#110 = VERTEX_POINT ( 'NONE', #213 ) ;
#111 = VERTEX_POINT ( 'NONE', #181 ) ;
#112 =( LENGTH_UNIT ( ) NAMED_UNIT ( * ) SI_UNIT ( $, .METRE. ) );
#113 = AXIS2_PLACEMENT_3D ( 'NONE', #203, #154, #172 ) ;
#114 = PRESENTATION_LAYER_ASSIGNMENT (  '', '', ( #144 ) ) ;
#115 = DIRECTION ( 'NONE',  ( -0.000000000000000000, -1.000000000000000000, -0.000000000000000000 ) ) ;
#116 = PRODUCT_RELATED_PRODUCT_CATEGORY ( 'part', '', ( #262 ) ) ;
#117 = ORIENTED_EDGE ( 'NONE', *, *, #34, .F. ) ;
#118 = CARTESIAN_POINT ( 'NONE',  ( -6.123233995736772199E-17, 4.500000000000000000, 0.000000000000000000 ) ) ;
#119 = FACE_OUTER_BOUND ( 'NONE', #233, .T. ) ;
#120 = ORIENTED_EDGE ( 'NONE', *, *, #78, .F. ) ;
#121 = MECHANICAL_DESIGN_GEOMETRIC_PRESENTATION_REPRESENTATION (  '', ( #6 ), #290 ) ;
#122 = FILL_AREA_STYLE ('',( #304 ) ) ;
#123 =( NAMED_UNIT ( * ) PLANE_ANGLE_UNIT ( ) SI_UNIT ( $, .RADIAN. ) );
#124 = AXIS2_PLACEMENT_3D ( 'NONE', #171, #130, #245 ) ;
#125 = ORIENTED_EDGE ( 'NONE', *, *, #193, .T. ) ;
#126 = CIRCLE ( 'NONE', #22, 0.5000000000000001110 ) ;
#127 = SURFACE_STYLE_FILL_AREA ( #74 ) ;
#128 = PLANE ( 'NONE',  #256 ) ;
#129 = ADVANCED_FACE ( 'NONE', ( #119 ), #57, .T. ) ;
#130 = DIRECTION ( 'NONE',  ( 0.000000000000000000, 1.000000000000000000, 0.000000000000000000 ) ) ;
#131 = PRODUCT_DEFINITION_SHAPE ( 'NONE', 'NONE',  #177 ) ;
#132 = COLOUR_RGB ( '',1.000000000000000000, 0.000000000000000000, 0.000000000000000000 ) ;
#133 =( LENGTH_UNIT ( ) NAMED_UNIT ( * ) SI_UNIT ( $, .METRE. ) );
#134 = AXIS2_PLACEMENT_3D ( 'NONE', #90, #161, #282 ) ;
#135 = COLOUR_RGB ( '',0.7921568627450980005, 0.8196078431372548767, 0.9333333333333333481 ) ;
#136 = PRESENTATION_STYLE_ASSIGNMENT (( #147 ) ) ;
#137 = VERTEX_POINT ( 'NONE', #240 ) ;
#138 = DIRECTION ( 'NONE',  ( -2.449293598294709003E-17, 1.000000000000000000, -0.000000000000000000 ) ) ;
#139 = EDGE_LOOP ( 'NONE', ( #242, #259, #165, #117 ) ) ;
#140 = COLOUR_RGB ( '',1.000000000000000000, 0.000000000000000000, 0.000000000000000000 ) ;
#141 = EDGE_LOOP ( 'NONE', ( #71, #281 ) ) ;
#142 = LENGTH_MEASURE_WITH_UNIT ( LENGTH_MEASURE( 0.02539999999999999897 ), #167 );
#143 = ADVANCED_FACE ( 'NONE', ( #20 ), #35, .T. ) ;
#144 = STYLED_ITEM ( 'NONE', ( #283 ), #215 ) ;
#145 = ORIENTED_EDGE ( 'NONE', *, *, #75, .T. ) ;
#146 = CARTESIAN_POINT ( 'NONE',  ( 0.000000000000000000, 2.000000000000000000, 0.000000000000000000 ) ) ;
#147 = SURFACE_STYLE_USAGE ( .BOTH. , #261 ) ;
#148 = DIRECTION ( 'NONE',  ( -2.449293598294708695E-17, 1.000000000000000000, -0.000000000000000000 ) ) ;
#149 = CIRCLE ( 'NONE', #39, 0.5000000000000000000 ) ;
#150 =( NAMED_UNIT ( * ) SI_UNIT ( $, .STERADIAN. ) SOLID_ANGLE_UNIT ( ) );
#151 =( CONVERSION_BASED_UNIT ( 'INCH', #264 ) LENGTH_UNIT ( ) NAMED_UNIT ( #228 ) );
#152 =( NAMED_UNIT ( * ) PLANE_ANGLE_UNIT ( ) SI_UNIT ( $, .RADIAN. ) );
#153 = FILL_AREA_STYLE_COLOUR ( '', #14 ) ;
#154 = DIRECTION ( 'NONE',  ( -0.000000000000000000, -1.000000000000000000, -0.000000000000000000 ) ) ;
#155 = EDGE_CURVE ( 'NONE', #111, #36, #219, .T. ) ;
#156 = CARTESIAN_POINT ( 'NONE',  ( 0.5000000000000000000, 2.000000000000000000, 6.123233995736766036E-17 ) ) ;
#157 = DIRECTION ( 'NONE',  ( -0.000000000000000000, -1.000000000000000000, -0.000000000000000000 ) ) ;
#158 = ORIENTED_EDGE ( 'NONE', *, *, #155, .T. ) ;
#159 = EDGE_LOOP ( 'NONE', ( #95, #158 ) ) ;
#160 =( NAMED_UNIT ( * ) SI_UNIT ( $, .STERADIAN. ) SOLID_ANGLE_UNIT ( ) );
#161 = DIRECTION ( 'NONE',  ( -2.449293598294708695E-17, 1.000000000000000000, -0.000000000000000000 ) ) ;
#162 = ADVANCED_BREP_SHAPE_REPRESENTATION ( '30722', ( #214, #215, #17 ), #7 ) ;
#163 = EDGE_LOOP ( 'NONE', ( #125, #26 ) ) ;
#164 = COLOUR_RGB ( '',1.000000000000000000, 0.000000000000000000, 0.000000000000000000 ) ;
#165 = ORIENTED_EDGE ( 'NONE', *, *, #193, .F. ) ;
#166 = FACE_OUTER_BOUND ( 'NONE', #43, .T. ) ;
#167 =( LENGTH_UNIT ( ) NAMED_UNIT ( * ) SI_UNIT ( $, .METRE. ) );
#168 = APPLICATION_PROTOCOL_DEFINITION ( 'draft international standard', 'automotive_design', 1998, #201 ) ;
#169 = PRESENTATION_LAYER_ASSIGNMENT (  '', '', ( #84 ) ) ;
#170 = FILL_AREA_STYLE_COLOUR ( '', #132 ) ;
#171 = CARTESIAN_POINT ( 'NONE',  ( 0.000000000000000000, 2.000000000000000000, 0.000000000000000000 ) ) ;
#172 = DIRECTION ( 'NONE',  ( 0.000000000000000000, 0.000000000000000000, -1.000000000000000000 ) ) ;
#173 =( LENGTH_UNIT ( ) NAMED_UNIT ( * ) SI_UNIT ( $, .METRE. ) );
#174 = CARTESIAN_POINT ( 'NONE',  ( -0.5000000000000001110, 4.500000000000000000, 0.000000000000000000 ) ) ;
#175 =( NAMED_UNIT ( * ) PLANE_ANGLE_UNIT ( ) SI_UNIT ( $, .RADIAN. ) );
#176 = DIRECTION ( 'NONE',  ( 1.000000000000000000, 0.000000000000000000, 0.000000000000000000 ) ) ;
#177 = PRODUCT_DEFINITION ( 'UNKNOWN', '', #258, #251 ) ;
#178 = LINE ( 'NONE', #80, #96 ) ;
#179 =( CONVERSION_BASED_UNIT ( 'INCH', #293 ) LENGTH_UNIT ( ) NAMED_UNIT ( #254 ) );
#180 = FACE_OUTER_BOUND ( 'NONE', #141, .T. ) ;
#181 = CARTESIAN_POINT ( 'NONE',  ( 6.123233995736766036E-17, 0.000000000000000000, 0.5000000000000000000 ) ) ;
#182 = DIRECTION ( 'NONE',  ( 0.000000000000000000, 0.000000000000000000, -1.000000000000000000 ) ) ;
#183 = SURFACE_STYLE_USAGE ( .BOTH. , #296 ) ;
#184 = MECHANICAL_DESIGN_GEOMETRIC_PRESENTATION_REPRESENTATION (  '', ( #278 ), #99 ) ;
#185 =( NAMED_UNIT ( * ) PLANE_ANGLE_UNIT ( ) SI_UNIT ( $, .RADIAN. ) );
#186 = ADVANCED_FACE ( 'NONE', ( #166 ), #190, .T. ) ;
#187 = DIRECTION ( 'NONE',  ( -2.449293598294708695E-17, 1.000000000000000000, -0.000000000000000000 ) ) ;
#188 = DIRECTION ( 'NONE',  ( 0.000000000000000000, 0.000000000000000000, -1.000000000000000000 ) ) ;
#189 = CIRCLE ( 'NONE', #21, 0.5000000000000001110 ) ;
#190 = CYLINDRICAL_SURFACE ( 'NONE', #297, 0.5000000000000000000 ) ;
#191 = ORIENTED_EDGE ( 'NONE', *, *, #19, .T. ) ;
#192 = LENGTH_MEASURE_WITH_UNIT ( LENGTH_MEASURE( 0.02539999999999999897 ), #112 );
#193 = EDGE_CURVE ( 'NONE', #18, #110, #189, .T. ) ;
#194 = DIRECTION ( 'NONE',  ( -0.000000000000000000, -1.000000000000000000, -0.000000000000000000 ) ) ;
#195 = DIRECTION ( 'NONE',  ( -2.449293598294708695E-17, 1.000000000000000000, -0.000000000000000000 ) ) ;
#196 = VECTOR ( 'NONE', #138, 39.37007874015748143 ) ;
#197 = SURFACE_STYLE_FILL_AREA ( #94 ) ;
#198 = PRESENTATION_STYLE_ASSIGNMENT (( #15 ) ) ;
#199 = ADVANCED_FACE ( 'NONE', ( #218 ), #224, .T. ) ;
#200 = STYLED_ITEM ( 'NONE', ( #243 ), #299 ) ;
#201 = APPLICATION_CONTEXT ( 'automotive_design' ) ;
#202 = AXIS2_PLACEMENT_3D ( 'NONE', #268, #157, #188 ) ;
#203 = CARTESIAN_POINT ( 'NONE',  ( 0.000000000000000000, 0.000000000000000000, 0.000000000000000000 ) ) ;
#204 = DIRECTION ( 'NONE',  ( 0.000000000000000000, 0.000000000000000000, 1.000000000000000000 ) ) ;
#205 =( NAMED_UNIT ( * ) SI_UNIT ( $, .STERADIAN. ) SOLID_ANGLE_UNIT ( ) );
#206 = FACE_OUTER_BOUND ( 'NONE', #163, .T. ) ;
#207 = CARTESIAN_POINT ( 'NONE',  ( 1.499759782661860216E-34, 2.000000000000000000, 0.000000000000000000 ) ) ;
#208 = DIMENSIONAL_EXPONENTS ( 1.000000000000000000, 0.000000000000000000, 0.000000000000000000, 0.000000000000000000, 0.000000000000000000, 0.000000000000000000, 0.000000000000000000 ) ;
#209 = SURFACE_SIDE_STYLE ('',( #105 ) ) ;
#210 = PRESENTATION_LAYER_ASSIGNMENT (  '', '', ( #200 ) ) ;
#211 = AXIS2_PLACEMENT_3D ( 'NONE', #307, #106, #46 ) ;
#212 = DIRECTION ( 'NONE',  ( -1.000000000000000000, 0.000000000000000000, 0.000000000000000000 ) ) ;
#213 = CARTESIAN_POINT ( 'NONE',  ( 0.5000000000000000000, 4.500000000000000000, 6.123233995736766036E-17 ) ) ;
#214 = MANIFOLD_SOLID_BREP ( 'Revolve - Cutting Edge', #70 ) ;
#215 = MANIFOLD_SOLID_BREP ( 'Revolve - Tool Body (Straight Shanked)', #234 ) ;
#216 = COLOUR_RGB ( '',0.7921568627450980005, 0.8196078431372548767, 0.9333333333333333481 ) ;
#217 = CARTESIAN_POINT ( 'NONE',  ( 0.000000000000000000, 0.000000000000000000, 0.000000000000000000 ) ) ;
#218 = FACE_OUTER_BOUND ( 'NONE', #65, .T. ) ;
#219 = CIRCLE ( 'NONE', #294, 0.5000000000000000000 ) ;
#220 = ORIENTED_EDGE ( 'NONE', *, *, #75, .F. ) ;
#221 =( GEOMETRIC_REPRESENTATION_CONTEXT ( 3 ) GLOBAL_UNCERTAINTY_ASSIGNED_CONTEXT ( ( #51 ) ) GLOBAL_UNIT_ASSIGNED_CONTEXT ( ( #27, #152, #31 ) ) REPRESENTATION_CONTEXT ( 'NONE', 'WORKASPACE' ) );
#222 = FILL_AREA_STYLE ('',( #153 ) ) ;
#223 =( NAMED_UNIT ( * ) PLANE_ANGLE_UNIT ( ) SI_UNIT ( $, .RADIAN. ) );
#224 = CYLINDRICAL_SURFACE ( 'NONE', #113, 0.5000000000000000000 ) ;
#225 = CARTESIAN_POINT ( 'NONE',  ( 6.123233995736766036E-17, 0.000000000000000000, 0.5000000000000000000 ) ) ;
#226 =( CONVERSION_BASED_UNIT ( 'INCH', #54 ) LENGTH_UNIT ( ) NAMED_UNIT ( #83 ) );
#227 = LINE ( 'NONE', #174, #103 ) ;
#228 = DIMENSIONAL_EXPONENTS ( 1.000000000000000000, 0.000000000000000000, 0.000000000000000000, 0.000000000000000000, 0.000000000000000000, 0.000000000000000000, 0.000000000000000000 ) ;
#229 = CARTESIAN_POINT ( 'NONE',  ( -0.5000000000000001110, 4.500000000000000000, 0.000000000000000000 ) ) ;
#230 = DIRECTION ( 'NONE',  ( -1.000000000000000000, 0.000000000000000000, 0.000000000000000000 ) ) ;
#231 = CARTESIAN_POINT ( 'NONE',  ( 0.000000000000000000, 0.000000000000000000, 0.000000000000000000 ) ) ;
#232 = SURFACE_SIDE_STYLE ('',( #306 ) ) ;
#233 = EDGE_LOOP ( 'NONE', ( #85, #145, #300, #120 ) ) ;
#234 = CLOSED_SHELL ( 'NONE', ( #143, #250, #129, #241 ) ) ;
#235 =( NAMED_UNIT ( * ) SI_UNIT ( $, .STERADIAN. ) SOLID_ANGLE_UNIT ( ) );
#236 =( NAMED_UNIT ( * ) PLANE_ANGLE_UNIT ( ) SI_UNIT ( $, .RADIAN. ) );
#237 = PRESENTATION_LAYER_ASSIGNMENT (  '', '', ( #286 ) ) ;
#238 = UNCERTAINTY_MEASURE_WITH_UNIT (LENGTH_MEASURE( 1.000000000000000082E-05 ), #308, 'distance_accuracy_value', 'NONE');
#239 = FILL_AREA_STYLE ('',( #247 ) ) ;
#240 = CARTESIAN_POINT ( 'NONE',  ( 0.000000000000000000, 2.000000000000000000, -0.5000000000000000000 ) ) ;
#241 = ADVANCED_FACE ( 'NONE', ( #206 ), #104, .F. ) ;
#242 = ORIENTED_EDGE ( 'NONE', *, *, #32, .T. ) ;
#243 = PRESENTATION_STYLE_ASSIGNMENT (( #183 ) ) ;
#244 = CARTESIAN_POINT ( 'NONE',  ( 0.000000000000000000, 0.000000000000000000, -0.5000000000000000000 ) ) ;
#245 = DIRECTION ( 'NONE',  ( 0.000000000000000000, -0.000000000000000000, 1.000000000000000000 ) ) ;
#246 = DIRECTION ( 'NONE',  ( 0.000000000000000000, 0.000000000000000000, -1.000000000000000000 ) ) ;
#247 = FILL_AREA_STYLE_COLOUR ( '', #135 ) ;
#248 = CIRCLE ( 'NONE', #91, 0.5000000000000000000 ) ;
#249 = LENGTH_MEASURE_WITH_UNIT ( LENGTH_MEASURE( 0.02539999999999999897 ), #173 );
#250 = ADVANCED_FACE ( 'NONE', ( #76 ), #128, .F. ) ;
#251 = PRODUCT_DEFINITION_CONTEXT ( 'detailed design', #53, 'design' ) ;
#252 = EDGE_CURVE ( 'NONE', #137, #36, #178, .T. ) ;
#253 = SURFACE_STYLE_USAGE ( .BOTH. , #209 ) ;
#254 = DIMENSIONAL_EXPONENTS ( 1.000000000000000000, 0.000000000000000000, 0.000000000000000000, 0.000000000000000000, 0.000000000000000000, 0.000000000000000000, 0.000000000000000000 ) ;
#255 = AXIS2_PLACEMENT_3D ( 'NONE', #217, #265, #246 ) ;
#256 = AXIS2_PLACEMENT_3D ( 'NONE', #207, #28, #5 ) ;
#257 =( CONVERSION_BASED_UNIT ( 'INCH', #142 ) LENGTH_UNIT ( ) NAMED_UNIT ( #275 ) );
#258 = PRODUCT_DEFINITION_FORMATION_WITH_SPECIFIED_SOURCE ( 'ANY', '', #262, .NOT_KNOWN. ) ;
#259 = ORIENTED_EDGE ( 'NONE', *, *, #24, .T. ) ;
#260 = ORIENTED_EDGE ( 'NONE', *, *, #59, .T. ) ;
#261 = SURFACE_SIDE_STYLE ('',( #197 ) ) ;
#262 = PRODUCT ( '30722', '30722', '', ( #25 ) ) ;
#263 =( NAMED_UNIT ( * ) PLANE_ANGLE_UNIT ( ) SI_UNIT ( $, .RADIAN. ) );
#264 = LENGTH_MEASURE_WITH_UNIT ( LENGTH_MEASURE( 0.02539999999999999897 ), #68 );
#265 = DIRECTION ( 'NONE',  ( 0.000000000000000000, -1.000000000000000000, -0.000000000000000000 ) ) ;
#266 =( GEOMETRIC_REPRESENTATION_CONTEXT ( 3 ) GLOBAL_UNCERTAINTY_ASSIGNED_CONTEXT ( ( #69 ) ) GLOBAL_UNIT_ASSIGNED_CONTEXT ( ( #66, #175, #205 ) ) REPRESENTATION_CONTEXT ( 'NONE', 'WORKASPACE' ) );
#267 = DIRECTION ( 'NONE',  ( -2.449293598294708695E-17, 1.000000000000000000, -0.000000000000000000 ) ) ;
#268 = CARTESIAN_POINT ( 'NONE',  ( 0.000000000000000000, 2.000000000000000000, 0.000000000000000000 ) ) ;
#269 = AXIS2_PLACEMENT_3D ( 'NONE', #87, #148, #60 ) ;
#270 = SURFACE_SIDE_STYLE ('',( #127 ) ) ;
#271 = UNCERTAINTY_MEASURE_WITH_UNIT (LENGTH_MEASURE( 1.000000000000000082E-05 ), #151, 'distance_accuracy_value', 'NONE');
#272 = CARTESIAN_POINT ( 'NONE',  ( -0.5000000000000000000, 2.000000000000000000, 0.000000000000000000 ) ) ;
#273 = DIRECTION ( 'NONE',  ( -0.000000000000000000, -1.000000000000000000, -0.000000000000000000 ) ) ;
#274 = SURFACE_STYLE_USAGE ( .BOTH. , #270 ) ;
#275 = DIMENSIONAL_EXPONENTS ( 1.000000000000000000, 0.000000000000000000, 0.000000000000000000, 0.000000000000000000, 0.000000000000000000, 0.000000000000000000, 0.000000000000000000 ) ;
#276 = VERTEX_POINT ( 'NONE', #156 ) ;
#277 = DIRECTION ( 'NONE',  ( -0.000000000000000000, -1.000000000000000000, -0.000000000000000000 ) ) ;
#278 = STYLED_ITEM ( 'NONE', ( #79 ), #47 ) ;
#279 = CARTESIAN_POINT ( 'NONE',  ( 6.123233995736766036E-17, 2.000000000000000000, 0.5000000000000000000 ) ) ;
#280 = DIRECTION ( 'NONE',  ( -1.000000000000000000, 0.000000000000000000, 0.000000000000000000 ) ) ;
#281 = ORIENTED_EDGE ( 'NONE', *, *, #59, .F. ) ;
#282 = DIRECTION ( 'NONE',  ( -1.000000000000000000, 0.000000000000000000, 0.000000000000000000 ) ) ;
#283 = PRESENTATION_STYLE_ASSIGNMENT (( #92 ) ) ;
#284 =( GEOMETRIC_REPRESENTATION_CONTEXT ( 3 ) GLOBAL_UNCERTAINTY_ASSIGNED_CONTEXT ( ( #271 ) ) GLOBAL_UNIT_ASSIGNED_CONTEXT ( ( #151, #123, #235 ) ) REPRESENTATION_CONTEXT ( 'NONE', 'WORKASPACE' ) );
#285 = LENGTH_MEASURE_WITH_UNIT ( LENGTH_MEASURE( 0.02539999999999999897 ), #72 );
#286 = STYLED_ITEM ( 'NONE', ( #102 ), #214 ) ;
#287 = DIRECTION ( 'NONE',  ( 1.000000000000000000, 2.449293598294709003E-17, 0.000000000000000000 ) ) ;
#288 = CARTESIAN_POINT ( 'NONE',  ( 0.000000000000000000, 0.000000000000000000, 0.000000000000000000 ) ) ;
#289 = DIRECTION ( 'NONE',  ( 2.449293598294709003E-17, -1.000000000000000000, 0.000000000000000000 ) ) ;
#290 =( GEOMETRIC_REPRESENTATION_CONTEXT ( 3 ) GLOBAL_UNCERTAINTY_ASSIGNED_CONTEXT ( ( #16 ) ) GLOBAL_UNIT_ASSIGNED_CONTEXT ( ( #257, #236, #301 ) ) REPRESENTATION_CONTEXT ( 'NONE', 'WORKASPACE' ) );
#291 = UNCERTAINTY_MEASURE_WITH_UNIT (LENGTH_MEASURE( 1.000000000000000082E-05 ), #179, 'distance_accuracy_value', 'NONE');
#292 = DIMENSIONAL_EXPONENTS ( 1.000000000000000000, 0.000000000000000000, 0.000000000000000000, 0.000000000000000000, 0.000000000000000000, 0.000000000000000000, 0.000000000000000000 ) ;
#293 = LENGTH_MEASURE_WITH_UNIT ( LENGTH_MEASURE( 0.02539999999999999897 ), #133 );
#294 = AXIS2_PLACEMENT_3D ( 'NONE', #23, #64, #37 ) ;
#295 = CARTESIAN_POINT ( 'NONE',  ( 0.4999999999999999445, 4.500000000000000000, 6.123233995736766036E-17 ) ) ;
#296 = SURFACE_SIDE_STYLE ('',( #33 ) ) ;
#297 = AXIS2_PLACEMENT_3D ( 'NONE', #42, #115, #89 ) ;
#298 =( GEOMETRIC_REPRESENTATION_CONTEXT ( 3 ) GLOBAL_UNCERTAINTY_ASSIGNED_CONTEXT ( ( #86 ) ) GLOBAL_UNIT_ASSIGNED_CONTEXT ( ( #226, #223, #160 ) ) REPRESENTATION_CONTEXT ( 'NONE', 'WORKASPACE' ) );
#299 = ADVANCED_FACE ( 'NONE', ( #180 ), #44, .T. ) ;
#300 = ORIENTED_EDGE ( 'NONE', *, *, #34, .T. ) ;
#301 =( NAMED_UNIT ( * ) SI_UNIT ( $, .STERADIAN. ) SOLID_ANGLE_UNIT ( ) );
#302 = FILL_AREA_STYLE_COLOUR ( '', #140 ) ;
#303 = PRESENTATION_LAYER_ASSIGNMENT (  '', '', ( #278 ) ) ;
#304 = FILL_AREA_STYLE_COLOUR ( '', #164 ) ;
#305 = ORIENTED_EDGE ( 'NONE', *, *, #82, .F. ) ;
#306 = SURFACE_STYLE_FILL_AREA ( #122 ) ;
#307 = CARTESIAN_POINT ( 'NONE',  ( 0.000000000000000000, 2.000000000000000000, 0.000000000000000000 ) ) ;
#308 =( CONVERSION_BASED_UNIT ( 'INCH', #249 ) LENGTH_UNIT ( ) NAMED_UNIT ( #8 ) );
#309 = CARTESIAN_POINT ( 'NONE',  ( 0.000000000000000000, 2.000000000000000000, 0.000000000000000000 ) ) ;
ENDSEC;
END-ISO-10303-21;
