ISO-10303-21;
HEADER;
FILE_DESCRIPTION (( 'STEP AP214' ),
    '1' );
FILE_NAME ('03765.STEP',
    '2023-06-22T15:43:46',
    ( '' ),
    ( '' ),
    'SwSTEP 2.0',
    'SolidWorks 2023',
    '' );
FILE_SCHEMA (( 'AUTOMOTIVE_DESIGN' ));
ENDSEC;

DATA;
#1 = FILL_AREA_STYLE ('',( #30 ) ) ;
#2 = VECTOR ( 'NONE', #184, 39.37007874015748143 ) ;
#3 = SURFACE_STYLE_USAGE ( .BOTH. , #32 ) ;
#4 = VERTEX_POINT ( 'NONE', #109 ) ;
#5 = FILL_AREA_STYLE ('',( #12 ) ) ;
#6 =( CONVERSION_BASED_UNIT ( 'INCH', #289 ) LENGTH_UNIT ( ) NAMED_UNIT ( #288 ) );
#7 = EDGE_LOOP ( 'NONE', ( #189, #290, #103, #208 ) ) ;
#8 = UNCERTAINTY_MEASURE_WITH_UNIT (LENGTH_MEASURE( 1.000000000000000082E-05 ), #291, 'distance_accuracy_value', 'NONE');
#9 = CARTESIAN_POINT ( 'NONE',  ( 0.5000000000000000000, 6.000000000000000888, 6.123233995736767268E-17 ) ) ;
#10 = CIRCLE ( 'NONE', #100, 0.5000000000000000000 ) ;
#11 = EDGE_LOOP ( 'NONE', ( #106, #273 ) ) ;
#12 = FILL_AREA_STYLE_COLOUR ( '', #130 ) ;
#13 = UNCERTAINTY_MEASURE_WITH_UNIT (LENGTH_MEASURE( 1.000000000000000082E-05 ), #179, 'distance_accuracy_value', 'NONE');
#14 = EDGE_LOOP ( 'NONE', ( #210, #259, #82, #58 ) ) ;
#15 =( LENGTH_UNIT ( ) NAMED_UNIT ( * ) SI_UNIT ( $, .METRE. ) );
#16 = VERTEX_POINT ( 'NONE', #131 ) ;
#17 = SURFACE_STYLE_USAGE ( .BOTH. , #45 ) ;
#18 = CIRCLE ( 'NONE', #262, 0.5000000000000000000 ) ;
#19 = STYLED_ITEM ( 'NONE', ( #160 ), #203 ) ;
#20 = FILL_AREA_STYLE ('',( #43 ) ) ;
#21 = CARTESIAN_POINT ( 'NONE',  ( 0.5000000000000000000, 6.000000000000000888, 0.000000000000000000 ) ) ;
#22 = ADVANCED_FACE ( 'NONE', ( #175 ), #46, .T. ) ;
#23 = LENGTH_MEASURE_WITH_UNIT ( LENGTH_MEASURE( 0.02539999999999999897 ), #280 );
#24 =( GEOMETRIC_REPRESENTATION_CONTEXT ( 3 ) GLOBAL_UNCERTAINTY_ASSIGNED_CONTEXT ( ( #135 ) ) GLOBAL_UNIT_ASSIGNED_CONTEXT ( ( #216, #117, #283 ) ) REPRESENTATION_CONTEXT ( 'NONE', 'WORKASPACE' ) );
#25 = SURFACE_STYLE_FILL_AREA ( #1 ) ;
#26 = DIRECTION ( 'NONE',  ( -1.000000000000000000, -3.628583108584753553E-17, 0.000000000000000000 ) ) ;
#27 = FILL_AREA_STYLE ('',( #69 ) ) ;
#28 = MECHANICAL_DESIGN_GEOMETRIC_PRESENTATION_REPRESENTATION (  '', ( #305 ), #116 ) ;
#29 = AXIS2_PLACEMENT_3D ( 'NONE', #235, #261, #39 ) ;
#30 = FILL_AREA_STYLE_COLOUR ( '', #260 ) ;
#31 = ADVANCED_FACE ( 'NONE', ( #85 ), #265, .T. ) ;
#32 = SURFACE_SIDE_STYLE ('',( #227 ) ) ;
#33 = FACE_OUTER_BOUND ( 'NONE', #14, .T. ) ;
#34 = PLANE ( 'NONE',  #74 ) ;
#35 = CYLINDRICAL_SURFACE ( 'NONE', #54, 0.5000000000000000000 ) ;
#36 = CIRCLE ( 'NONE', #95, 0.5000000000000000000 ) ;
#37 = ORIENTED_EDGE ( 'NONE', *, *, #252, .F. ) ;
#38 =( LENGTH_UNIT ( ) NAMED_UNIT ( * ) SI_UNIT ( $, .METRE. ) );
#39 = DIRECTION ( 'NONE',  ( 0.000000000000000000, 0.000000000000000000, -1.000000000000000000 ) ) ;
#40 =( GEOMETRIC_REPRESENTATION_CONTEXT ( 3 ) GLOBAL_UNCERTAINTY_ASSIGNED_CONTEXT ( ( #8 ) ) GLOBAL_UNIT_ASSIGNED_CONTEXT ( ( #291, #256, #170 ) ) REPRESENTATION_CONTEXT ( 'NONE', 'WORKASPACE' ) );
#41 = EDGE_CURVE ( 'NONE', #81, #4, #18, .T. ) ;
#42 = PRESENTATION_STYLE_ASSIGNMENT (( #17 ) ) ;
#43 = FILL_AREA_STYLE_COLOUR ( '', #237 ) ;
#44 = MECHANICAL_DESIGN_GEOMETRIC_PRESENTATION_REPRESENTATION (  '', ( #47 ), #24 ) ;
#45 = SURFACE_SIDE_STYLE ('',( #65 ) ) ;
#46 = PLANE ( 'NONE',  #192 ) ;
#47 = STYLED_ITEM ( 'NONE', ( #42 ), #22 ) ;
#48 = CIRCLE ( 'NONE', #300, 0.5000000000000000000 ) ;
#49 = DIRECTION ( 'NONE',  ( 0.000000000000000000, 1.000000000000000000, 0.000000000000000000 ) ) ;
#50 = DIRECTION ( 'NONE',  ( -1.000000000000000000, 0.000000000000000000, 0.000000000000000000 ) ) ;
#51 = ADVANCED_FACE ( 'NONE', ( #238 ), #144, .F. ) ;
#52 = ORIENTED_EDGE ( 'NONE', *, *, #72, .F. ) ;
#53 = PRESENTATION_LAYER_ASSIGNMENT (  '', '', ( #305 ) ) ;
#54 = AXIS2_PLACEMENT_3D ( 'NONE', #275, #55, #59 ) ;
#55 = DIRECTION ( 'NONE',  ( -0.000000000000000000, -1.000000000000000000, -0.000000000000000000 ) ) ;
#56 = EDGE_LOOP ( 'NONE', ( #52, #255, #191, #162 ) ) ;
#57 = CIRCLE ( 'NONE', #29, 0.5000000000000000000 ) ;
#58 = ORIENTED_EDGE ( 'NONE', *, *, #87, .F. ) ;
#59 = DIRECTION ( 'NONE',  ( 0.000000000000000000, 0.000000000000000000, -1.000000000000000000 ) ) ;
#60 = CARTESIAN_POINT ( 'NONE',  ( 6.123233995736766036E-17, 2.625000000000000000, 0.5000000000000000000 ) ) ;
#61 = PRESENTATION_STYLE_ASSIGNMENT (( #193 ) ) ;
#62 = EDGE_CURVE ( 'NONE', #213, #168, #198, .T. ) ;
#63 = PRESENTATION_LAYER_ASSIGNMENT (  '', '', ( #164 ) ) ;
#64 = LENGTH_MEASURE_WITH_UNIT ( LENGTH_MEASURE( 0.02539999999999999897 ), #219 );
#65 = SURFACE_STYLE_FILL_AREA ( #90 ) ;
#66 = EDGE_CURVE ( 'NONE', #168, #213, #48, .T. ) ;
#67 = CARTESIAN_POINT ( 'NONE',  ( 0.000000000000000000, 0.000000000000000000, 0.000000000000000000 ) ) ;
#68 = CARTESIAN_POINT ( 'NONE',  ( 3.291653843976647826E-34, 2.625000000000000000, 0.000000000000000000 ) ) ;
#69 = FILL_AREA_STYLE_COLOUR ( '', #121 ) ;
#70 =( LENGTH_UNIT ( ) NAMED_UNIT ( * ) SI_UNIT ( $, .METRE. ) );
#71 = LINE ( 'NONE', #157, #2 ) ;
#72 = EDGE_CURVE ( 'NONE', #81, #16, #281, .T. ) ;
#73 = SURFACE_STYLE_USAGE ( .BOTH. , #101 ) ;
#74 = AXIS2_PLACEMENT_3D ( 'NONE', #249, #49, #158 ) ;
#75 =( NAMED_UNIT ( * ) SI_UNIT ( $, .STERADIAN. ) SOLID_ANGLE_UNIT ( ) );
#76 = CARTESIAN_POINT ( 'NONE',  ( -0.5000000000000002220, 6.000000000000000888, 0.000000000000000000 ) ) ;
#77 = ORIENTED_EDGE ( 'NONE', *, *, #62, .T. ) ;
#78 = SURFACE_SIDE_STYLE ('',( #207 ) ) ;
#79 = FACE_OUTER_BOUND ( 'NONE', #56, .T. ) ;
#80 = EDGE_CURVE ( 'NONE', #232, #16, #10, .T. ) ;
#81 = VERTEX_POINT ( 'NONE', #60 ) ;
#82 = ORIENTED_EDGE ( 'NONE', *, *, #133, .T. ) ;
#83 = AXIS2_PLACEMENT_3D ( 'NONE', #177, #223, #93 ) ;
#84 = CIRCLE ( 'NONE', #301, 0.5000000000000001110 ) ;
#85 = FACE_OUTER_BOUND ( 'NONE', #231, .T. ) ;
#86 = SURFACE_SIDE_STYLE ('',( #222 ) ) ;
#87 = EDGE_CURVE ( 'NONE', #295, #234, #254, .T. ) ;
#88 = MANIFOLD_SOLID_BREP ( 'Revolve - Cutting Edge', #112 ) ;
#89 = DIRECTION ( 'NONE',  ( -3.628583108584753553E-17, 1.000000000000000000, -0.000000000000000000 ) ) ;
#90 = FILL_AREA_STYLE ('',( #264 ) ) ;
#91 = MECHANICAL_DESIGN_GEOMETRIC_PRESENTATION_REPRESENTATION (  '', ( #164 ), #141 ) ;
#92 = MECHANICAL_DESIGN_GEOMETRIC_PRESENTATION_REPRESENTATION (  '', ( #293 ), #40 ) ;
#93 = DIRECTION ( 'NONE',  ( -1.000000000000000000, 0.000000000000000000, 0.000000000000000000 ) ) ;
#94 = COLOUR_RGB ( '',1.000000000000000000, 0.000000000000000000, 0.000000000000000000 ) ;
#95 = AXIS2_PLACEMENT_3D ( 'NONE', #104, #139, #209 ) ;
#96 = CYLINDRICAL_SURFACE ( 'NONE', #137, 0.5000000000000001110 ) ;
#97 = LINE ( 'NONE', #268, #292 ) ;
#98 = EDGE_CURVE ( 'NONE', #4, #232, #71, .T. ) ;
#99 = LENGTH_MEASURE_WITH_UNIT ( LENGTH_MEASURE( 0.02539999999999999897 ), #226 );
#100 = AXIS2_PLACEMENT_3D ( 'NONE', #173, #105, #302 ) ;
#101 = SURFACE_SIDE_STYLE ('',( #25 ) ) ;
#102 = CARTESIAN_POINT ( 'NONE',  ( -0.5000000000000000000, 2.625000000000000000, 0.000000000000000000 ) ) ;
#103 = ORIENTED_EDGE ( 'NONE', *, *, #80, .F. ) ;
#104 = CARTESIAN_POINT ( 'NONE',  ( 0.000000000000000000, 2.625000000000000000, 0.000000000000000000 ) ) ;
#105 = DIRECTION ( 'NONE',  ( -0.000000000000000000, -1.000000000000000000, -0.000000000000000000 ) ) ;
#106 = ORIENTED_EDGE ( 'NONE', *, *, #80, .T. ) ;
#107 =( NAMED_UNIT ( * ) PLANE_ANGLE_UNIT ( ) SI_UNIT ( $, .RADIAN. ) );
#108 = AXIS2_PLACEMENT_3D ( 'NONE', #171, #190, #145 ) ;
#109 = CARTESIAN_POINT ( 'NONE',  ( 0.000000000000000000, 2.625000000000000000, -0.5000000000000000000 ) ) ;
#110 = ORIENTED_EDGE ( 'NONE', *, *, #133, .F. ) ;
#111 = ORIENTED_EDGE ( 'NONE', *, *, #87, .T. ) ;
#112 = CLOSED_SHELL ( 'NONE', ( #140, #169, #217, #22 ) ) ;
#113 = MECHANICAL_DESIGN_GEOMETRIC_PRESENTATION_REPRESENTATION (  '', ( #266 ), #154 ) ;
#114 = DIRECTION ( 'NONE',  ( -3.628583108584753553E-17, 1.000000000000000000, -0.000000000000000000 ) ) ;
#115 = DIRECTION ( 'NONE',  ( 0.000000000000000000, -1.000000000000000000, -0.000000000000000000 ) ) ;
#116 =( GEOMETRIC_REPRESENTATION_CONTEXT ( 3 ) GLOBAL_UNCERTAINTY_ASSIGNED_CONTEXT ( ( #212 ) ) GLOBAL_UNIT_ASSIGNED_CONTEXT ( ( #124, #155, #118 ) ) REPRESENTATION_CONTEXT ( 'NONE', 'WORKASPACE' ) );
#117 =( NAMED_UNIT ( * ) PLANE_ANGLE_UNIT ( ) SI_UNIT ( $, .RADIAN. ) );
#118 =( NAMED_UNIT ( * ) SI_UNIT ( $, .STERADIAN. ) SOLID_ANGLE_UNIT ( ) );
#119 = PRODUCT ( '03765', '03765', '', ( #148 ) ) ;
#120 = AXIS2_PLACEMENT_3D ( 'NONE', #146, #114, #240 ) ;
#121 = COLOUR_RGB ( '',0.7921568627450980005, 0.8196078431372548767, 0.9333333333333333481 ) ;
#122 = DIMENSIONAL_EXPONENTS ( 1.000000000000000000, 0.000000000000000000, 0.000000000000000000, 0.000000000000000000, 0.000000000000000000, 0.000000000000000000, 0.000000000000000000 ) ;
#123 = SHAPE_DEFINITION_REPRESENTATION ( #276, #161 ) ;
#124 =( CONVERSION_BASED_UNIT ( 'INCH', #99 ) LENGTH_UNIT ( ) NAMED_UNIT ( #153 ) );
#125 = SURFACE_STYLE_FILL_AREA ( #27 ) ;
#126 = EDGE_CURVE ( 'NONE', #168, #295, #176, .T. ) ;
#127 = FILL_AREA_STYLE ('',( #272 ) ) ;
#128 = UNCERTAINTY_MEASURE_WITH_UNIT (LENGTH_MEASURE( 1.000000000000000082E-05 ), #243, 'distance_accuracy_value', 'NONE');
#129 = VECTOR ( 'NONE', #149, 39.37007874015748143 ) ;
#130 = COLOUR_RGB ( '',1.000000000000000000, 0.000000000000000000, 0.000000000000000000 ) ;
#131 = CARTESIAN_POINT ( 'NONE',  ( 6.123233995736766036E-17, 0.000000000000000000, 0.5000000000000000000 ) ) ;
#132 = ORIENTED_EDGE ( 'NONE', *, *, #126, .T. ) ;
#133 = EDGE_CURVE ( 'NONE', #213, #234, #97, .T. ) ;
#134 = LENGTH_MEASURE_WITH_UNIT ( LENGTH_MEASURE( 0.02539999999999999897 ), #15 );
#135 = UNCERTAINTY_MEASURE_WITH_UNIT (LENGTH_MEASURE( 1.000000000000000082E-05 ), #216, 'distance_accuracy_value', 'NONE');
#136 = AXIS2_PLACEMENT_3D ( 'NONE', #21, #218, #304 ) ;
#137 = AXIS2_PLACEMENT_3D ( 'NONE', #152, #205, #200 ) ;
#138 = ORIENTED_EDGE ( 'NONE', *, *, #66, .F. ) ;
#139 = DIRECTION ( 'NONE',  ( -0.000000000000000000, -1.000000000000000000, -0.000000000000000000 ) ) ;
#140 = ADVANCED_FACE ( 'NONE', ( #206 ), #309, .T. ) ;
#141 =( GEOMETRIC_REPRESENTATION_CONTEXT ( 3 ) GLOBAL_UNCERTAINTY_ASSIGNED_CONTEXT ( ( #278 ) ) GLOBAL_UNIT_ASSIGNED_CONTEXT ( ( #6, #174, #156 ) ) REPRESENTATION_CONTEXT ( 'NONE', 'WORKASPACE' ) );
#142 =( GEOMETRIC_REPRESENTATION_CONTEXT ( 3 ) GLOBAL_UNCERTAINTY_ASSIGNED_CONTEXT ( ( #294 ) ) GLOBAL_UNIT_ASSIGNED_CONTEXT ( ( #298, #167, #258 ) ) REPRESENTATION_CONTEXT ( 'NONE', 'WORKASPACE' ) );
#143 = CARTESIAN_POINT ( 'NONE',  ( 0.000000000000000000, 2.625000000000000000, 0.000000000000000000 ) ) ;
#144 = PLANE ( 'NONE',  #136 ) ;
#145 = DIRECTION ( 'NONE',  ( -1.000000000000000000, 0.000000000000000000, 0.000000000000000000 ) ) ;
#146 = CARTESIAN_POINT ( 'NONE',  ( 1.516480271171051896E-32, 2.625000000000000000, 0.000000000000000000 ) ) ;
#147 = COLOUR_RGB ( '',1.000000000000000000, 0.000000000000000000, 0.000000000000000000 ) ;
#148 = PRODUCT_CONTEXT ( 'NONE', #241, 'mechanical' ) ;
#149 = DIRECTION ( 'NONE',  ( -3.628583108584753553E-17, 1.000000000000000000, -0.000000000000000000 ) ) ;
#150 = DIRECTION ( 'NONE',  ( 0.000000000000000000, 0.000000000000000000, 1.000000000000000000 ) ) ;
#151 =( LENGTH_UNIT ( ) NAMED_UNIT ( * ) SI_UNIT ( $, .METRE. ) );
#152 = CARTESIAN_POINT ( 'NONE',  ( -1.224646799147354440E-16, 6.000000000000000888, 0.000000000000000000 ) ) ;
#153 = DIMENSIONAL_EXPONENTS ( 1.000000000000000000, 0.000000000000000000, 0.000000000000000000, 0.000000000000000000, 0.000000000000000000, 0.000000000000000000, 0.000000000000000000 ) ;
#154 =( GEOMETRIC_REPRESENTATION_CONTEXT ( 3 ) GLOBAL_UNCERTAINTY_ASSIGNED_CONTEXT ( ( #13 ) ) GLOBAL_UNIT_ASSIGNED_CONTEXT ( ( #179, #220, #75 ) ) REPRESENTATION_CONTEXT ( 'NONE', 'WORKASPACE' ) );
#155 =( NAMED_UNIT ( * ) PLANE_ANGLE_UNIT ( ) SI_UNIT ( $, .RADIAN. ) );
#156 =( NAMED_UNIT ( * ) SI_UNIT ( $, .STERADIAN. ) SOLID_ANGLE_UNIT ( ) );
#157 = CARTESIAN_POINT ( 'NONE',  ( 0.000000000000000000, 0.000000000000000000, -0.5000000000000000000 ) ) ;
#158 = DIRECTION ( 'NONE',  ( 0.000000000000000000, -0.000000000000000000, 1.000000000000000000 ) ) ;
#159 = DIRECTION ( 'NONE',  ( 0.000000000000000000, 0.000000000000000000, -1.000000000000000000 ) ) ;
#160 = PRESENTATION_STYLE_ASSIGNMENT (( #285 ) ) ;
#161 = ADVANCED_BREP_SHAPE_REPRESENTATION ( '03765', ( #88, #203, #215 ), #142 ) ;
#162 = ORIENTED_EDGE ( 'NONE', *, *, #282, .F. ) ;
#163 = CLOSED_SHELL ( 'NONE', ( #31, #166, #180, #51 ) ) ;
#164 = STYLED_ITEM ( 'NONE', ( #199 ), #169 ) ;
#165 = PRESENTATION_STYLE_ASSIGNMENT (( #279 ) ) ;
#166 = ADVANCED_FACE ( 'NONE', ( #307 ), #204, .F. ) ;
#167 =( NAMED_UNIT ( * ) PLANE_ANGLE_UNIT ( ) SI_UNIT ( $, .RADIAN. ) );
#168 = VERTEX_POINT ( 'NONE', #308 ) ;
#169 = ADVANCED_FACE ( 'NONE', ( #201 ), #34, .T. ) ;
#170 =( NAMED_UNIT ( * ) SI_UNIT ( $, .STERADIAN. ) SOLID_ANGLE_UNIT ( ) );
#171 = CARTESIAN_POINT ( 'NONE',  ( -1.224646799147354440E-16, 6.000000000000000888, 0.000000000000000000 ) ) ;
#172 = AXIS2_PLACEMENT_3D ( 'NONE', #224, #253, #159 ) ;
#173 = CARTESIAN_POINT ( 'NONE',  ( 0.000000000000000000, 0.000000000000000000, 0.000000000000000000 ) ) ;
#174 =( NAMED_UNIT ( * ) PLANE_ANGLE_UNIT ( ) SI_UNIT ( $, .RADIAN. ) );
#175 = FACE_OUTER_BOUND ( 'NONE', #11, .T. ) ;
#176 = LINE ( 'NONE', #187, #129 ) ;
#177 = CARTESIAN_POINT ( 'NONE',  ( -1.224646799147354440E-16, 6.000000000000000888, 0.000000000000000000 ) ) ;
#178 = CARTESIAN_POINT ( 'NONE',  ( 6.123233995736766036E-17, 0.000000000000000000, 0.5000000000000000000 ) ) ;
#179 =( CONVERSION_BASED_UNIT ( 'INCH', #64 ) LENGTH_UNIT ( ) NAMED_UNIT ( #195 ) );
#180 = ADVANCED_FACE ( 'NONE', ( #33 ), #96, .T. ) ;
#181 = PRESENTATION_LAYER_ASSIGNMENT (  '', '', ( #293 ) ) ;
#182 = LENGTH_MEASURE_WITH_UNIT ( LENGTH_MEASURE( 0.02539999999999999897 ), #70 );
#183 = DIMENSIONAL_EXPONENTS ( 1.000000000000000000, 0.000000000000000000, 0.000000000000000000, 0.000000000000000000, 0.000000000000000000, 0.000000000000000000, 0.000000000000000000 ) ;
#184 = DIRECTION ( 'NONE',  ( -0.000000000000000000, -1.000000000000000000, -0.000000000000000000 ) ) ;
#185 =( GEOMETRIC_REPRESENTATION_CONTEXT ( 3 ) GLOBAL_UNCERTAINTY_ASSIGNED_CONTEXT ( ( #128 ) ) GLOBAL_UNIT_ASSIGNED_CONTEXT ( ( #243, #107, #211 ) ) REPRESENTATION_CONTEXT ( 'NONE', 'WORKASPACE' ) );
#186 = PRODUCT_DEFINITION ( 'UNKNOWN', '', #228, #269 ) ;
#187 = CARTESIAN_POINT ( 'NONE',  ( 0.4999999999999999445, 6.000000000000000888, 6.123233995736767268E-17 ) ) ;
#188 = SURFACE_SIDE_STYLE ('',( #125 ) ) ;
#189 = ORIENTED_EDGE ( 'NONE', *, *, #252, .T. ) ;
#190 = DIRECTION ( 'NONE',  ( -3.628583108584753553E-17, 1.000000000000000000, -0.000000000000000000 ) ) ;
#191 = ORIENTED_EDGE ( 'NONE', *, *, #98, .T. ) ;
#192 = AXIS2_PLACEMENT_3D ( 'NONE', #303, #115, #221 ) ;
#193 = SURFACE_STYLE_USAGE ( .BOTH. , #86 ) ;
#194 = DIRECTION ( 'NONE',  ( -1.000000000000000000, 0.000000000000000000, 0.000000000000000000 ) ) ;
#195 = DIMENSIONAL_EXPONENTS ( 1.000000000000000000, 0.000000000000000000, 0.000000000000000000, 0.000000000000000000, 0.000000000000000000, 0.000000000000000000, 0.000000000000000000 ) ;
#196 = DIRECTION ( 'NONE',  ( 0.000000000000000000, 0.000000000000000000, -1.000000000000000000 ) ) ;
#197 = EDGE_CURVE ( 'NONE', #234, #295, #84, .T. ) ;
#198 = CIRCLE ( 'NONE', #120, 0.5000000000000000000 ) ;
#199 = PRESENTATION_STYLE_ASSIGNMENT (( #3 ) ) ;
#200 = DIRECTION ( 'NONE',  ( -1.000000000000000000, 0.000000000000000000, 0.000000000000000000 ) ) ;
#201 = FACE_OUTER_BOUND ( 'NONE', #274, .T. ) ;
#202 = DIMENSIONAL_EXPONENTS ( 1.000000000000000000, 0.000000000000000000, 0.000000000000000000, 0.000000000000000000, 0.000000000000000000, 0.000000000000000000, 0.000000000000000000 ) ;
#203 = MANIFOLD_SOLID_BREP ( 'Revolve - Tool Body (Straight Shanked)', #163 ) ;
#204 = PLANE ( 'NONE',  #286 ) ;
#205 = DIRECTION ( 'NONE',  ( -3.628583108584753553E-17, 1.000000000000000000, -0.000000000000000000 ) ) ;
#206 = FACE_OUTER_BOUND ( 'NONE', #7, .T. ) ;
#207 = SURFACE_STYLE_FILL_AREA ( #5 ) ;
#208 = ORIENTED_EDGE ( 'NONE', *, *, #98, .F. ) ;
#209 = DIRECTION ( 'NONE',  ( 0.000000000000000000, 0.000000000000000000, -1.000000000000000000 ) ) ;
#210 = ORIENTED_EDGE ( 'NONE', *, *, #126, .F. ) ;
#211 =( NAMED_UNIT ( * ) SI_UNIT ( $, .STERADIAN. ) SOLID_ANGLE_UNIT ( ) );
#212 = UNCERTAINTY_MEASURE_WITH_UNIT (LENGTH_MEASURE( 1.000000000000000082E-05 ), #124, 'distance_accuracy_value', 'NONE');
#213 = VERTEX_POINT ( 'NONE', #102 ) ;
#214 = EDGE_LOOP ( 'NONE', ( #257, #111 ) ) ;
#215 = AXIS2_PLACEMENT_3D ( 'NONE', #67, #150, #287 ) ;
#216 =( CONVERSION_BASED_UNIT ( 'INCH', #23 ) LENGTH_UNIT ( ) NAMED_UNIT ( #122 ) );
#217 = ADVANCED_FACE ( 'NONE', ( #79 ), #35, .T. ) ;
#218 = DIRECTION ( 'NONE',  ( 3.628583108584753553E-17, -1.000000000000000000, 0.000000000000000000 ) ) ;
#219 =( LENGTH_UNIT ( ) NAMED_UNIT ( * ) SI_UNIT ( $, .METRE. ) );
#220 =( NAMED_UNIT ( * ) PLANE_ANGLE_UNIT ( ) SI_UNIT ( $, .RADIAN. ) );
#221 = DIRECTION ( 'NONE',  ( 0.000000000000000000, 0.000000000000000000, -1.000000000000000000 ) ) ;
#222 = SURFACE_STYLE_FILL_AREA ( #20 ) ;
#223 = DIRECTION ( 'NONE',  ( -3.628583108584753553E-17, 1.000000000000000000, -0.000000000000000000 ) ) ;
#224 = CARTESIAN_POINT ( 'NONE',  ( 0.000000000000000000, 0.000000000000000000, 0.000000000000000000 ) ) ;
#225 = VECTOR ( 'NONE', #296, 39.37007874015748143 ) ;
#226 =( LENGTH_UNIT ( ) NAMED_UNIT ( * ) SI_UNIT ( $, .METRE. ) );
#227 = SURFACE_STYLE_FILL_AREA ( #127 ) ;
#228 = PRODUCT_DEFINITION_FORMATION_WITH_SPECIFIED_SOURCE ( 'ANY', '', #119, .NOT_KNOWN. ) ;
#229 = ORIENTED_EDGE ( 'NONE', *, *, #197, .F. ) ;
#230 = CARTESIAN_POINT ( 'NONE',  ( 0.000000000000000000, 0.000000000000000000, -0.5000000000000000000 ) ) ;
#231 = EDGE_LOOP ( 'NONE', ( #77, #132, #229, #110 ) ) ;
#232 = VERTEX_POINT ( 'NONE', #230 ) ;
#233 = PRESENTATION_LAYER_ASSIGNMENT (  '', '', ( #47 ) ) ;
#234 = VERTEX_POINT ( 'NONE', #76 ) ;
#235 = CARTESIAN_POINT ( 'NONE',  ( 0.000000000000000000, 0.000000000000000000, 0.000000000000000000 ) ) ;
#236 = ORIENTED_EDGE ( 'NONE', *, *, #41, .F. ) ;
#237 = COLOUR_RGB ( '',0.7921568627450980005, 0.8196078431372548767, 0.9333333333333333481 ) ;
#238 = FACE_OUTER_BOUND ( 'NONE', #214, .T. ) ;
#239 = DIRECTION ( 'NONE',  ( -0.000000000000000000, -1.000000000000000000, -0.000000000000000000 ) ) ;
#240 = DIRECTION ( 'NONE',  ( -1.000000000000000000, 0.000000000000000000, 0.000000000000000000 ) ) ;
#241 = APPLICATION_CONTEXT ( 'automotive_design' ) ;
#242 = DIRECTION ( 'NONE',  ( -3.628583108584753553E-17, 1.000000000000000000, 0.000000000000000000 ) ) ;
#243 =( CONVERSION_BASED_UNIT ( 'INCH', #182 ) LENGTH_UNIT ( ) NAMED_UNIT ( #183 ) );
#244 = DIRECTION ( 'NONE',  ( -3.628583108584753553E-17, 1.000000000000000000, -0.000000000000000000 ) ) ;
#245 = PRESENTATION_LAYER_ASSIGNMENT (  '', '', ( #266 ) ) ;
#246 = PRODUCT_RELATED_PRODUCT_CATEGORY ( 'part', '', ( #119 ) ) ;
#247 = APPLICATION_PROTOCOL_DEFINITION ( 'draft international standard', 'automotive_design', 1998, #241 ) ;
#248 = PRESENTATION_STYLE_ASSIGNMENT (( #73 ) ) ;
#249 = CARTESIAN_POINT ( 'NONE',  ( 0.000000000000000000, 2.625000000000000000, 0.000000000000000000 ) ) ;
#250 = APPLICATION_CONTEXT ( 'automotive_design' ) ;
#251 = DIRECTION ( 'NONE',  ( -3.628583108584753553E-17, 1.000000000000000000, -0.000000000000000000 ) ) ;
#252 = EDGE_CURVE ( 'NONE', #4, #81, #36, .T. ) ;
#253 = DIRECTION ( 'NONE',  ( -0.000000000000000000, -1.000000000000000000, -0.000000000000000000 ) ) ;
#254 = CIRCLE ( 'NONE', #108, 0.5000000000000001110 ) ;
#255 = ORIENTED_EDGE ( 'NONE', *, *, #41, .T. ) ;
#256 =( NAMED_UNIT ( * ) PLANE_ANGLE_UNIT ( ) SI_UNIT ( $, .RADIAN. ) );
#257 = ORIENTED_EDGE ( 'NONE', *, *, #197, .T. ) ;
#258 =( NAMED_UNIT ( * ) SI_UNIT ( $, .STERADIAN. ) SOLID_ANGLE_UNIT ( ) );
#259 = ORIENTED_EDGE ( 'NONE', *, *, #66, .T. ) ;
#260 = COLOUR_RGB ( '',1.000000000000000000, 0.000000000000000000, 0.000000000000000000 ) ;
#261 = DIRECTION ( 'NONE',  ( -0.000000000000000000, -1.000000000000000000, -0.000000000000000000 ) ) ;
#262 = AXIS2_PLACEMENT_3D ( 'NONE', #143, #239, #196 ) ;
#263 = MECHANICAL_DESIGN_GEOMETRIC_PRESENTATION_REPRESENTATION (  '', ( #19 ), #185 ) ;
#264 = FILL_AREA_STYLE_COLOUR ( '', #147 ) ;
#265 = CYLINDRICAL_SURFACE ( 'NONE', #83, 0.5000000000000001110 ) ;
#266 = STYLED_ITEM ( 'NONE', ( #61 ), #88 ) ;
#267 = PRESENTATION_LAYER_ASSIGNMENT (  '', '', ( #19 ) ) ;
#268 = CARTESIAN_POINT ( 'NONE',  ( -0.5000000000000002220, 6.000000000000000888, 0.000000000000000000 ) ) ;
#269 = PRODUCT_DEFINITION_CONTEXT ( 'detailed design', #250, 'design' ) ;
#270 = CARTESIAN_POINT ( 'NONE',  ( -1.224646799147354440E-16, 6.000000000000000888, 0.000000000000000000 ) ) ;
#271 = APPLICATION_PROTOCOL_DEFINITION ( 'draft international standard', 'automotive_design', 1998, #250 ) ;
#272 = FILL_AREA_STYLE_COLOUR ( '', #94 ) ;
#273 = ORIENTED_EDGE ( 'NONE', *, *, #282, .T. ) ;
#274 = EDGE_LOOP ( 'NONE', ( #37, #236 ) ) ;
#275 = CARTESIAN_POINT ( 'NONE',  ( 0.000000000000000000, 0.000000000000000000, 0.000000000000000000 ) ) ;
#276 = PRODUCT_DEFINITION_SHAPE ( 'NONE', 'NONE',  #186 ) ;
#277 = LENGTH_MEASURE_WITH_UNIT ( LENGTH_MEASURE( 0.02539999999999999897 ), #38 );
#278 = UNCERTAINTY_MEASURE_WITH_UNIT (LENGTH_MEASURE( 1.000000000000000082E-05 ), #6, 'distance_accuracy_value', 'NONE');
#279 = SURFACE_STYLE_USAGE ( .BOTH. , #78 ) ;
#280 =( LENGTH_UNIT ( ) NAMED_UNIT ( * ) SI_UNIT ( $, .METRE. ) );
#281 = LINE ( 'NONE', #178, #225 ) ;
#282 = EDGE_CURVE ( 'NONE', #16, #232, #57, .T. ) ;
#283 =( NAMED_UNIT ( * ) SI_UNIT ( $, .STERADIAN. ) SOLID_ANGLE_UNIT ( ) );
#284 = DIMENSIONAL_EXPONENTS ( 1.000000000000000000, 0.000000000000000000, 0.000000000000000000, 0.000000000000000000, 0.000000000000000000, 0.000000000000000000, 0.000000000000000000 ) ;
#285 = SURFACE_STYLE_USAGE ( .BOTH. , #188 ) ;
#286 = AXIS2_PLACEMENT_3D ( 'NONE', #68, #242, #26 ) ;
#287 = DIRECTION ( 'NONE',  ( 1.000000000000000000, 0.000000000000000000, 0.000000000000000000 ) ) ;
#288 = DIMENSIONAL_EXPONENTS ( 1.000000000000000000, 0.000000000000000000, 0.000000000000000000, 0.000000000000000000, 0.000000000000000000, 0.000000000000000000, 0.000000000000000000 ) ;
#289 = LENGTH_MEASURE_WITH_UNIT ( LENGTH_MEASURE( 0.02539999999999999897 ), #151 );
#290 = ORIENTED_EDGE ( 'NONE', *, *, #72, .T. ) ;
#291 =( CONVERSION_BASED_UNIT ( 'INCH', #277 ) LENGTH_UNIT ( ) NAMED_UNIT ( #284 ) );
#292 = VECTOR ( 'NONE', #251, 39.37007874015748143 ) ;
#293 = STYLED_ITEM ( 'NONE', ( #165 ), #217 ) ;
#294 = UNCERTAINTY_MEASURE_WITH_UNIT (LENGTH_MEASURE( 1.000000000000000082E-05 ), #298, 'distance_accuracy_value', 'NONE');
#295 = VERTEX_POINT ( 'NONE', #9 ) ;
#296 = DIRECTION ( 'NONE',  ( -0.000000000000000000, -1.000000000000000000, -0.000000000000000000 ) ) ;
#297 = EDGE_LOOP ( 'NONE', ( #299, #138 ) ) ;
#298 =( CONVERSION_BASED_UNIT ( 'INCH', #134 ) LENGTH_UNIT ( ) NAMED_UNIT ( #202 ) );
#299 = ORIENTED_EDGE ( 'NONE', *, *, #62, .F. ) ;
#300 = AXIS2_PLACEMENT_3D ( 'NONE', #306, #89, #194 ) ;
#301 = AXIS2_PLACEMENT_3D ( 'NONE', #270, #244, #50 ) ;
#302 = DIRECTION ( 'NONE',  ( 0.000000000000000000, 0.000000000000000000, -1.000000000000000000 ) ) ;
#303 = CARTESIAN_POINT ( 'NONE',  ( 0.000000000000000000, 0.000000000000000000, 0.000000000000000000 ) ) ;
#304 = DIRECTION ( 'NONE',  ( 1.000000000000000000, 3.628583108584753553E-17, 0.000000000000000000 ) ) ;
#305 = STYLED_ITEM ( 'NONE', ( #248 ), #140 ) ;
#306 = CARTESIAN_POINT ( 'NONE',  ( 1.516480271171051896E-32, 2.625000000000000000, 0.000000000000000000 ) ) ;
#307 = FACE_OUTER_BOUND ( 'NONE', #297, .T. ) ;
#308 = CARTESIAN_POINT ( 'NONE',  ( 0.5000000000000000000, 2.625000000000000000, 6.123233995736767268E-17 ) ) ;
#309 = CYLINDRICAL_SURFACE ( 'NONE', #172, 0.5000000000000000000 ) ;
ENDSEC;
END-ISO-10303-21;
