ISO-10303-21;
HEADER;
FILE_DESCRIPTION (( 'STEP AP214' ),
    '1' );
FILE_NAME ('44397W.STEP',
    '2023-06-22T20:27:40',
    ( '' ),
    ( '' ),
    'SwSTEP 2.0',
    'SolidWorks 2023',
    '' );
FILE_SCHEMA (( 'AUTOMOTIVE_DESIGN' ));
ENDSEC;

DATA;
#1 = SHAPE_DEFINITION_REPRESENTATION ( #305, #239 ) ;
#2 = EDGE_CURVE ( 'NONE', #222, #235, #48, .T. ) ;
#3 = SURFACE_STYLE_FILL_AREA ( #254 ) ;
#4 = CARTESIAN_POINT ( 'NONE',  ( 0.3750000000000000555, 5.000000000000000000, 4.592425496802576684E-17 ) ) ;
#5 =( NAMED_UNIT ( * ) SI_UNIT ( $, .STERADIAN. ) SOLID_ANGLE_UNIT ( ) );
#6 = LENGTH_MEASURE_WITH_UNIT ( LENGTH_MEASURE( 0.02539999999999999897 ), #109 );
#7 = DIRECTION ( 'NONE',  ( -0.000000000000000000, -1.000000000000000000, -0.000000000000000000 ) ) ;
#8 = UNCERTAINTY_MEASURE_WITH_UNIT (LENGTH_MEASURE( 1.000000000000000082E-05 ), #107, 'distance_accuracy_value', 'NONE');
#9 = SURFACE_STYLE_FILL_AREA ( #61 ) ;
#10 = ORIENTED_EDGE ( 'NONE', *, *, #238, .T. ) ;
#11 = VECTOR ( 'NONE', #181, 39.37007874015748143 ) ;
#12 = MANIFOLD_SOLID_BREP ( 'Revolve - Tool Body (Straight Shanked)', #280 ) ;
#13 = CARTESIAN_POINT ( 'NONE',  ( 0.000000000000000000, 2.750000000000000000, 0.000000000000000000 ) ) ;
#14 = ORIENTED_EDGE ( 'NONE', *, *, #67, .F. ) ;
#15 =( NAMED_UNIT ( * ) SI_UNIT ( $, .STERADIAN. ) SOLID_ANGLE_UNIT ( ) );
#16 = VERTEX_POINT ( 'NONE', #112 ) ;
#17 = AXIS2_PLACEMENT_3D ( 'NONE', #119, #170, #192 ) ;
#18 =( GEOMETRIC_REPRESENTATION_CONTEXT ( 3 ) GLOBAL_UNCERTAINTY_ASSIGNED_CONTEXT ( ( #215 ) ) GLOBAL_UNIT_ASSIGNED_CONTEXT ( ( #241, #26, #47 ) ) REPRESENTATION_CONTEXT ( 'NONE', 'WORKASPACE' ) );
#19 = FILL_AREA_STYLE_COLOUR ( '', #260 ) ;
#20 =( GEOMETRIC_REPRESENTATION_CONTEXT ( 3 ) GLOBAL_UNCERTAINTY_ASSIGNED_CONTEXT ( ( #8 ) ) GLOBAL_UNIT_ASSIGNED_CONTEXT ( ( #107, #256, #168 ) ) REPRESENTATION_CONTEXT ( 'NONE', 'WORKASPACE' ) );
#21 = CARTESIAN_POINT ( 'NONE',  ( -1.224646799147353207E-16, 5.000000000000000000, 0.000000000000000000 ) ) ;
#22 = AXIS2_PLACEMENT_3D ( 'NONE', #156, #7, #187 ) ;
#23 =( LENGTH_UNIT ( ) NAMED_UNIT ( * ) SI_UNIT ( $, .METRE. ) );
#24 = DIRECTION ( 'NONE',  ( 0.000000000000000000, 0.000000000000000000, -1.000000000000000000 ) ) ;
#25 =( NAMED_UNIT ( * ) PLANE_ANGLE_UNIT ( ) SI_UNIT ( $, .RADIAN. ) );
#26 =( NAMED_UNIT ( * ) PLANE_ANGLE_UNIT ( ) SI_UNIT ( $, .RADIAN. ) );
#27 = AXIS2_PLACEMENT_3D ( 'NONE', #51, #136, #24 ) ;
#28 = DIRECTION ( 'NONE',  ( -1.000000000000000000, 0.000000000000000000, 0.000000000000000000 ) ) ;
#29 = FILL_AREA_STYLE_COLOUR ( '', #82 ) ;
#30 = CIRCLE ( 'NONE', #221, 0.3750000000000000555 ) ;
#31 = DIRECTION ( 'NONE',  ( 0.000000000000000000, 0.000000000000000000, -1.000000000000000000 ) ) ;
#32 = AXIS2_PLACEMENT_3D ( 'NONE', #92, #76, #145 ) ;
#33 = VECTOR ( 'NONE', #122, 39.37007874015748143 ) ;
#34 = EDGE_CURVE ( 'NONE', #104, #16, #193, .T. ) ;
#35 = ORIENTED_EDGE ( 'NONE', *, *, #186, .F. ) ;
#36 = CARTESIAN_POINT ( 'NONE',  ( 0.000000000000000000, 0.000000000000000000, -0.3750000000000000555 ) ) ;
#37 = FILL_AREA_STYLE_COLOUR ( '', #257 ) ;
#38 = AXIS2_PLACEMENT_3D ( 'NONE', #185, #69, #285 ) ;
#39 = LINE ( 'NONE', #65, #298 ) ;
#40 = FACE_OUTER_BOUND ( 'NONE', #225, .T. ) ;
#41 = ADVANCED_FACE ( 'NONE', ( #266 ), #115, .F. ) ;
#42 = ORIENTED_EDGE ( 'NONE', *, *, #142, .T. ) ;
#43 = STYLED_ITEM ( 'NONE', ( #197 ), #106 ) ;
#44 = LINE ( 'NONE', #36, #33 ) ;
#45 = FILL_AREA_STYLE ('',( #153 ) ) ;
#46 = UNCERTAINTY_MEASURE_WITH_UNIT (LENGTH_MEASURE( 1.000000000000000082E-05 ), #214, 'distance_accuracy_value', 'NONE');
#47 =( NAMED_UNIT ( * ) SI_UNIT ( $, .STERADIAN. ) SOLID_ANGLE_UNIT ( ) );
#48 = CIRCLE ( 'NONE', #178, 0.3750000000000000555 ) ;
#49 = DIRECTION ( 'NONE',  ( -1.000000000000000000, 0.000000000000000000, 0.000000000000000000 ) ) ;
#50 = MECHANICAL_DESIGN_GEOMETRIC_PRESENTATION_REPRESENTATION (  '', ( #278 ), #123 ) ;
#51 = CARTESIAN_POINT ( 'NONE',  ( 0.000000000000000000, 0.000000000000000000, 0.000000000000000000 ) ) ;
#52 = PRESENTATION_STYLE_ASSIGNMENT (( #270 ) ) ;
#53 = LENGTH_MEASURE_WITH_UNIT ( LENGTH_MEASURE( 0.02539999999999999897 ), #135 );
#54 = ADVANCED_FACE ( 'NONE', ( #243 ), #242, .T. ) ;
#55 = LINE ( 'NONE', #118, #68 ) ;
#56 = STYLED_ITEM ( 'NONE', ( #140 ), #196 ) ;
#57 = DIRECTION ( 'NONE',  ( -1.000000000000000000, 0.000000000000000000, 0.000000000000000000 ) ) ;
#58 = DIMENSIONAL_EXPONENTS ( 1.000000000000000000, 0.000000000000000000, 0.000000000000000000, 0.000000000000000000, 0.000000000000000000, 0.000000000000000000, 0.000000000000000000 ) ;
#59 = AXIS2_PLACEMENT_3D ( 'NONE', #114, #162, #236 ) ;
#60 = CARTESIAN_POINT ( 'NONE',  ( 0.000000000000000000, 0.000000000000000000, 0.000000000000000000 ) ) ;
#61 = FILL_AREA_STYLE ('',( #250 ) ) ;
#62 = VERTEX_POINT ( 'NONE', #292 ) ;
#63 = DIRECTION ( 'NONE',  ( -0.000000000000000000, -1.000000000000000000, -0.000000000000000000 ) ) ;
#64 = CIRCLE ( 'NONE', #27, 0.3750000000000000555 ) ;
#65 = CARTESIAN_POINT ( 'NONE',  ( 0.3749999999999999445, 5.000000000000000000, 4.592425496802576068E-17 ) ) ;
#66 = DIRECTION ( 'NONE',  ( -5.442874662877125708E-17, 1.000000000000000000, -0.000000000000000000 ) ) ;
#67 = EDGE_CURVE ( 'NONE', #62, #154, #64, .T. ) ;
#68 = VECTOR ( 'NONE', #219, 39.37007874015748143 ) ;
#69 = DIRECTION ( 'NONE',  ( 0.000000000000000000, -1.000000000000000000, -0.000000000000000000 ) ) ;
#70 = CARTESIAN_POINT ( 'NONE',  ( 3.032960542342103792E-32, 2.750000000000000000, 0.000000000000000000 ) ) ;
#71 = FILL_AREA_STYLE ('',( #182 ) ) ;
#72 = CARTESIAN_POINT ( 'NONE',  ( -0.3750000000000002776, 5.000000000000000000, 0.000000000000000000 ) ) ;
#73 = SURFACE_STYLE_FILL_AREA ( #45 ) ;
#74 =( GEOMETRIC_REPRESENTATION_CONTEXT ( 3 ) GLOBAL_UNCERTAINTY_ASSIGNED_CONTEXT ( ( #110 ) ) GLOBAL_UNIT_ASSIGNED_CONTEXT ( ( #134, #25, #94 ) ) REPRESENTATION_CONTEXT ( 'NONE', 'WORKASPACE' ) );
#75 = LENGTH_MEASURE_WITH_UNIT ( LENGTH_MEASURE( 0.02539999999999999897 ), #217 );
#76 = DIRECTION ( 'NONE',  ( -0.000000000000000000, -1.000000000000000000, -0.000000000000000000 ) ) ;
#77 = CYLINDRICAL_SURFACE ( 'NONE', #244, 0.3750000000000000555 ) ;
#78 = CARTESIAN_POINT ( 'NONE',  ( 0.3750000000000000555, 5.000000000000000000, 0.000000000000000000 ) ) ;
#79 = LENGTH_MEASURE_WITH_UNIT ( LENGTH_MEASURE( 0.02539999999999999897 ), #167 );
#80 =( CONVERSION_BASED_UNIT ( 'INCH', #199 ) LENGTH_UNIT ( ) NAMED_UNIT ( #58 ) );
#81 = ORIENTED_EDGE ( 'NONE', *, *, #142, .F. ) ;
#82 = COLOUR_RGB ( '',1.000000000000000000, 0.000000000000000000, 0.000000000000000000 ) ;
#83 = ORIENTED_EDGE ( 'NONE', *, *, #34, .T. ) ;
#84 = DIRECTION ( 'NONE',  ( 1.000000000000000000, 5.442874662877125091E-17, 0.000000000000000000 ) ) ;
#85 = EDGE_LOOP ( 'NONE', ( #105, #231, #14, #283 ) ) ;
#86 = PRODUCT ( '44397W', '44397W', '', ( #259 ) ) ;
#87 = CYLINDRICAL_SURFACE ( 'NONE', #233, 0.3750000000000001110 ) ;
#88 = EDGE_LOOP ( 'NONE', ( #180, #300 ) ) ;
#89 = EDGE_LOOP ( 'NONE', ( #126, #302 ) ) ;
#90 = ORIENTED_EDGE ( 'NONE', *, *, #238, .F. ) ;
#91 = EDGE_CURVE ( 'NONE', #154, #62, #152, .T. ) ;
#92 = CARTESIAN_POINT ( 'NONE',  ( 0.000000000000000000, 0.000000000000000000, 0.000000000000000000 ) ) ;
#93 = PRESENTATION_LAYER_ASSIGNMENT (  '', '', ( #56 ) ) ;
#94 =( NAMED_UNIT ( * ) SI_UNIT ( $, .STERADIAN. ) SOLID_ANGLE_UNIT ( ) );
#95 = FACE_OUTER_BOUND ( 'NONE', #100, .T. ) ;
#96 = DIMENSIONAL_EXPONENTS ( 1.000000000000000000, 0.000000000000000000, 0.000000000000000000, 0.000000000000000000, 0.000000000000000000, 0.000000000000000000, 0.000000000000000000 ) ;
#97 = PRESENTATION_LAYER_ASSIGNMENT (  '', '', ( #237 ) ) ;
#98 = DIRECTION ( 'NONE',  ( -5.442874662877125091E-17, 1.000000000000000000, 0.000000000000000000 ) ) ;
#99 = ADVANCED_FACE ( 'NONE', ( #303 ), #271, .T. ) ;
#100 = EDGE_LOOP ( 'NONE', ( #42, #10 ) ) ;
#101 = SURFACE_STYLE_FILL_AREA ( #299 ) ;
#102 =( GEOMETRIC_REPRESENTATION_CONTEXT ( 3 ) GLOBAL_UNCERTAINTY_ASSIGNED_CONTEXT ( ( #46 ) ) GLOBAL_UNIT_ASSIGNED_CONTEXT ( ( #214, #220, #269 ) ) REPRESENTATION_CONTEXT ( 'NONE', 'WORKASPACE' ) );
#103 = SURFACE_STYLE_USAGE ( .BOTH. , #223 ) ;
#104 = VERTEX_POINT ( 'NONE', #201 ) ;
#105 = ORIENTED_EDGE ( 'NONE', *, *, #113, .T. ) ;
#106 = ADVANCED_FACE ( 'NONE', ( #301 ), #247, .T. ) ;
#107 =( CONVERSION_BASED_UNIT ( 'INCH', #177 ) LENGTH_UNIT ( ) NAMED_UNIT ( #96 ) );
#108 = MANIFOLD_SOLID_BREP ( 'Revolve - Cutting Edge', #132 ) ;
#109 =( LENGTH_UNIT ( ) NAMED_UNIT ( * ) SI_UNIT ( $, .METRE. ) );
#110 = UNCERTAINTY_MEASURE_WITH_UNIT (LENGTH_MEASURE( 1.000000000000000082E-05 ), #134, 'distance_accuracy_value', 'NONE');
#111 = MECHANICAL_DESIGN_GEOMETRIC_PRESENTATION_REPRESENTATION (  '', ( #43 ), #148 ) ;
#112 = CARTESIAN_POINT ( 'NONE',  ( 0.000000000000000000, 2.750000000000000000, -0.3750000000000000555 ) ) ;
#113 = EDGE_CURVE ( 'NONE', #16, #104, #30, .T. ) ;
#114 = CARTESIAN_POINT ( 'NONE',  ( 3.032960542342103792E-32, 2.750000000000000000, 0.000000000000000000 ) ) ;
#115 = PLANE ( 'NONE',  #194 ) ;
#116 =( GEOMETRIC_REPRESENTATION_CONTEXT ( 3 ) GLOBAL_UNCERTAINTY_ASSIGNED_CONTEXT ( ( #169 ) ) GLOBAL_UNIT_ASSIGNED_CONTEXT ( ( #127, #208, #5 ) ) REPRESENTATION_CONTEXT ( 'NONE', 'WORKASPACE' ) );
#117 = APPLICATION_PROTOCOL_DEFINITION ( 'draft international standard', 'automotive_design', 1998, #308 ) ;
#118 = CARTESIAN_POINT ( 'NONE',  ( 4.592425496802575451E-17, 0.000000000000000000, 0.3750000000000000555 ) ) ;
#119 = CARTESIAN_POINT ( 'NONE',  ( 0.000000000000000000, 2.750000000000000000, 0.000000000000000000 ) ) ;
#120 = AXIS2_PLACEMENT_3D ( 'NONE', #60, #63, #31 ) ;
#121 = EDGE_LOOP ( 'NONE', ( #172, #200 ) ) ;
#122 = DIRECTION ( 'NONE',  ( -0.000000000000000000, -1.000000000000000000, -0.000000000000000000 ) ) ;
#123 =( GEOMETRIC_REPRESENTATION_CONTEXT ( 3 ) GLOBAL_UNCERTAINTY_ASSIGNED_CONTEXT ( ( #207 ) ) GLOBAL_UNIT_ASSIGNED_CONTEXT ( ( #228, #143, #173 ) ) REPRESENTATION_CONTEXT ( 'NONE', 'WORKASPACE' ) );
#124 = CARTESIAN_POINT ( 'NONE',  ( -1.224646799147353207E-16, 5.000000000000000000, 0.000000000000000000 ) ) ;
#125 = CARTESIAN_POINT ( 'NONE',  ( -1.224646799147353207E-16, 5.000000000000000000, 0.000000000000000000 ) ) ;
#126 = ORIENTED_EDGE ( 'NONE', *, *, #113, .F. ) ;
#127 =( CONVERSION_BASED_UNIT ( 'INCH', #75 ) LENGTH_UNIT ( ) NAMED_UNIT ( #150 ) );
#128 = ADVANCED_FACE ( 'NONE', ( #40 ), #87, .T. ) ;
#129 = CIRCLE ( 'NONE', #144, 0.3750000000000001665 ) ;
#130 = DIRECTION ( 'NONE',  ( -5.442874662877125708E-17, 1.000000000000000000, -0.000000000000000000 ) ) ;
#131 = SURFACE_SIDE_STYLE ('',( #73 ) ) ;
#132 = CLOSED_SHELL ( 'NONE', ( #137, #54, #106, #196 ) ) ;
#133 = PRESENTATION_LAYER_ASSIGNMENT (  '', '', ( #278 ) ) ;
#134 =( CONVERSION_BASED_UNIT ( 'INCH', #6 ) LENGTH_UNIT ( ) NAMED_UNIT ( #232 ) );
#135 =( LENGTH_UNIT ( ) NAMED_UNIT ( * ) SI_UNIT ( $, .METRE. ) );
#136 = DIRECTION ( 'NONE',  ( -0.000000000000000000, -1.000000000000000000, -0.000000000000000000 ) ) ;
#137 = ADVANCED_FACE ( 'NONE', ( #262 ), #77, .T. ) ;
#138 = SURFACE_STYLE_FILL_AREA ( #71 ) ;
#139 = DIRECTION ( 'NONE',  ( -1.000000000000000000, -5.442874662877125091E-17, 0.000000000000000000 ) ) ;
#140 = PRESENTATION_STYLE_ASSIGNMENT (( #240 ) ) ;
#141 = CARTESIAN_POINT ( 'NONE',  ( -1.224646799147353207E-16, 5.000000000000000000, 0.000000000000000000 ) ) ;
#142 = EDGE_CURVE ( 'NONE', #307, #297, #129, .T. ) ;
#143 =( NAMED_UNIT ( * ) PLANE_ANGLE_UNIT ( ) SI_UNIT ( $, .RADIAN. ) );
#144 = AXIS2_PLACEMENT_3D ( 'NONE', #21, #66, #49 ) ;
#145 = DIRECTION ( 'NONE',  ( 0.000000000000000000, 0.000000000000000000, -1.000000000000000000 ) ) ;
#146 =( LENGTH_UNIT ( ) NAMED_UNIT ( * ) SI_UNIT ( $, .METRE. ) );
#147 = ORIENTED_EDGE ( 'NONE', *, *, #2, .T. ) ;
#148 =( GEOMETRIC_REPRESENTATION_CONTEXT ( 3 ) GLOBAL_UNCERTAINTY_ASSIGNED_CONTEXT ( ( #195 ) ) GLOBAL_UNIT_ASSIGNED_CONTEXT ( ( #80, #171, #15 ) ) REPRESENTATION_CONTEXT ( 'NONE', 'WORKASPACE' ) );
#149 = DIRECTION ( 'NONE',  ( 0.000000000000000000, 0.000000000000000000, -1.000000000000000000 ) ) ;
#150 = DIMENSIONAL_EXPONENTS ( 1.000000000000000000, 0.000000000000000000, 0.000000000000000000, 0.000000000000000000, 0.000000000000000000, 0.000000000000000000, 0.000000000000000000 ) ;
#151 = APPLICATION_CONTEXT ( 'automotive_design' ) ;
#152 = CIRCLE ( 'NONE', #32, 0.3750000000000000555 ) ;
#153 = FILL_AREA_STYLE_COLOUR ( '', #226 ) ;
#154 = VERTEX_POINT ( 'NONE', #189 ) ;
#155 = SURFACE_STYLE_USAGE ( .BOTH. , #258 ) ;
#156 = CARTESIAN_POINT ( 'NONE',  ( 0.000000000000000000, 2.750000000000000000, 0.000000000000000000 ) ) ;
#157 = DIRECTION ( 'NONE',  ( -0.000000000000000000, -1.000000000000000000, -0.000000000000000000 ) ) ;
#158 = DIRECTION ( 'NONE',  ( 0.000000000000000000, 0.000000000000000000, 1.000000000000000000 ) ) ;
#159 = EDGE_CURVE ( 'NONE', #235, #222, #281, .T. ) ;
#160 = MECHANICAL_DESIGN_GEOMETRIC_PRESENTATION_REPRESENTATION (  '', ( #188 ), #74 ) ;
#161 = AXIS2_PLACEMENT_3D ( 'NONE', #141, #267, #28 ) ;
#162 = DIRECTION ( 'NONE',  ( -5.442874662877125708E-17, 1.000000000000000000, -0.000000000000000000 ) ) ;
#163 = CARTESIAN_POINT ( 'NONE',  ( 5.554665861710585348E-34, 2.750000000000000000, 0.000000000000000000 ) ) ;
#164 = CARTESIAN_POINT ( 'NONE',  ( 0.000000000000000000, 0.000000000000000000, 0.000000000000000000 ) ) ;
#165 = SURFACE_STYLE_FILL_AREA ( #290 ) ;
#166 = DIRECTION ( 'NONE',  ( 5.442874662877125091E-17, -1.000000000000000000, 0.000000000000000000 ) ) ;
#167 =( LENGTH_UNIT ( ) NAMED_UNIT ( * ) SI_UNIT ( $, .METRE. ) );
#168 =( NAMED_UNIT ( * ) SI_UNIT ( $, .STERADIAN. ) SOLID_ANGLE_UNIT ( ) );
#169 = UNCERTAINTY_MEASURE_WITH_UNIT (LENGTH_MEASURE( 1.000000000000000082E-05 ), #127, 'distance_accuracy_value', 'NONE');
#170 = DIRECTION ( 'NONE',  ( 0.000000000000000000, 1.000000000000000000, 0.000000000000000000 ) ) ;
#171 =( NAMED_UNIT ( * ) PLANE_ANGLE_UNIT ( ) SI_UNIT ( $, .RADIAN. ) );
#172 = ORIENTED_EDGE ( 'NONE', *, *, #67, .T. ) ;
#173 =( NAMED_UNIT ( * ) SI_UNIT ( $, .STERADIAN. ) SOLID_ANGLE_UNIT ( ) );
#174 = DIRECTION ( 'NONE',  ( -0.000000000000000000, -1.000000000000000000, -0.000000000000000000 ) ) ;
#175 = MECHANICAL_DESIGN_GEOMETRIC_PRESENTATION_REPRESENTATION (  '', ( #237 ), #102 ) ;
#176 = CARTESIAN_POINT ( 'NONE',  ( -0.3750000000000002220, 5.000000000000000000, 0.000000000000000000 ) ) ;
#177 = LENGTH_MEASURE_WITH_UNIT ( LENGTH_MEASURE( 0.02539999999999999897 ), #23 );
#178 = AXIS2_PLACEMENT_3D ( 'NONE', #70, #130, #184 ) ;
#179 = COLOUR_RGB ( '',1.000000000000000000, 0.000000000000000000, 0.000000000000000000 ) ;
#180 = ORIENTED_EDGE ( 'NONE', *, *, #159, .F. ) ;
#181 = DIRECTION ( 'NONE',  ( -5.442874662877125091E-17, 1.000000000000000000, -0.000000000000000000 ) ) ;
#182 = FILL_AREA_STYLE_COLOUR ( '', #179 ) ;
#183 = CARTESIAN_POINT ( 'NONE',  ( 0.000000000000000000, 0.000000000000000000, 0.000000000000000000 ) ) ;
#184 = DIRECTION ( 'NONE',  ( -1.000000000000000000, 0.000000000000000000, 0.000000000000000000 ) ) ;
#185 = CARTESIAN_POINT ( 'NONE',  ( 0.000000000000000000, 0.000000000000000000, 0.000000000000000000 ) ) ;
#186 = EDGE_CURVE ( 'NONE', #235, #307, #287, .T. ) ;
#187 = DIRECTION ( 'NONE',  ( 0.000000000000000000, 0.000000000000000000, -1.000000000000000000 ) ) ;
#188 = STYLED_ITEM ( 'NONE', ( #213 ), #137 ) ;
#189 = CARTESIAN_POINT ( 'NONE',  ( 4.592425496802575451E-17, 0.000000000000000000, 0.3750000000000000555 ) ) ;
#190 = PLANE ( 'NONE',  #216 ) ;
#191 = PRODUCT_DEFINITION_CONTEXT ( 'detailed design', #308, 'design' ) ;
#192 = DIRECTION ( 'NONE',  ( 0.000000000000000000, -0.000000000000000000, 1.000000000000000000 ) ) ;
#193 = CIRCLE ( 'NONE', #22, 0.3750000000000000555 ) ;
#194 = AXIS2_PLACEMENT_3D ( 'NONE', #163, #98, #139 ) ;
#195 = UNCERTAINTY_MEASURE_WITH_UNIT (LENGTH_MEASURE( 1.000000000000000082E-05 ), #80, 'distance_accuracy_value', 'NONE');
#196 = ADVANCED_FACE ( 'NONE', ( #264 ), #279, .T. ) ;
#197 = PRESENTATION_STYLE_ASSIGNMENT (( #103 ) ) ;
#198 = ORIENTED_EDGE ( 'NONE', *, *, #91, .F. ) ;
#199 = LENGTH_MEASURE_WITH_UNIT ( LENGTH_MEASURE( 0.02539999999999999897 ), #251 );
#200 = ORIENTED_EDGE ( 'NONE', *, *, #91, .T. ) ;
#201 = CARTESIAN_POINT ( 'NONE',  ( 4.592425496802575451E-17, 2.750000000000000000, 0.3750000000000000555 ) ) ;
#202 = ORIENTED_EDGE ( 'NONE', *, *, #294, .T. ) ;
#203 = DIRECTION ( 'NONE',  ( -5.442874662877125708E-17, 1.000000000000000000, -0.000000000000000000 ) ) ;
#204 = DIMENSIONAL_EXPONENTS ( 1.000000000000000000, 0.000000000000000000, 0.000000000000000000, 0.000000000000000000, 0.000000000000000000, 0.000000000000000000, 0.000000000000000000 ) ;
#205 = ORIENTED_EDGE ( 'NONE', *, *, #255, .F. ) ;
#206 = AXIS2_PLACEMENT_3D ( 'NONE', #124, #248, #230 ) ;
#207 = UNCERTAINTY_MEASURE_WITH_UNIT (LENGTH_MEASURE( 1.000000000000000082E-05 ), #228, 'distance_accuracy_value', 'NONE');
#208 =( NAMED_UNIT ( * ) PLANE_ANGLE_UNIT ( ) SI_UNIT ( $, .RADIAN. ) );
#209 = MECHANICAL_DESIGN_GEOMETRIC_PRESENTATION_REPRESENTATION (  '', ( #291 ), #20 ) ;
#210 = CIRCLE ( 'NONE', #161, 0.3750000000000001665 ) ;
#211 = DIRECTION ( 'NONE',  ( 0.000000000000000000, 0.000000000000000000, -1.000000000000000000 ) ) ;
#212 = SURFACE_SIDE_STYLE ('',( #138 ) ) ;
#213 = PRESENTATION_STYLE_ASSIGNMENT (( #155 ) ) ;
#214 =( CONVERSION_BASED_UNIT ( 'INCH', #79 ) LENGTH_UNIT ( ) NAMED_UNIT ( #204 ) );
#215 = UNCERTAINTY_MEASURE_WITH_UNIT (LENGTH_MEASURE( 1.000000000000000082E-05 ), #241, 'distance_accuracy_value', 'NONE');
#216 = AXIS2_PLACEMENT_3D ( 'NONE', #78, #166, #84 ) ;
#217 =( LENGTH_UNIT ( ) NAMED_UNIT ( * ) SI_UNIT ( $, .METRE. ) );
#218 = SURFACE_SIDE_STYLE ('',( #165 ) ) ;
#219 = DIRECTION ( 'NONE',  ( -0.000000000000000000, -1.000000000000000000, -0.000000000000000000 ) ) ;
#220 =( NAMED_UNIT ( * ) PLANE_ANGLE_UNIT ( ) SI_UNIT ( $, .RADIAN. ) );
#221 = AXIS2_PLACEMENT_3D ( 'NONE', #13, #174, #149 ) ;
#222 = VERTEX_POINT ( 'NONE', #245 ) ;
#223 = SURFACE_SIDE_STYLE ('',( #9 ) ) ;
#224 = SURFACE_SIDE_STYLE ('',( #101 ) ) ;
#225 = EDGE_LOOP ( 'NONE', ( #249, #147, #252, #90 ) ) ;
#226 = COLOUR_RGB ( '',0.7921568627450980005, 0.8196078431372548767, 0.9333333333333333481 ) ;
#227 = MECHANICAL_DESIGN_GEOMETRIC_PRESENTATION_REPRESENTATION (  '', ( #56 ), #116 ) ;
#228 =( CONVERSION_BASED_UNIT ( 'INCH', #295 ) LENGTH_UNIT ( ) NAMED_UNIT ( #275 ) );
#229 = ORIENTED_EDGE ( 'NONE', *, *, #274, .T. ) ;
#230 = DIRECTION ( 'NONE',  ( -1.000000000000000000, 0.000000000000000000, 0.000000000000000000 ) ) ;
#231 = ORIENTED_EDGE ( 'NONE', *, *, #255, .T. ) ;
#232 = DIMENSIONAL_EXPONENTS ( 1.000000000000000000, 0.000000000000000000, 0.000000000000000000, 0.000000000000000000, 0.000000000000000000, 0.000000000000000000, 0.000000000000000000 ) ;
#233 = AXIS2_PLACEMENT_3D ( 'NONE', #125, #203, #57 ) ;
#234 = PRODUCT_DEFINITION_FORMATION_WITH_SPECIFIED_SOURCE ( 'ANY', '', #86, .NOT_KNOWN. ) ;
#235 = VERTEX_POINT ( 'NONE', #289 ) ;
#236 = DIRECTION ( 'NONE',  ( -1.000000000000000000, 0.000000000000000000, 0.000000000000000000 ) ) ;
#237 = STYLED_ITEM ( 'NONE', ( #52 ), #54 ) ;
#238 = EDGE_CURVE ( 'NONE', #297, #307, #210, .T. ) ;
#239 = ADVANCED_BREP_SHAPE_REPRESENTATION ( '44397W', ( #108, #12, #282 ), #18 ) ;
#240 = SURFACE_STYLE_USAGE ( .BOTH. , #212 ) ;
#241 =( CONVERSION_BASED_UNIT ( 'INCH', #53 ) LENGTH_UNIT ( ) NAMED_UNIT ( #246 ) );
#242 = PLANE ( 'NONE',  #17 ) ;
#243 = FACE_OUTER_BOUND ( 'NONE', #89, .T. ) ;
#244 = AXIS2_PLACEMENT_3D ( 'NONE', #164, #157, #211 ) ;
#245 = CARTESIAN_POINT ( 'NONE',  ( 0.3750000000000000555, 2.750000000000000000, 4.592425496802576684E-17 ) ) ;
#246 = DIMENSIONAL_EXPONENTS ( 1.000000000000000000, 0.000000000000000000, 0.000000000000000000, 0.000000000000000000, 0.000000000000000000, 0.000000000000000000, 0.000000000000000000 ) ;
#247 = CYLINDRICAL_SURFACE ( 'NONE', #120, 0.3750000000000000555 ) ;
#248 = DIRECTION ( 'NONE',  ( -5.442874662877125708E-17, 1.000000000000000000, -0.000000000000000000 ) ) ;
#249 = ORIENTED_EDGE ( 'NONE', *, *, #294, .F. ) ;
#250 = FILL_AREA_STYLE_COLOUR ( '', #253 ) ;
#251 =( LENGTH_UNIT ( ) NAMED_UNIT ( * ) SI_UNIT ( $, .METRE. ) );
#252 = ORIENTED_EDGE ( 'NONE', *, *, #186, .T. ) ;
#253 = COLOUR_RGB ( '',1.000000000000000000, 0.000000000000000000, 0.000000000000000000 ) ;
#254 = FILL_AREA_STYLE ('',( #19 ) ) ;
#255 = EDGE_CURVE ( 'NONE', #104, #154, #55, .T. ) ;
#256 =( NAMED_UNIT ( * ) PLANE_ANGLE_UNIT ( ) SI_UNIT ( $, .RADIAN. ) );
#257 = COLOUR_RGB ( '',0.7921568627450980005, 0.8196078431372548767, 0.9333333333333333481 ) ;
#258 = SURFACE_SIDE_STYLE ('',( #3 ) ) ;
#259 = PRODUCT_CONTEXT ( 'NONE', #151, 'mechanical' ) ;
#260 = COLOUR_RGB ( '',1.000000000000000000, 0.000000000000000000, 0.000000000000000000 ) ;
#261 = SURFACE_STYLE_USAGE ( .BOTH. , #131 ) ;
#262 = FACE_OUTER_BOUND ( 'NONE', #85, .T. ) ;
#263 = ADVANCED_FACE ( 'NONE', ( #95 ), #190, .F. ) ;
#264 = FACE_OUTER_BOUND ( 'NONE', #121, .T. ) ;
#265 = APPLICATION_PROTOCOL_DEFINITION ( 'draft international standard', 'automotive_design', 1998, #151 ) ;
#266 = FACE_OUTER_BOUND ( 'NONE', #88, .T. ) ;
#267 = DIRECTION ( 'NONE',  ( -5.442874662877125708E-17, 1.000000000000000000, -0.000000000000000000 ) ) ;
#268 = PRESENTATION_LAYER_ASSIGNMENT (  '', '', ( #291 ) ) ;
#269 =( NAMED_UNIT ( * ) SI_UNIT ( $, .STERADIAN. ) SOLID_ANGLE_UNIT ( ) );
#270 = SURFACE_STYLE_USAGE ( .BOTH. , #218 ) ;
#271 = CYLINDRICAL_SURFACE ( 'NONE', #206, 0.3750000000000001110 ) ;
#272 = PRESENTATION_STYLE_ASSIGNMENT (( #277 ) ) ;
#273 = EDGE_LOOP ( 'NONE', ( #296, #202, #81, #35 ) ) ;
#274 = EDGE_CURVE ( 'NONE', #16, #62, #44, .T. ) ;
#275 = DIMENSIONAL_EXPONENTS ( 1.000000000000000000, 0.000000000000000000, 0.000000000000000000, 0.000000000000000000, 0.000000000000000000, 0.000000000000000000, 0.000000000000000000 ) ;
#276 = PRODUCT_DEFINITION ( 'UNKNOWN', '', #234, #191 ) ;
#277 = SURFACE_STYLE_USAGE ( .BOTH. , #224 ) ;
#278 = STYLED_ITEM ( 'NONE', ( #272 ), #108 ) ;
#279 = PLANE ( 'NONE',  #38 ) ;
#280 = CLOSED_SHELL ( 'NONE', ( #99, #41, #128, #263 ) ) ;
#281 = CIRCLE ( 'NONE', #59, 0.3750000000000000555 ) ;
#282 = AXIS2_PLACEMENT_3D ( 'NONE', #183, #158, #288 ) ;
#283 = ORIENTED_EDGE ( 'NONE', *, *, #274, .F. ) ;
#284 = PRODUCT_RELATED_PRODUCT_CATEGORY ( 'part', '', ( #86 ) ) ;
#285 = DIRECTION ( 'NONE',  ( 0.000000000000000000, 0.000000000000000000, -1.000000000000000000 ) ) ;
#286 = PRESENTATION_LAYER_ASSIGNMENT (  '', '', ( #188 ) ) ;
#287 = LINE ( 'NONE', #176, #11 ) ;
#288 = DIRECTION ( 'NONE',  ( 1.000000000000000000, 0.000000000000000000, 0.000000000000000000 ) ) ;
#289 = CARTESIAN_POINT ( 'NONE',  ( -0.3750000000000000555, 2.750000000000000000, 0.000000000000000000 ) ) ;
#290 = FILL_AREA_STYLE ('',( #29 ) ) ;
#291 = STYLED_ITEM ( 'NONE', ( #309 ), #12 ) ;
#292 = CARTESIAN_POINT ( 'NONE',  ( 0.000000000000000000, 0.000000000000000000, -0.3750000000000000555 ) ) ;
#293 = PRESENTATION_LAYER_ASSIGNMENT (  '', '', ( #43 ) ) ;
#294 = EDGE_CURVE ( 'NONE', #222, #297, #39, .T. ) ;
#295 = LENGTH_MEASURE_WITH_UNIT ( LENGTH_MEASURE( 0.02539999999999999897 ), #146 );
#296 = ORIENTED_EDGE ( 'NONE', *, *, #159, .T. ) ;
#297 = VERTEX_POINT ( 'NONE', #4 ) ;
#298 = VECTOR ( 'NONE', #306, 39.37007874015748143 ) ;
#299 = FILL_AREA_STYLE ('',( #37 ) ) ;
#300 = ORIENTED_EDGE ( 'NONE', *, *, #2, .F. ) ;
#301 = FACE_OUTER_BOUND ( 'NONE', #304, .T. ) ;
#302 = ORIENTED_EDGE ( 'NONE', *, *, #34, .F. ) ;
#303 = FACE_OUTER_BOUND ( 'NONE', #273, .T. ) ;
#304 = EDGE_LOOP ( 'NONE', ( #205, #83, #229, #198 ) ) ;
#305 = PRODUCT_DEFINITION_SHAPE ( 'NONE', 'NONE',  #276 ) ;
#306 = DIRECTION ( 'NONE',  ( -5.442874662877125091E-17, 1.000000000000000000, -0.000000000000000000 ) ) ;
#307 = VERTEX_POINT ( 'NONE', #72 ) ;
#308 = APPLICATION_CONTEXT ( 'automotive_design' ) ;
#309 = PRESENTATION_STYLE_ASSIGNMENT (( #261 ) ) ;
ENDSEC;
END-ISO-10303-21;
