ISO-10303-21;
HEADER;
FILE_DESCRIPTION (( 'STEP AP214' ),
    '1' );
FILE_NAME ('01615.STEP',
    '2023-06-22T14:40:26',
    ( '' ),
    ( '' ),
    'SwSTEP 2.0',
    'SolidWorks 2023',
    '' );
FILE_SCHEMA (( 'AUTOMOTIVE_DESIGN' ));
ENDSEC;

DATA;
#1 =( LENGTH_UNIT ( ) NAMED_UNIT ( * ) SI_UNIT ( $, .METRE. ) );
#2 = EDGE_LOOP ( 'NONE', ( #250, #108, #42, #34 ) ) ;
#3 =( LENGTH_UNIT ( ) NAMED_UNIT ( * ) SI_UNIT ( $, .METRE. ) );
#4 = FILL_AREA_STYLE ('',( #149 ) ) ;
#5 = ADVANCED_FACE ( 'NONE', ( #50 ), #180, .T. ) ;
#6 = SURFACE_STYLE_USAGE ( .BOTH. , #135 ) ;
#7 = MECHANICAL_DESIGN_GEOMETRIC_PRESENTATION_REPRESENTATION (  '', ( #164 ), #198 ) ;
#8 = PRESENTATION_LAYER_ASSIGNMENT (  '', '', ( #86 ) ) ;
#9 = SHAPE_DEFINITION_REPRESENTATION ( #54, #16 ) ;
#10 =( NAMED_UNIT ( * ) SI_UNIT ( $, .STERADIAN. ) SOLID_ANGLE_UNIT ( ) );
#11 = LENGTH_MEASURE_WITH_UNIT ( LENGTH_MEASURE( 0.02539999999999999897 ), #162 );
#12 = DIRECTION ( 'NONE',  ( -0.000000000000000000, -1.000000000000000000, -0.000000000000000000 ) ) ;
#13 = EDGE_CURVE ( 'NONE', #116, #193, #111, .T. ) ;
#14 =( NAMED_UNIT ( * ) SI_UNIT ( $, .STERADIAN. ) SOLID_ANGLE_UNIT ( ) );
#15 = PRESENTATION_LAYER_ASSIGNMENT (  '', '', ( #164 ) ) ;
#16 = ADVANCED_BREP_SHAPE_REPRESENTATION ( '01615', ( #47, #240, #266 ), #157 ) ;
#17 = DIRECTION ( 'NONE',  ( 0.000000000000000000, 0.000000000000000000, -1.000000000000000000 ) ) ;
#18 = CARTESIAN_POINT ( 'NONE',  ( -0.3125000000000000000, 3.750000000000000000, 0.000000000000000000 ) ) ;
#19 = UNCERTAINTY_MEASURE_WITH_UNIT (LENGTH_MEASURE( 1.000000000000000082E-05 ), #161, 'distance_accuracy_value', 'NONE');
#20 = ORIENTED_EDGE ( 'NONE', *, *, #277, .T. ) ;
#21 = ORIENTED_EDGE ( 'NONE', *, *, #176, .F. ) ;
#22 = AXIS2_PLACEMENT_3D ( 'NONE', #181, #119, #278 ) ;
#23 = PRODUCT ( '01615', '01615', '', ( #221 ) ) ;
#24 = PRESENTATION_STYLE_ASSIGNMENT (( #99 ) ) ;
#25 = PRESENTATION_STYLE_ASSIGNMENT (( #257 ) ) ;
#26 = EDGE_CURVE ( 'NONE', #193, #116, #208, .T. ) ;
#27 = DIRECTION ( 'NONE',  ( -5.442874662877130022E-17, 1.000000000000000000, -0.000000000000000000 ) ) ;
#28 = DIRECTION ( 'NONE',  ( -1.000000000000000000, 0.000000000000000000, 0.000000000000000000 ) ) ;
#29 = CLOSED_SHELL ( 'NONE', ( #297, #165, #5, #256 ) ) ;
#30 = EDGE_LOOP ( 'NONE', ( #150, #219 ) ) ;
#31 =( NAMED_UNIT ( * ) SI_UNIT ( $, .STERADIAN. ) SOLID_ANGLE_UNIT ( ) );
#32 =( LENGTH_UNIT ( ) NAMED_UNIT ( * ) SI_UNIT ( $, .METRE. ) );
#33 = CARTESIAN_POINT ( 'NONE',  ( 0.000000000000000000, 0.000000000000000000, 0.000000000000000000 ) ) ;
#34 = ORIENTED_EDGE ( 'NONE', *, *, #289, .F. ) ;
#35 =( NAMED_UNIT ( * ) PLANE_ANGLE_UNIT ( ) SI_UNIT ( $, .RADIAN. ) );
#36 = EDGE_CURVE ( 'NONE', #142, #300, #236, .T. ) ;
#37 = CARTESIAN_POINT ( 'NONE',  ( 0.000000000000000000, 3.750000000000000000, -0.3125000000000000000 ) ) ;
#38 = CARTESIAN_POINT ( 'NONE',  ( 3.827021247335478926E-17, 0.000000000000000000, 0.3125000000000000000 ) ) ;
#39 = CARTESIAN_POINT ( 'NONE',  ( 3.827021247335478926E-17, 3.750000000000000000, 0.3125000000000000000 ) ) ;
#40 = CARTESIAN_POINT ( 'NONE',  ( 0.000000000000000000, 0.000000000000000000, 0.000000000000000000 ) ) ;
#41 = FILL_AREA_STYLE ('',( #91 ) ) ;
#42 = ORIENTED_EDGE ( 'NONE', *, *, #92, .T. ) ;
#43 = VERTEX_POINT ( 'NONE', #18 ) ;
#44 = DIMENSIONAL_EXPONENTS ( 1.000000000000000000, 0.000000000000000000, 0.000000000000000000, 0.000000000000000000, 0.000000000000000000, 0.000000000000000000, 0.000000000000000000 ) ;
#45 = ORIENTED_EDGE ( 'NONE', *, *, #13, .T. ) ;
#46 = PRESENTATION_LAYER_ASSIGNMENT (  '', '', ( #296 ) ) ;
#47 = MANIFOLD_SOLID_BREP ( 'Revolve - Cutting Edge', #136 ) ;
#48 = ORIENTED_EDGE ( 'NONE', *, *, #13, .F. ) ;
#49 = ADVANCED_FACE ( 'NONE', ( #174 ), #179, .T. ) ;
#50 = FACE_OUTER_BOUND ( 'NONE', #281, .T. ) ;
#51 =( LENGTH_UNIT ( ) NAMED_UNIT ( * ) SI_UNIT ( $, .METRE. ) );
#52 = CARTESIAN_POINT ( 'NONE',  ( -1.224646799147354440E-16, 6.000000000000000888, 0.000000000000000000 ) ) ;
#53 = LINE ( 'NONE', #231, #229 ) ;
#54 = PRODUCT_DEFINITION_SHAPE ( 'NONE', 'NONE',  #237 ) ;
#55 = EDGE_CURVE ( 'NONE', #283, #203, #191, .T. ) ;
#56 = LINE ( 'NONE', #233, #105 ) ;
#57 = FACE_OUTER_BOUND ( 'NONE', #182, .T. ) ;
#58 = FILL_AREA_STYLE_COLOUR ( '', #145 ) ;
#59 = CARTESIAN_POINT ( 'NONE',  ( -1.224646799147354440E-16, 6.000000000000000888, 0.000000000000000000 ) ) ;
#60 =( CONVERSION_BASED_UNIT ( 'INCH', #80 ) LENGTH_UNIT ( ) NAMED_UNIT ( #215 ) );
#61 = AXIS2_PLACEMENT_3D ( 'NONE', #59, #217, #134 ) ;
#62 = PRESENTATION_STYLE_ASSIGNMENT (( #299 ) ) ;
#63 = SURFACE_SIDE_STYLE ('',( #66 ) ) ;
#64 = PRESENTATION_LAYER_ASSIGNMENT (  '', '', ( #202 ) ) ;
#65 = DIMENSIONAL_EXPONENTS ( 1.000000000000000000, 0.000000000000000000, 0.000000000000000000, 0.000000000000000000, 0.000000000000000000, 0.000000000000000000, 0.000000000000000000 ) ;
#66 = SURFACE_STYLE_FILL_AREA ( #110 ) ;
#67 =( NAMED_UNIT ( * ) PLANE_ANGLE_UNIT ( ) SI_UNIT ( $, .RADIAN. ) );
#68 = SURFACE_SIDE_STYLE ('',( #200 ) ) ;
#69 = AXIS2_PLACEMENT_3D ( 'NONE', #287, #78, #168 ) ;
#70 = DIMENSIONAL_EXPONENTS ( 1.000000000000000000, 0.000000000000000000, 0.000000000000000000, 0.000000000000000000, 0.000000000000000000, 0.000000000000000000, 0.000000000000000000 ) ;
#71 =( GEOMETRIC_REPRESENTATION_CONTEXT ( 3 ) GLOBAL_UNCERTAINTY_ASSIGNED_CONTEXT ( ( #114 ) ) GLOBAL_UNIT_ASSIGNED_CONTEXT ( ( #60, #172, #31 ) ) REPRESENTATION_CONTEXT ( 'NONE', 'WORKASPACE' ) );
#72 = EDGE_CURVE ( 'NONE', #43, #283, #53, .T. ) ;
#73 = VECTOR ( 'NONE', #97, 39.37007874015748143 ) ;
#74 = ORIENTED_EDGE ( 'NONE', *, *, #285, .T. ) ;
#75 = SURFACE_STYLE_FILL_AREA ( #153 ) ;
#76 =( CONVERSION_BASED_UNIT ( 'INCH', #128 ) LENGTH_UNIT ( ) NAMED_UNIT ( #178 ) );
#77 = EDGE_CURVE ( 'NONE', #270, #203, #56, .T. ) ;
#78 = DIRECTION ( 'NONE',  ( -5.442874662877130638E-17, 1.000000000000000000, -0.000000000000000000 ) ) ;
#79 = DIRECTION ( 'NONE',  ( -0.000000000000000000, -1.000000000000000000, -0.000000000000000000 ) ) ;
#80 = LENGTH_MEASURE_WITH_UNIT ( LENGTH_MEASURE( 0.02539999999999999897 ), #3 );
#81 = FACE_OUTER_BOUND ( 'NONE', #2, .T. ) ;
#82 = CARTESIAN_POINT ( 'NONE',  ( 3.827021247335478926E-17, 0.000000000000000000, 0.3125000000000000000 ) ) ;
#83 = PLANE ( 'NONE',  #247 ) ;
#84 = ORIENTED_EDGE ( 'NONE', *, *, #92, .F. ) ;
#85 = CYLINDRICAL_SURFACE ( 'NONE', #204, 0.3125000000000000000 ) ;
#86 = STYLED_ITEM ( 'NONE', ( #62 ), #227 ) ;
#87 =( LENGTH_UNIT ( ) NAMED_UNIT ( * ) SI_UNIT ( $, .METRE. ) );
#88 = PRODUCT_DEFINITION_CONTEXT ( 'detailed design', #118, 'design' ) ;
#89 = MECHANICAL_DESIGN_GEOMETRIC_PRESENTATION_REPRESENTATION (  '', ( #113 ), #71 ) ;
#90 = DIRECTION ( 'NONE',  ( -1.000000000000000000, 0.000000000000000000, 0.000000000000000000 ) ) ;
#91 = FILL_AREA_STYLE_COLOUR ( '', #243 ) ;
#92 = EDGE_CURVE ( 'NONE', #116, #142, #102, .T. ) ;
#93 =( GEOMETRIC_REPRESENTATION_CONTEXT ( 3 ) GLOBAL_UNCERTAINTY_ASSIGNED_CONTEXT ( ( #19 ) ) GLOBAL_UNIT_ASSIGNED_CONTEXT ( ( #161, #218, #132 ) ) REPRESENTATION_CONTEXT ( 'NONE', 'WORKASPACE' ) );
#94 = ORIENTED_EDGE ( 'NONE', *, *, #285, .F. ) ;
#95 = ORIENTED_EDGE ( 'NONE', *, *, #77, .F. ) ;
#96 = DIRECTION ( 'NONE',  ( -0.000000000000000000, -1.000000000000000000, -0.000000000000000000 ) ) ;
#97 = DIRECTION ( 'NONE',  ( -0.000000000000000000, -1.000000000000000000, -0.000000000000000000 ) ) ;
#98 = APPLICATION_CONTEXT ( 'automotive_design' ) ;
#99 = SURFACE_STYLE_USAGE ( .BOTH. , #169 ) ;
#100 =( GEOMETRIC_REPRESENTATION_CONTEXT ( 3 ) GLOBAL_UNCERTAINTY_ASSIGNED_CONTEXT ( ( #242 ) ) GLOBAL_UNIT_ASSIGNED_CONTEXT ( ( #194, #35, #10 ) ) REPRESENTATION_CONTEXT ( 'NONE', 'WORKASPACE' ) );
#101 = DIRECTION ( 'NONE',  ( 0.000000000000000000, 0.000000000000000000, -1.000000000000000000 ) ) ;
#102 = LINE ( 'NONE', #124, #275 ) ;
#103 = LENGTH_MEASURE_WITH_UNIT ( LENGTH_MEASURE( 0.02539999999999999897 ), #1 );
#104 = ADVANCED_FACE ( 'NONE', ( #81 ), #262, .T. ) ;
#105 = VECTOR ( 'NONE', #27, 39.37007874015748143 ) ;
#106 = ORIENTED_EDGE ( 'NONE', *, *, #26, .F. ) ;
#107 = LENGTH_MEASURE_WITH_UNIT ( LENGTH_MEASURE( 0.02539999999999999897 ), #87 );
#108 = ORIENTED_EDGE ( 'NONE', *, *, #26, .T. ) ;
#109 = UNCERTAINTY_MEASURE_WITH_UNIT (LENGTH_MEASURE( 1.000000000000000082E-05 ), #143, 'distance_accuracy_value', 'NONE');
#110 = FILL_AREA_STYLE ('',( #267 ) ) ;
#111 = CIRCLE ( 'NONE', #183, 0.3125000000000000000 ) ;
#112 = AXIS2_PLACEMENT_3D ( 'NONE', #306, #79, #171 ) ;
#113 = STYLED_ITEM ( 'NONE', ( #213 ), #47 ) ;
#114 = UNCERTAINTY_MEASURE_WITH_UNIT (LENGTH_MEASURE( 1.000000000000000082E-05 ), #60, 'distance_accuracy_value', 'NONE');
#115 = ORIENTED_EDGE ( 'NONE', *, *, #55, .F. ) ;
#116 = VERTEX_POINT ( 'NONE', #37 ) ;
#117 = COLOUR_RGB ( '',0.7921568627450980005, 0.8196078431372548767, 0.9333333333333333481 ) ;
#118 = APPLICATION_CONTEXT ( 'automotive_design' ) ;
#119 = DIRECTION ( 'NONE',  ( -0.000000000000000000, -1.000000000000000000, -0.000000000000000000 ) ) ;
#120 = ORIENTED_EDGE ( 'NONE', *, *, #77, .T. ) ;
#121 = AXIS2_PLACEMENT_3D ( 'NONE', #52, #186, #28 ) ;
#122 = LENGTH_MEASURE_WITH_UNIT ( LENGTH_MEASURE( 0.02539999999999999897 ), #51 );
#123 = DIRECTION ( 'NONE',  ( 0.000000000000000000, -1.000000000000000000, -0.000000000000000000 ) ) ;
#124 = CARTESIAN_POINT ( 'NONE',  ( 0.000000000000000000, 0.000000000000000000, -0.3125000000000000000 ) ) ;
#125 = DIRECTION ( 'NONE',  ( -5.442874662877130638E-17, 1.000000000000000000, -0.000000000000000000 ) ) ;
#126 = AXIS2_PLACEMENT_3D ( 'NONE', #144, #123, #101 ) ;
#127 = ORIENTED_EDGE ( 'NONE', *, *, #72, .F. ) ;
#128 = LENGTH_MEASURE_WITH_UNIT ( LENGTH_MEASURE( 0.02539999999999999897 ), #32 );
#129 = ORIENTED_EDGE ( 'NONE', *, *, #176, .T. ) ;
#130 = CARTESIAN_POINT ( 'NONE',  ( 4.628888218092162582E-34, 3.750000000000000000, 0.000000000000000000 ) ) ;
#131 = COLOUR_RGB ( '',1.000000000000000000, 0.000000000000000000, 0.000000000000000000 ) ;
#132 =( NAMED_UNIT ( * ) SI_UNIT ( $, .STERADIAN. ) SOLID_ANGLE_UNIT ( ) );
#133 = CARTESIAN_POINT ( 'NONE',  ( 1.516480271171051896E-32, 3.750000000000000000, 0.000000000000000000 ) ) ;
#134 = DIRECTION ( 'NONE',  ( -1.000000000000000000, 0.000000000000000000, 0.000000000000000000 ) ) ;
#135 = SURFACE_SIDE_STYLE ('',( #159 ) ) ;
#136 = CLOSED_SHELL ( 'NONE', ( #220, #49, #104, #227 ) ) ;
#137 = APPLICATION_PROTOCOL_DEFINITION ( 'draft international standard', 'automotive_design', 1998, #118 ) ;
#138 = PLANE ( 'NONE',  #126 ) ;
#139 = CARTESIAN_POINT ( 'NONE',  ( 0.000000000000000000, 0.000000000000000000, 0.000000000000000000 ) ) ;
#140 = DIRECTION ( 'NONE',  ( 0.000000000000000000, 0.000000000000000000, -1.000000000000000000 ) ) ;
#141 = PRESENTATION_LAYER_ASSIGNMENT (  '', '', ( #273 ) ) ;
#142 = VERTEX_POINT ( 'NONE', #155 ) ;
#143 =( CONVERSION_BASED_UNIT ( 'INCH', #122 ) LENGTH_UNIT ( ) NAMED_UNIT ( #65 ) );
#144 = CARTESIAN_POINT ( 'NONE',  ( 0.000000000000000000, 0.000000000000000000, 0.000000000000000000 ) ) ;
#145 = COLOUR_RGB ( '',1.000000000000000000, 0.000000000000000000, 0.000000000000000000 ) ;
#146 = CIRCLE ( 'NONE', #152, 0.3125000000000000000 ) ;
#147 = CARTESIAN_POINT ( 'NONE',  ( 1.516480271171051896E-32, 3.750000000000000000, 0.000000000000000000 ) ) ;
#148 = FILL_AREA_STYLE ('',( #58 ) ) ;
#149 = FILL_AREA_STYLE_COLOUR ( '', #117 ) ;
#150 = ORIENTED_EDGE ( 'NONE', *, *, #36, .T. ) ;
#151 =( GEOMETRIC_REPRESENTATION_CONTEXT ( 3 ) GLOBAL_UNCERTAINTY_ASSIGNED_CONTEXT ( ( #109 ) ) GLOBAL_UNIT_ASSIGNED_CONTEXT ( ( #143, #190, #205 ) ) REPRESENTATION_CONTEXT ( 'NONE', 'WORKASPACE' ) );
#152 = AXIS2_PLACEMENT_3D ( 'NONE', #133, #192, #90 ) ;
#153 = FILL_AREA_STYLE ('',( #261 ) ) ;
#154 =( NAMED_UNIT ( * ) PLANE_ANGLE_UNIT ( ) SI_UNIT ( $, .RADIAN. ) );
#155 = CARTESIAN_POINT ( 'NONE',  ( 0.000000000000000000, 0.000000000000000000, -0.3125000000000000000 ) ) ;
#156 = PRESENTATION_STYLE_ASSIGNMENT (( #6 ) ) ;
#157 =( GEOMETRIC_REPRESENTATION_CONTEXT ( 3 ) GLOBAL_UNCERTAINTY_ASSIGNED_CONTEXT ( ( #251 ) ) GLOBAL_UNIT_ASSIGNED_CONTEXT ( ( #269, #67, #14 ) ) REPRESENTATION_CONTEXT ( 'NONE', 'WORKASPACE' ) );
#158 = DIRECTION ( 'NONE',  ( -5.442874662877130022E-17, 1.000000000000000000, 0.000000000000000000 ) ) ;
#159 = SURFACE_STYLE_FILL_AREA ( #148 ) ;
#160 = APPLICATION_PROTOCOL_DEFINITION ( 'draft international standard', 'automotive_design', 1998, #98 ) ;
#161 =( CONVERSION_BASED_UNIT ( 'INCH', #224 ) LENGTH_UNIT ( ) NAMED_UNIT ( #271 ) );
#162 =( LENGTH_UNIT ( ) NAMED_UNIT ( * ) SI_UNIT ( $, .METRE. ) );
#163 = EDGE_LOOP ( 'NONE', ( #290, #120, #115, #127 ) ) ;
#164 = STYLED_ITEM ( 'NONE', ( #24 ), #240 ) ;
#165 = ADVANCED_FACE ( 'NONE', ( #196 ), #244, .F. ) ;
#166 = SURFACE_SIDE_STYLE ('',( #75 ) ) ;
#167 = CARTESIAN_POINT ( 'NONE',  ( -0.3125000000000002776, 6.000000000000000888, 0.000000000000000000 ) ) ;
#168 = DIRECTION ( 'NONE',  ( -1.000000000000000000, 0.000000000000000000, 0.000000000000000000 ) ) ;
#169 = SURFACE_SIDE_STYLE ('',( #232 ) ) ;
#170 = DIRECTION ( 'NONE',  ( -5.442874662877130022E-17, 1.000000000000000000, -0.000000000000000000 ) ) ;
#171 = DIRECTION ( 'NONE',  ( 0.000000000000000000, 0.000000000000000000, -1.000000000000000000 ) ) ;
#172 =( NAMED_UNIT ( * ) PLANE_ANGLE_UNIT ( ) SI_UNIT ( $, .RADIAN. ) );
#173 = CYLINDRICAL_SURFACE ( 'NONE', #61, 0.3125000000000000555 ) ;
#174 = FACE_OUTER_BOUND ( 'NONE', #185, .T. ) ;
#175 = UNCERTAINTY_MEASURE_WITH_UNIT (LENGTH_MEASURE( 1.000000000000000082E-05 ), #212, 'distance_accuracy_value', 'NONE');
#176 = EDGE_CURVE ( 'NONE', #270, #43, #146, .T. ) ;
#177 =( LENGTH_UNIT ( ) NAMED_UNIT ( * ) SI_UNIT ( $, .METRE. ) );
#178 = DIMENSIONAL_EXPONENTS ( 1.000000000000000000, 0.000000000000000000, 0.000000000000000000, 0.000000000000000000, 0.000000000000000000, 0.000000000000000000, 0.000000000000000000 ) ;
#179 = PLANE ( 'NONE',  #302 ) ;
#180 = CYLINDRICAL_SURFACE ( 'NONE', #246, 0.3125000000000000555 ) ;
#181 = CARTESIAN_POINT ( 'NONE',  ( 0.000000000000000000, 3.750000000000000000, 0.000000000000000000 ) ) ;
#182 = EDGE_LOOP ( 'NONE', ( #228, #74 ) ) ;
#183 = AXIS2_PLACEMENT_3D ( 'NONE', #304, #96, #140 ) ;
#184 = PRODUCT_RELATED_PRODUCT_CATEGORY ( 'part', '', ( #23 ) ) ;
#185 = EDGE_LOOP ( 'NONE', ( #48, #106 ) ) ;
#186 = DIRECTION ( 'NONE',  ( -5.442874662877130638E-17, 1.000000000000000000, -0.000000000000000000 ) ) ;
#187 = DIRECTION ( 'NONE',  ( 0.000000000000000000, 1.000000000000000000, 0.000000000000000000 ) ) ;
#188 = MECHANICAL_DESIGN_GEOMETRIC_PRESENTATION_REPRESENTATION (  '', ( #202 ), #100 ) ;
#189 = CARTESIAN_POINT ( 'NONE',  ( 0.000000000000000000, 3.750000000000000000, 0.000000000000000000 ) ) ;
#190 =( NAMED_UNIT ( * ) PLANE_ANGLE_UNIT ( ) SI_UNIT ( $, .RADIAN. ) );
#191 = CIRCLE ( 'NONE', #69, 0.3125000000000001665 ) ;
#192 = DIRECTION ( 'NONE',  ( -5.442874662877130638E-17, 1.000000000000000000, -0.000000000000000000 ) ) ;
#193 = VERTEX_POINT ( 'NONE', #39 ) ;
#194 =( CONVERSION_BASED_UNIT ( 'INCH', #107 ) LENGTH_UNIT ( ) NAMED_UNIT ( #44 ) );
#195 = DIRECTION ( 'NONE',  ( 1.000000000000000000, 0.000000000000000000, 0.000000000000000000 ) ) ;
#196 = FACE_OUTER_BOUND ( 'NONE', #301, .T. ) ;
#197 = MECHANICAL_DESIGN_GEOMETRIC_PRESENTATION_REPRESENTATION (  '', ( #296 ), #151 ) ;
#198 =( GEOMETRIC_REPRESENTATION_CONTEXT ( 3 ) GLOBAL_UNCERTAINTY_ASSIGNED_CONTEXT ( ( #298 ) ) GLOBAL_UNIT_ASSIGNED_CONTEXT ( ( #76, #214, #234 ) ) REPRESENTATION_CONTEXT ( 'NONE', 'WORKASPACE' ) );
#199 = DIRECTION ( 'NONE',  ( -1.000000000000000000, -5.442874662877130022E-17, 0.000000000000000000 ) ) ;
#200 = SURFACE_STYLE_FILL_AREA ( #41 ) ;
#201 = DIRECTION ( 'NONE',  ( -0.000000000000000000, -1.000000000000000000, -0.000000000000000000 ) ) ;
#202 = STYLED_ITEM ( 'NONE', ( #216 ), #220 ) ;
#203 = VERTEX_POINT ( 'NONE', #291 ) ;
#204 = AXIS2_PLACEMENT_3D ( 'NONE', #274, #225, #17 ) ;
#205 =( NAMED_UNIT ( * ) SI_UNIT ( $, .STERADIAN. ) SOLID_ANGLE_UNIT ( ) );
#206 = FILL_AREA_STYLE ('',( #264 ) ) ;
#207 = SURFACE_STYLE_USAGE ( .BOTH. , #258 ) ;
#208 = CIRCLE ( 'NONE', #22, 0.3125000000000000000 ) ;
#209 = DIRECTION ( 'NONE',  ( -1.000000000000000000, 0.000000000000000000, 0.000000000000000000 ) ) ;
#210 = PRODUCT_DEFINITION_FORMATION_WITH_SPECIFIED_SOURCE ( 'ANY', '', #23, .NOT_KNOWN. ) ;
#211 = PRESENTATION_LAYER_ASSIGNMENT (  '', '', ( #113 ) ) ;
#212 =( CONVERSION_BASED_UNIT ( 'INCH', #103 ) LENGTH_UNIT ( ) NAMED_UNIT ( #295 ) );
#213 = PRESENTATION_STYLE_ASSIGNMENT (( #207 ) ) ;
#214 =( NAMED_UNIT ( * ) PLANE_ANGLE_UNIT ( ) SI_UNIT ( $, .RADIAN. ) );
#215 = DIMENSIONAL_EXPONENTS ( 1.000000000000000000, 0.000000000000000000, 0.000000000000000000, 0.000000000000000000, 0.000000000000000000, 0.000000000000000000, 0.000000000000000000 ) ;
#216 = PRESENTATION_STYLE_ASSIGNMENT (( #222 ) ) ;
#217 = DIRECTION ( 'NONE',  ( -5.442874662877130638E-17, 1.000000000000000000, -0.000000000000000000 ) ) ;
#218 =( NAMED_UNIT ( * ) PLANE_ANGLE_UNIT ( ) SI_UNIT ( $, .RADIAN. ) );
#219 = ORIENTED_EDGE ( 'NONE', *, *, #289, .T. ) ;
#220 = ADVANCED_FACE ( 'NONE', ( #239 ), #85, .T. ) ;
#221 = PRODUCT_CONTEXT ( 'NONE', #98, 'mechanical' ) ;
#222 = SURFACE_STYLE_USAGE ( .BOTH. , #63 ) ;
#223 = MECHANICAL_DESIGN_GEOMETRIC_PRESENTATION_REPRESENTATION (  '', ( #86 ), #272 ) ;
#224 = LENGTH_MEASURE_WITH_UNIT ( LENGTH_MEASURE( 0.02539999999999999897 ), #177 );
#225 = DIRECTION ( 'NONE',  ( -0.000000000000000000, -1.000000000000000000, -0.000000000000000000 ) ) ;
#226 = DIRECTION ( 'NONE',  ( 0.000000000000000000, 0.000000000000000000, -1.000000000000000000 ) ) ;
#227 = ADVANCED_FACE ( 'NONE', ( #248 ), #138, .T. ) ;
#228 = ORIENTED_EDGE ( 'NONE', *, *, #55, .T. ) ;
#229 = VECTOR ( 'NONE', #170, 39.37007874015748143 ) ;
#230 =( NAMED_UNIT ( * ) SI_UNIT ( $, .STERADIAN. ) SOLID_ANGLE_UNIT ( ) );
#231 = CARTESIAN_POINT ( 'NONE',  ( -0.3125000000000002220, 6.000000000000000888, 0.000000000000000000 ) ) ;
#232 = SURFACE_STYLE_FILL_AREA ( #4 ) ;
#233 = CARTESIAN_POINT ( 'NONE',  ( 0.3124999999999999445, 6.000000000000000888, 3.827021247335479543E-17 ) ) ;
#234 =( NAMED_UNIT ( * ) SI_UNIT ( $, .STERADIAN. ) SOLID_ANGLE_UNIT ( ) );
#235 = CIRCLE ( 'NONE', #112, 0.3125000000000000000 ) ;
#236 = CIRCLE ( 'NONE', #282, 0.3125000000000000000 ) ;
#237 = PRODUCT_DEFINITION ( 'UNKNOWN', '', #210, #88 ) ;
#238 = SURFACE_STYLE_FILL_AREA ( #206 ) ;
#239 = FACE_OUTER_BOUND ( 'NONE', #255, .T. ) ;
#240 = MANIFOLD_SOLID_BREP ( 'Revolve - Tool Body (Straight Shanked)', #29 ) ;
#241 = ORIENTED_EDGE ( 'NONE', *, *, #293, .F. ) ;
#242 = UNCERTAINTY_MEASURE_WITH_UNIT (LENGTH_MEASURE( 1.000000000000000082E-05 ), #194, 'distance_accuracy_value', 'NONE');
#243 = COLOUR_RGB ( '',1.000000000000000000, 0.000000000000000000, 0.000000000000000000 ) ;
#244 = PLANE ( 'NONE',  #259 ) ;
#245 = DIRECTION ( 'NONE',  ( 0.000000000000000000, 0.000000000000000000, -1.000000000000000000 ) ) ;
#246 = AXIS2_PLACEMENT_3D ( 'NONE', #252, #249, #276 ) ;
#247 = AXIS2_PLACEMENT_3D ( 'NONE', #260, #305, #263 ) ;
#248 = FACE_OUTER_BOUND ( 'NONE', #30, .T. ) ;
#249 = DIRECTION ( 'NONE',  ( -5.442874662877130638E-17, 1.000000000000000000, -0.000000000000000000 ) ) ;
#250 = ORIENTED_EDGE ( 'NONE', *, *, #277, .F. ) ;
#251 = UNCERTAINTY_MEASURE_WITH_UNIT (LENGTH_MEASURE( 1.000000000000000082E-05 ), #269, 'distance_accuracy_value', 'NONE');
#252 = CARTESIAN_POINT ( 'NONE',  ( -1.224646799147354440E-16, 6.000000000000000888, 0.000000000000000000 ) ) ;
#253 = ORIENTED_EDGE ( 'NONE', *, *, #72, .T. ) ;
#254 = MECHANICAL_DESIGN_GEOMETRIC_PRESENTATION_REPRESENTATION (  '', ( #273 ), #93 ) ;
#255 = EDGE_LOOP ( 'NONE', ( #45, #20, #294, #84 ) ) ;
#256 = ADVANCED_FACE ( 'NONE', ( #57 ), #83, .F. ) ;
#257 = SURFACE_STYLE_USAGE ( .BOTH. , #166 ) ;
#258 = SURFACE_SIDE_STYLE ('',( #238 ) ) ;
#259 = AXIS2_PLACEMENT_3D ( 'NONE', #130, #158, #199 ) ;
#260 = CARTESIAN_POINT ( 'NONE',  ( 0.3125000000000000000, 6.000000000000000888, 0.000000000000000000 ) ) ;
#261 = FILL_AREA_STYLE_COLOUR ( '', #279 ) ;
#262 = CYLINDRICAL_SURFACE ( 'NONE', #303, 0.3125000000000000000 ) ;
#263 = DIRECTION ( 'NONE',  ( 1.000000000000000000, 5.442874662877130022E-17, 0.000000000000000000 ) ) ;
#264 = FILL_AREA_STYLE_COLOUR ( '', #307 ) ;
#265 = CARTESIAN_POINT ( 'NONE',  ( 0.3125000000000000000, 3.750000000000000000, 3.827021247335479543E-17 ) ) ;
#266 = AXIS2_PLACEMENT_3D ( 'NONE', #40, #268, #195 ) ;
#267 = FILL_AREA_STYLE_COLOUR ( '', #131 ) ;
#268 = DIRECTION ( 'NONE',  ( 0.000000000000000000, 0.000000000000000000, 1.000000000000000000 ) ) ;
#269 =( CONVERSION_BASED_UNIT ( 'INCH', #11 ) LENGTH_UNIT ( ) NAMED_UNIT ( #70 ) );
#270 = VERTEX_POINT ( 'NONE', #265 ) ;
#271 = DIMENSIONAL_EXPONENTS ( 1.000000000000000000, 0.000000000000000000, 0.000000000000000000, 0.000000000000000000, 0.000000000000000000, 0.000000000000000000, 0.000000000000000000 ) ;
#272 =( GEOMETRIC_REPRESENTATION_CONTEXT ( 3 ) GLOBAL_UNCERTAINTY_ASSIGNED_CONTEXT ( ( #175 ) ) GLOBAL_UNIT_ASSIGNED_CONTEXT ( ( #212, #154, #230 ) ) REPRESENTATION_CONTEXT ( 'NONE', 'WORKASPACE' ) );
#273 = STYLED_ITEM ( 'NONE', ( #156 ), #104 ) ;
#274 = CARTESIAN_POINT ( 'NONE',  ( 0.000000000000000000, 0.000000000000000000, 0.000000000000000000 ) ) ;
#275 = VECTOR ( 'NONE', #308, 39.37007874015748143 ) ;
#276 = DIRECTION ( 'NONE',  ( -1.000000000000000000, 0.000000000000000000, 0.000000000000000000 ) ) ;
#277 = EDGE_CURVE ( 'NONE', #193, #300, #284, .T. ) ;
#278 = DIRECTION ( 'NONE',  ( 0.000000000000000000, 0.000000000000000000, -1.000000000000000000 ) ) ;
#279 = COLOUR_RGB ( '',1.000000000000000000, 0.000000000000000000, 0.000000000000000000 ) ;
#280 = AXIS2_PLACEMENT_3D ( 'NONE', #147, #125, #209 ) ;
#281 = EDGE_LOOP ( 'NONE', ( #95, #129, #253, #94 ) ) ;
#282 = AXIS2_PLACEMENT_3D ( 'NONE', #139, #201, #226 ) ;
#283 = VERTEX_POINT ( 'NONE', #167 ) ;
#284 = LINE ( 'NONE', #82, #73 ) ;
#285 = EDGE_CURVE ( 'NONE', #203, #283, #288, .T. ) ;
#286 = DIRECTION ( 'NONE',  ( 0.000000000000000000, -0.000000000000000000, 1.000000000000000000 ) ) ;
#287 = CARTESIAN_POINT ( 'NONE',  ( -1.224646799147354440E-16, 6.000000000000000888, 0.000000000000000000 ) ) ;
#288 = CIRCLE ( 'NONE', #121, 0.3125000000000001665 ) ;
#289 = EDGE_CURVE ( 'NONE', #300, #142, #235, .T. ) ;
#290 = ORIENTED_EDGE ( 'NONE', *, *, #293, .T. ) ;
#291 = CARTESIAN_POINT ( 'NONE',  ( 0.3125000000000000000, 6.000000000000000888, 3.827021247335479543E-17 ) ) ;
#292 = CIRCLE ( 'NONE', #280, 0.3125000000000000000 ) ;
#293 = EDGE_CURVE ( 'NONE', #43, #270, #292, .T. ) ;
#294 = ORIENTED_EDGE ( 'NONE', *, *, #36, .F. ) ;
#295 = DIMENSIONAL_EXPONENTS ( 1.000000000000000000, 0.000000000000000000, 0.000000000000000000, 0.000000000000000000, 0.000000000000000000, 0.000000000000000000, 0.000000000000000000 ) ;
#296 = STYLED_ITEM ( 'NONE', ( #25 ), #49 ) ;
#297 = ADVANCED_FACE ( 'NONE', ( #309 ), #173, .T. ) ;
#298 = UNCERTAINTY_MEASURE_WITH_UNIT (LENGTH_MEASURE( 1.000000000000000082E-05 ), #76, 'distance_accuracy_value', 'NONE');
#299 = SURFACE_STYLE_USAGE ( .BOTH. , #68 ) ;
#300 = VERTEX_POINT ( 'NONE', #38 ) ;
#301 = EDGE_LOOP ( 'NONE', ( #241, #21 ) ) ;
#302 = AXIS2_PLACEMENT_3D ( 'NONE', #189, #187, #286 ) ;
#303 = AXIS2_PLACEMENT_3D ( 'NONE', #33, #12, #245 ) ;
#304 = CARTESIAN_POINT ( 'NONE',  ( 0.000000000000000000, 3.750000000000000000, 0.000000000000000000 ) ) ;
#305 = DIRECTION ( 'NONE',  ( 5.442874662877130022E-17, -1.000000000000000000, 0.000000000000000000 ) ) ;
#306 = CARTESIAN_POINT ( 'NONE',  ( 0.000000000000000000, 0.000000000000000000, 0.000000000000000000 ) ) ;
#307 = COLOUR_RGB ( '',0.7921568627450980005, 0.8196078431372548767, 0.9333333333333333481 ) ;
#308 = DIRECTION ( 'NONE',  ( -0.000000000000000000, -1.000000000000000000, -0.000000000000000000 ) ) ;
#309 = FACE_OUTER_BOUND ( 'NONE', #163, .T. ) ;
ENDSEC;
END-ISO-10303-21;
