ISO-10303-21;
HEADER;
FILE_DESCRIPTION (( 'STEP AP214' ),
    '1' );
FILE_NAME ('Micro_SBM-250-2.STEP',
    '2021-09-02T17:01:25',
    ( '' ),
    ( '' ),
    'SwSTEP 2.0',
    'SolidWorks 2020',
    '' );
FILE_SCHEMA (( 'AUTOMOTIVE_DESIGN' ));
ENDSEC;

DATA;
#1 = FILL_AREA_STYLE_COLOUR ( '', #140 ) ;
#2 = FACE_OUTER_BOUND ( 'NONE', #23, .T. ) ;
#3 = ORIENTED_EDGE ( 'NONE', *, *, #87, .F. ) ;
#4 = CARTESIAN_POINT ( 'NONE',  ( 0.0000000000000000000, 0.0000000000000000000, 3.000000000000000444 ) ) ;
#5 = ORIENTED_EDGE ( 'NONE', *, *, #130, .F. ) ;
#6 = ADVANCED_FACE ( 'NONE', ( #76 ), #330, .T. ) ;
#7 = PRODUCT_DEFINITION ( 'UNKNOWN', '', #139, #242 ) ;
#8 = PRESENTATION_LAYER_ASSIGNMENT (  '', '', ( #148 ) ) ;
#9 = AXIS2_PLACEMENT_3D ( 'NONE', #335, #247, #120 ) ;
#10 = DIRECTION ( 'NONE',  ( 1.000000000000000000, 0.0000000000000000000, 0.0000000000000000000 ) ) ;
#11 = CARTESIAN_POINT ( 'NONE',  ( 0.0000000000000000000, 0.0000000000000000000, 0.1999999999999999833 ) ) ;
#12 = DIRECTION ( 'NONE',  ( -0.0000000000000000000, -0.0000000000000000000, -1.000000000000000000 ) ) ;
#13 = AXIS2_PLACEMENT_3D ( 'NONE', #320, #21, #44 ) ;
#14 = FACE_OUTER_BOUND ( 'NONE', #234, .T. ) ;
#15 = ADVANCED_FACE ( 'NONE', ( #178 ), #307, .T. ) ;
#16 = CONICAL_SURFACE ( 'NONE', #9, 0.1374999999999998168, 0.03569911267932403265 ) ;
#17 = FACE_OUTER_BOUND ( 'NONE', #287, .T. ) ;
#18 = DIRECTION ( 'NONE',  ( -0.0000000000000000000, -0.0000000000000000000, -1.000000000000000000 ) ) ;
#19 = CARTESIAN_POINT ( 'NONE',  ( 0.0000000000000000000, 0.0000000000000000000, 0.1250000000000000000 ) ) ;
#20 = VERTEX_POINT ( 'NONE', #40 ) ;
#21 = DIRECTION ( 'NONE',  ( -0.0000000000000000000, -0.0000000000000000000, -1.000000000000000000 ) ) ;
#22 = ORIENTED_EDGE ( 'NONE', *, *, #110, .T. ) ;
#23 = EDGE_LOOP ( 'NONE', ( #77, #336, #207, #208 ) ) ;
#24 = VERTEX_POINT ( 'NONE', #146 ) ;
#25 = DIRECTION ( 'NONE',  ( -0.0000000000000000000, -0.0000000000000000000, -1.000000000000000000 ) ) ;
#26 = CARTESIAN_POINT ( 'NONE',  ( -0.1100000000000004446, 0.0000000000000000000, 3.000000000000000444 ) ) ;
#27 = UNCERTAINTY_MEASURE_WITH_UNIT (LENGTH_MEASURE( 1.000000000000000082E-05 ), #341, 'distance_accuracy_value', 'NONE');
#28 = AXIS2_PLACEMENT_3D ( 'NONE', #117, #147, #309 ) ;
#29 = ORIENTED_EDGE ( 'NONE', *, *, #295, .F. ) ;
#30 = VERTEX_POINT ( 'NONE', #334 ) ;
#31 = EDGE_CURVE ( 'NONE', #20, #272, #216, .T. ) ;
#32 = AXIS2_PLACEMENT_3D ( 'NONE', #122, #229, #280 ) ;
#33 = AXIS2_PLACEMENT_3D ( 'NONE', #67, #328, #10 ) ;
#34 = DIMENSIONAL_EXPONENTS ( 1.000000000000000000, 0.0000000000000000000, 0.0000000000000000000, 0.0000000000000000000, 0.0000000000000000000, 0.0000000000000000000, 0.0000000000000000000 ) ;
#35 = MECHANICAL_DESIGN_GEOMETRIC_PRESENTATION_REPRESENTATION (  '', ( #171 ), #220 ) ;
#36 = DIRECTION ( 'NONE',  ( 0.0000000000000000000, 0.0000000000000000000, 1.000000000000000000 ) ) ;
#37 = DIRECTION ( 'NONE',  ( 1.000000000000000000, 0.0000000000000000000, 0.0000000000000000000 ) ) ;
#38 = FACE_OUTER_BOUND ( 'NONE', #129, .T. ) ;
#39 = DIRECTION ( 'NONE',  ( 0.7071067811865566766, 8.659560562355046257E-17, -0.7071067811865382469 ) ) ;
#40 = CARTESIAN_POINT ( 'NONE',  ( 0.1250000000000000000, 1.530808498934191201E-17, 2.985000000000001208 ) ) ;
#41 =( GEOMETRIC_REPRESENTATION_CONTEXT ( 3 ) GLOBAL_UNCERTAINTY_ASSIGNED_CONTEXT ( ( #108 ) ) GLOBAL_UNIT_ASSIGNED_CONTEXT ( ( #133, #190, #158 ) ) REPRESENTATION_CONTEXT ( 'NONE', 'WORKASPACE' ) );
#42 = CARTESIAN_POINT ( 'NONE',  ( 0.09999999999999996392, 0.0000000000000000000, 0.5000000000000000000 ) ) ;
#43 = AXIS2_PLACEMENT_3D ( 'NONE', #226, #332, #91 ) ;
#44 = DIRECTION ( 'NONE',  ( -1.000000000000000000, 0.0000000000000000000, 0.0000000000000000000 ) ) ;
#45 = DIRECTION ( 'NONE',  ( 0.03569153051241254898, 0.0000000000000000000, 0.9993628543475495674 ) ) ;
#46 = VERTEX_POINT ( 'NONE', #278 ) ;
#47 = EDGE_CURVE ( 'NONE', #125, #167, #188, .T. ) ;
#48 = DIRECTION ( 'NONE',  ( 1.000000000000000000, 0.0000000000000000000, 0.0000000000000000000 ) ) ;
#49 = VERTEX_POINT ( 'NONE', #144 ) ;
#50 = CARTESIAN_POINT ( 'NONE',  ( 0.0000000000000000000, 0.0000000000000000000, 3.000000000000000444 ) ) ;
#51 = CARTESIAN_POINT ( 'NONE',  ( 0.1250000000000000000, 0.0000000000000000000, 1.199999999999999956 ) ) ;
#52 = CLOSED_SHELL ( 'NONE', ( #6, #103, #15, #95, #327, #263, #84, #80, #339, #211, #63 ) ) ;
#53 = ORIENTED_EDGE ( 'NONE', *, *, #110, .F. ) ;
#54 = SPHERICAL_SURFACE ( 'NONE', #192, 0.1249999999999999861 ) ;
#55 = SURFACE_STYLE_FILL_AREA ( #209 ) ;
#56 = SHAPE_DEFINITION_REPRESENTATION ( #302, #262 ) ;
#57 = CIRCLE ( 'NONE', #254, 0.1249999999999999861 ) ;
#58 = DIRECTION ( 'NONE',  ( -1.000000000000000000, 0.0000000000000000000, 0.0000000000000000000 ) ) ;
#59 = EDGE_CURVE ( 'NONE', #46, #49, #193, .T. ) ;
#60 = AXIS2_PLACEMENT_3D ( 'NONE', #96, #202, #37 ) ;
#61 = AXIS2_PLACEMENT_3D ( 'NONE', #265, #25, #106 ) ;
#62 = CARTESIAN_POINT ( 'NONE',  ( 0.1100000000000004446, 1.347111479062094019E-17, 3.000000000000000444 ) ) ;
#63 = ADVANCED_FACE ( 'NONE', ( #38 ), #73, .T. ) ;
#64 = CARTESIAN_POINT ( 'NONE',  ( 0.0000000000000000000, 0.0000000000000000000, 0.1999999999999999833 ) ) ;
#65 = DIRECTION ( 'NONE',  ( 1.000000000000000000, 1.224646799147353207E-16, -0.0000000000000000000 ) ) ;
#66 = DIRECTION ( 'NONE',  ( -0.0000000000000000000, -0.0000000000000000000, -1.000000000000000000 ) ) ;
#67 = CARTESIAN_POINT ( 'NONE',  ( 0.0000000000000000000, 0.0000000000000000000, 1.199999999999999956 ) ) ;
#68 = DIRECTION ( 'NONE',  ( -1.000000000000000000, 0.0000000000000000000, 0.0000000000000000000 ) ) ;
#69 = CARTESIAN_POINT ( 'NONE',  ( -0.1100000000000004446, 0.0000000000000000000, 3.000000000000000444 ) ) ;
#70 = LINE ( 'NONE', #194, #79 ) ;
#71 = ORIENTED_EDGE ( 'NONE', *, *, #170, .T. ) ;
#72 = EDGE_CURVE ( 'NONE', #125, #342, #305, .T. ) ;
#73 = CONICAL_SURFACE ( 'NONE', #43, 0.1100000000000004446, 0.7853981633974613796 ) ;
#74 = DIRECTION ( 'NONE',  ( 0.0000000000000000000, 0.0000000000000000000, 1.000000000000000000 ) ) ;
#75 = ORIENTED_EDGE ( 'NONE', *, *, #291, .T. ) ;
#76 = FACE_OUTER_BOUND ( 'NONE', #323, .T. ) ;
#77 = ORIENTED_EDGE ( 'NONE', *, *, #130, .T. ) ;
#78 = AXIS2_PLACEMENT_3D ( 'NONE', #93, #200, #119 ) ;
#79 = VECTOR ( 'NONE', #181, 39.37007874015748143 ) ;
#80 = ADVANCED_FACE ( 'NONE', ( #17 ), #230, .T. ) ;
#81 = ORIENTED_EDGE ( 'NONE', *, *, #300, .T. ) ;
#82 = FILL_AREA_STYLE ('',( #244 ) ) ;
#83 = PRODUCT_CONTEXT ( 'NONE', #271, 'mechanical' ) ;
#84 = ADVANCED_FACE ( 'NONE', ( #145 ), #331, .T. ) ;
#85 = ORIENTED_EDGE ( 'NONE', *, *, #136, .T. ) ;
#86 = ORIENTED_EDGE ( 'NONE', *, *, #170, .F. ) ;
#87 = EDGE_CURVE ( 'NONE', #46, #30, #57, .T. ) ;
#88 = AXIS2_PLACEMENT_3D ( 'NONE', #64, #176, #198 ) ;
#89 = CARTESIAN_POINT ( 'NONE',  ( 0.0000000000000000000, 0.0000000000000000000, 0.1250000000000000000 ) ) ;
#90 = CARTESIAN_POINT ( 'NONE',  ( -0.1250000000000000000, 1.530808498934191509E-17, 1.199999999999999956 ) ) ;
#91 = DIRECTION ( 'NONE',  ( -1.000000000000000000, 0.0000000000000000000, 0.0000000000000000000 ) ) ;
#92 = DIRECTION ( 'NONE',  ( -0.0000000000000000000, -0.0000000000000000000, -1.000000000000000000 ) ) ;
#93 = CARTESIAN_POINT ( 'NONE',  ( 0.0000000000000000000, 0.0000000000000000000, 2.985000000000001208 ) ) ;
#94 = CARTESIAN_POINT ( 'NONE',  ( -0.1374999999999998168, 1.683889348827608472E-17, 1.549999999999994049 ) ) ;
#95 = ADVANCED_FACE ( 'NONE', ( #281 ), #16, .T. ) ;
#96 = CARTESIAN_POINT ( 'NONE',  ( 0.0000000000000000000, 0.0000000000000000000, 3.000000000000000444 ) ) ;
#97 = CIRCLE ( 'NONE', #61, 0.09999999999999997780 ) ;
#98 = DIRECTION ( 'NONE',  ( -0.7071067811865566766, 0.0000000000000000000, -0.7071067811865382469 ) ) ;
#99 = EDGE_LOOP ( 'NONE', ( #3, #204, #235, #338 ) ) ;
#100 = DIRECTION ( 'NONE',  ( 1.000000000000000000, 0.0000000000000000000, 0.0000000000000000000 ) ) ;
#101 = ORIENTED_EDGE ( 'NONE', *, *, #59, .F. ) ;
#102 = VERTEX_POINT ( 'NONE', #90 ) ;
#103 = ADVANCED_FACE ( 'NONE', ( #14 ), #199, .T. ) ;
#104 = EDGE_LOOP ( 'NONE', ( #292, #81, #157, #257 ) ) ;
#105 = AXIS2_PLACEMENT_3D ( 'NONE', #203, #233, #48 ) ;
#106 = DIRECTION ( 'NONE',  ( -1.000000000000000000, 0.0000000000000000000, 0.0000000000000000000 ) ) ;
#107 = VECTOR ( 'NONE', #45, 39.37007874015748143 ) ;
#108 = UNCERTAINTY_MEASURE_WITH_UNIT (LENGTH_MEASURE( 1.000000000000000082E-05 ), #133, 'distance_accuracy_value', 'NONE');
#109 = DIRECTION ( 'NONE',  ( 0.0000000000000000000, 0.0000000000000000000, 1.000000000000000000 ) ) ;
#110 = EDGE_CURVE ( 'NONE', #102, #340, #326, .T. ) ;
#111 = ORIENTED_EDGE ( 'NONE', *, *, #282, .F. ) ;
#112 = LENGTH_MEASURE_WITH_UNIT ( LENGTH_MEASURE( 0.02539999999999999897 ), #344 );
#113 = APPLICATION_PROTOCOL_DEFINITION ( 'draft international standard', 'automotive_design', 1998, #274 ) ;
#114 = AXIS2_PLACEMENT_3D ( 'NONE', #337, #308, #180 ) ;
#115 = ORIENTED_EDGE ( 'NONE', *, *, #72, .T. ) ;
#116 = CARTESIAN_POINT ( 'NONE',  ( 0.0000000000000000000, 0.0000000000000000000, 0.0000000000000000000 ) ) ;
#117 = CARTESIAN_POINT ( 'NONE',  ( 0.0000000000000000000, 0.0000000000000000000, 0.1999999999999999833 ) ) ;
#118 = DIRECTION ( 'NONE',  ( -0.0000000000000000000, -0.0000000000000000000, -1.000000000000000000 ) ) ;
#119 = DIRECTION ( 'NONE',  ( 1.000000000000000000, 0.0000000000000000000, 0.0000000000000000000 ) ) ;
#120 = DIRECTION ( 'NONE',  ( 1.000000000000000000, 0.0000000000000000000, 0.0000000000000000000 ) ) ;
#121 = AXIS2_PLACEMENT_3D ( 'NONE', #251, #173, #228 ) ;
#122 = CARTESIAN_POINT ( 'NONE',  ( 0.0000000000000000000, 0.0000000000000000000, 0.0000000000000000000 ) ) ;
#123 = DIRECTION ( 'NONE',  ( -1.000000000000000000, 0.0000000000000000000, 0.0000000000000000000 ) ) ;
#124 = DIRECTION ( 'NONE',  ( 0.0000000000000000000, 1.000000000000000000, 0.0000000000000000000 ) ) ;
#125 = VERTEX_POINT ( 'NONE', #42 ) ;
#126 = CIRCLE ( 'NONE', #105, 0.1250000000000000000 ) ;
#127 = DIRECTION ( 'NONE',  ( -0.03569153051241254898, 4.370951859869611905E-18, 0.9993628543475495674 ) ) ;
#128 = ORIENTED_EDGE ( 'NONE', *, *, #324, .F. ) ;
#129 = EDGE_LOOP ( 'NONE', ( #86, #132, #261, #315 ) ) ;
#130 = EDGE_CURVE ( 'NONE', #185, #342, #183, .T. ) ;
#131 = CYLINDRICAL_SURFACE ( 'NONE', #195, 0.1250000000000000000 ) ;
#132 = ORIENTED_EDGE ( 'NONE', *, *, #149, .F. ) ;
#133 =( CONVERSION_BASED_UNIT ( 'INCH', #160 ) LENGTH_UNIT ( ) NAMED_UNIT ( #174 ) );
#134 = VECTOR ( 'NONE', #127, 39.37007874015748143 ) ;
#135 =( LENGTH_UNIT ( ) NAMED_UNIT ( * ) SI_UNIT ( $, .METRE. ) );
#136 = EDGE_CURVE ( 'NONE', #167, #49, #249, .T. ) ;
#137 = EDGE_LOOP ( 'NONE', ( #169, #297, #245, #22 ) ) ;
#138 = SURFACE_STYLE_USAGE ( .BOTH. , #189 ) ;
#139 = PRODUCT_DEFINITION_FORMATION_WITH_SPECIFIED_SOURCE ( 'ANY', '', #219, .NOT_KNOWN. ) ;
#140 = COLOUR_RGB ( '',0.7921568627450980005, 0.8196078431372548767, 0.9333333333333333481 ) ;
#141 = CIRCLE ( 'NONE', #114, 0.1250000000000000000 ) ;
#142 = DIRECTION ( 'NONE',  ( 0.0000000000000000000, 0.0000000000000000000, 1.000000000000000000 ) ) ;
#143 = CARTESIAN_POINT ( 'NONE',  ( 0.0000000000000000000, 0.09999999999999999167, 0.1999999999999999833 ) ) ;
#144 = CARTESIAN_POINT ( 'NONE',  ( -0.09999999999999997780, 0.0000000000000000000, 0.1999999999999999833 ) ) ;
#145 = FACE_OUTER_BOUND ( 'NONE', #288, .T. ) ;
#146 = CARTESIAN_POINT ( 'NONE',  ( 0.1100000000000004446, 1.438959988998142687E-17, 3.000000000000000444 ) ) ;
#147 = DIRECTION ( 'NONE',  ( -0.0000000000000000000, -0.0000000000000000000, -1.000000000000000000 ) ) ;
#148 = STYLED_ITEM ( 'NONE', ( #240 ), #223 ) ;
#149 = EDGE_CURVE ( 'NONE', #215, #24, #172, .T. ) ;
#150 = SPHERICAL_SURFACE ( 'NONE', #299, 0.1249999999999999861 ) ;
#151 = PLANE ( 'NONE',  #273 ) ;
#152 = ORIENTED_EDGE ( 'NONE', *, *, #47, .F. ) ;
#153 = DIRECTION ( 'NONE',  ( -0.0000000000000000000, -0.0000000000000000000, -1.000000000000000000 ) ) ;
#154 = ORIENTED_EDGE ( 'NONE', *, *, #300, .F. ) ;
#155 = EDGE_CURVE ( 'NONE', #185, #30, #227, .T. ) ;
#156 = DIRECTION ( 'NONE',  ( 0.0000000000000000000, 0.0000000000000000000, -1.000000000000000000 ) ) ;
#157 = ORIENTED_EDGE ( 'NONE', *, *, #291, .F. ) ;
#158 =( NAMED_UNIT ( * ) SI_UNIT ( $, .STERADIAN. ) SOLID_ANGLE_UNIT ( ) );
#159 = CARTESIAN_POINT ( 'NONE',  ( 0.09999999999999997780, 1.224646799147352961E-17, 0.1999999999999999833 ) ) ;
#160 = LENGTH_MEASURE_WITH_UNIT ( LENGTH_MEASURE( 0.02539999999999999897 ), #135 );
#161 = EDGE_CURVE ( 'NONE', #20, #340, #70, .T. ) ;
#162 = FACE_OUTER_BOUND ( 'NONE', #137, .T. ) ;
#163 = UNCERTAINTY_MEASURE_WITH_UNIT (LENGTH_MEASURE( 1.000000000000000082E-05 ), #213, 'distance_accuracy_value', 'NONE');
#164 = COLOUR_RGB ( '',0.7921568627450980005, 0.8196078431372548767, 0.9333333333333333481 ) ;
#165 = DIRECTION ( 'NONE',  ( 1.000000000000000000, 0.0000000000000000000, 0.0000000000000000000 ) ) ;
#166 = AXIS2_PLACEMENT_3D ( 'NONE', #179, #304, #123 ) ;
#167 = VERTEX_POINT ( 'NONE', #177 ) ;
#168 =( NAMED_UNIT ( * ) SI_UNIT ( $, .STERADIAN. ) SOLID_ANGLE_UNIT ( ) );
#169 = ORIENTED_EDGE ( 'NONE', *, *, #161, .F. ) ;
#170 = EDGE_CURVE ( 'NONE', #24, #20, #279, .T. ) ;
#171 = STYLED_ITEM ( 'NONE', ( #191 ), #262 ) ;
#172 = CIRCLE ( 'NONE', #60, 0.1100000000000004446 ) ;
#173 = DIRECTION ( 'NONE',  ( 0.0000000000000000000, 0.0000000000000000000, 1.000000000000000000 ) ) ;
#174 = DIMENSIONAL_EXPONENTS ( 1.000000000000000000, 0.0000000000000000000, 0.0000000000000000000, 0.0000000000000000000, 0.0000000000000000000, 0.0000000000000000000, 0.0000000000000000000 ) ;
#175 = LINE ( 'NONE', #284, #107 ) ;
#176 = DIRECTION ( 'NONE',  ( -0.0000000000000000000, -0.0000000000000000000, -1.000000000000000000 ) ) ;
#177 = CARTESIAN_POINT ( 'NONE',  ( -0.09999999999999996392, 1.377727649040772081E-17, 0.5000000000000000000 ) ) ;
#178 = FACE_OUTER_BOUND ( 'NONE', #243, .T. ) ;
#179 = CARTESIAN_POINT ( 'NONE',  ( 0.0000000000000000000, 0.0000000000000000000, 0.0000000000000000000 ) ) ;
#180 = DIRECTION ( 'NONE',  ( 1.000000000000000000, 0.0000000000000000000, 0.0000000000000000000 ) ) ;
#181 = DIRECTION ( 'NONE',  ( -0.0000000000000000000, -0.0000000000000000000, -1.000000000000000000 ) ) ;
#182 = EDGE_LOOP ( 'NONE', ( #316, #314 ) ) ;
#183 = CIRCLE ( 'NONE', #28, 0.09999999999999997780 ) ;
#184 = CARTESIAN_POINT ( 'NONE',  ( 0.0000000000000000000, 0.0000000000000000000, 3.000000000000000444 ) ) ;
#185 = VERTEX_POINT ( 'NONE', #143 ) ;
#186 = ORIENTED_EDGE ( 'NONE', *, *, #47, .T. ) ;
#187 = ORIENTED_EDGE ( 'NONE', *, *, #225, .F. ) ;
#188 = CIRCLE ( 'NONE', #241, 0.09999999999999996392 ) ;
#189 = SURFACE_SIDE_STYLE ('',( #298 ) ) ;
#190 =( NAMED_UNIT ( * ) PLANE_ANGLE_UNIT ( ) SI_UNIT ( $, .RADIAN. ) );
#191 = PRESENTATION_STYLE_ASSIGNMENT (( #138 ) ) ;
#192 = AXIS2_PLACEMENT_3D ( 'NONE', #266, #165, #239 ) ;
#193 = CIRCLE ( 'NONE', #88, 0.09999999999999997780 ) ;
#194 = CARTESIAN_POINT ( 'NONE',  ( 0.1250000000000000000, 1.530808498934191201E-17, 3.000000000000000444 ) ) ;
#195 = AXIS2_PLACEMENT_3D ( 'NONE', #4, #294, #58 ) ;
#196 = DIRECTION ( 'NONE',  ( -1.000000000000000000, 0.0000000000000000000, 0.0000000000000000000 ) ) ;
#197 = EDGE_CURVE ( 'NONE', #125, #340, #175, .T. ) ;
#198 = DIRECTION ( 'NONE',  ( -1.000000000000000000, 0.0000000000000000000, 0.0000000000000000000 ) ) ;
#199 = CYLINDRICAL_SURFACE ( 'NONE', #221, 0.1250000000000000000 ) ;
#200 = DIRECTION ( 'NONE',  ( 0.0000000000000000000, 0.0000000000000000000, -1.000000000000000000 ) ) ;
#201 = FACE_OUTER_BOUND ( 'NONE', #99, .T. ) ;
#202 = DIRECTION ( 'NONE',  ( 0.0000000000000000000, 0.0000000000000000000, 1.000000000000000000 ) ) ;
#203 = CARTESIAN_POINT ( 'NONE',  ( 0.0000000000000000000, 0.0000000000000000000, 1.199999999999999956 ) ) ;
#204 = ORIENTED_EDGE ( 'NONE', *, *, #59, .T. ) ;
#205 = AXIS2_PLACEMENT_3D ( 'NONE', #11, #118, #224 ) ;
#206 = ORIENTED_EDGE ( 'NONE', *, *, #248, .T. ) ;
#207 = ORIENTED_EDGE ( 'NONE', *, *, #87, .T. ) ;
#208 = ORIENTED_EDGE ( 'NONE', *, *, #155, .F. ) ;
#209 = FILL_AREA_STYLE ('',( #1 ) ) ;
#210 =( NAMED_UNIT ( * ) PLANE_ANGLE_UNIT ( ) SI_UNIT ( $, .RADIAN. ) );
#211 = ADVANCED_FACE ( 'NONE', ( #329 ), #151, .T. ) ;
#212 = APPLICATION_PROTOCOL_DEFINITION ( 'draft international standard', 'automotive_design', 1998, #271 ) ;
#213 =( CONVERSION_BASED_UNIT ( 'INCH', #112 ) LENGTH_UNIT ( ) NAMED_UNIT ( #217 ) );
#214 = EDGE_CURVE ( 'NONE', #49, #185, #301, .T. ) ;
#215 = VERTEX_POINT ( 'NONE', #26 ) ;
#216 = CIRCLE ( 'NONE', #78, 0.1250000000000000000 ) ;
#217 = DIMENSIONAL_EXPONENTS ( 1.000000000000000000, 0.0000000000000000000, 0.0000000000000000000, 0.0000000000000000000, 0.0000000000000000000, 0.0000000000000000000, 0.0000000000000000000 ) ;
#218 = MECHANICAL_DESIGN_GEOMETRIC_PRESENTATION_REPRESENTATION (  '', ( #148 ), #41 ) ;
#219 = PRODUCT ( 'Micro_SBM-250-2', 'Micro_SBM-250-2', '', ( #83 ) ) ;
#220 =( GEOMETRIC_REPRESENTATION_CONTEXT ( 3 ) GLOBAL_UNCERTAINTY_ASSIGNED_CONTEXT ( ( #27 ) ) GLOBAL_UNIT_ASSIGNED_CONTEXT ( ( #341, #210, #321 ) ) REPRESENTATION_CONTEXT ( 'NONE', 'WORKASPACE' ) );
#221 = AXIS2_PLACEMENT_3D ( 'NONE', #333, #92, #306 ) ;
#222 = CARTESIAN_POINT ( 'NONE',  ( 0.0000000000000000000, 0.0000000000000000000, 0.1250000000000000000 ) ) ;
#223 = MANIFOLD_SOLID_BREP ( 'Cut-Revolve3', #52 ) ;
#224 = DIRECTION ( 'NONE',  ( -1.000000000000000000, 0.0000000000000000000, 0.0000000000000000000 ) ) ;
#225 = EDGE_CURVE ( 'NONE', #342, #46, #97, .T. ) ;
#226 = CARTESIAN_POINT ( 'NONE',  ( 0.0000000000000000000, 0.0000000000000000000, 3.000000000000000444 ) ) ;
#227 = CIRCLE ( 'NONE', #345, 0.1250000000000000000 ) ;
#228 = DIRECTION ( 'NONE',  ( 1.000000000000000000, 0.0000000000000000000, 0.0000000000000000000 ) ) ;
#229 = DIRECTION ( 'NONE',  ( -0.0000000000000000000, -0.0000000000000000000, -1.000000000000000000 ) ) ;
#230 = CYLINDRICAL_SURFACE ( 'NONE', #166, 0.09999999999999996392 ) ;
#231 = LINE ( 'NONE', #69, #296 ) ;
#232 = ORIENTED_EDGE ( 'NONE', *, *, #72, .F. ) ;
#233 = DIRECTION ( 'NONE',  ( 0.0000000000000000000, 0.0000000000000000000, 1.000000000000000000 ) ) ;
#234 = EDGE_LOOP ( 'NONE', ( #285, #270, #75, #29 ) ) ;
#235 = ORIENTED_EDGE ( 'NONE', *, *, #214, .T. ) ;
#236 = LENGTH_MEASURE_WITH_UNIT ( LENGTH_MEASURE( 0.02539999999999999897 ), #290 );
#237 = ORIENTED_EDGE ( 'NONE', *, *, #197, .T. ) ;
#238 = PRODUCT_RELATED_PRODUCT_CATEGORY ( 'part', '', ( #219 ) ) ;
#239 = DIRECTION ( 'NONE',  ( 0.0000000000000000000, 1.000000000000000000, 0.0000000000000000000 ) ) ;
#240 = PRESENTATION_STYLE_ASSIGNMENT (( #343 ) ) ;
#241 = AXIS2_PLACEMENT_3D ( 'NONE', #250, #12, #68 ) ;
#242 = PRODUCT_DEFINITION_CONTEXT ( 'detailed design', #274, 'design' ) ;
#243 = EDGE_LOOP ( 'NONE', ( #206, #115, #5, #318, #259 ) ) ;
#244 = FILL_AREA_STYLE_COLOUR ( '', #164 ) ;
#245 = ORIENTED_EDGE ( 'NONE', *, *, #295, .T. ) ;
#246 = DIRECTION ( 'NONE',  ( 1.000000000000000000, 0.0000000000000000000, 0.0000000000000000000 ) ) ;
#247 = DIRECTION ( 'NONE',  ( 0.0000000000000000000, 0.0000000000000000000, 1.000000000000000000 ) ) ;
#248 = EDGE_CURVE ( 'NONE', #167, #125, #275, .T. ) ;
#249 = LINE ( 'NONE', #255, #268 ) ;
#250 = CARTESIAN_POINT ( 'NONE',  ( 0.0000000000000000000, 0.0000000000000000000, 0.5000000000000000000 ) ) ;
#251 = CARTESIAN_POINT ( 'NONE',  ( 0.0000000000000000000, 0.0000000000000000000, 1.549999999999994049 ) ) ;
#252 = AXIS2_PLACEMENT_3D ( 'NONE', #184, #74, #100 ) ;
#253 = CARTESIAN_POINT ( 'NONE',  ( 0.09999999999999996392, 1.224646799147352807E-17, 0.0000000000000000000 ) ) ;
#254 = AXIS2_PLACEMENT_3D ( 'NONE', #89, #65, #303 ) ;
#255 = CARTESIAN_POINT ( 'NONE',  ( -0.09999999999999996392, 0.0000000000000000000, 0.0000000000000000000 ) ) ;
#256 = CARTESIAN_POINT ( 'NONE',  ( -0.1250000000000000000, 0.0000000000000000000, 2.985000000000001208 ) ) ;
#257 = ORIENTED_EDGE ( 'NONE', *, *, #197, .F. ) ;
#258 = LINE ( 'NONE', #94, #134 ) ;
#259 = ORIENTED_EDGE ( 'NONE', *, *, #136, .F. ) ;
#260 = DIRECTION ( 'NONE',  ( -1.000000000000000000, 0.0000000000000000000, 0.0000000000000000000 ) ) ;
#261 = ORIENTED_EDGE ( 'NONE', *, *, #282, .T. ) ;
#262 = ADVANCED_BREP_SHAPE_REPRESENTATION ( 'Micro_SBM-250-2', ( #223, #317 ), #310 ) ;
#263 = ADVANCED_FACE ( 'NONE', ( #201 ), #150, .T. ) ;
#264 =( NAMED_UNIT ( * ) PLANE_ANGLE_UNIT ( ) SI_UNIT ( $, .RADIAN. ) );
#265 = CARTESIAN_POINT ( 'NONE',  ( 0.0000000000000000000, 0.0000000000000000000, 0.1999999999999999833 ) ) ;
#266 = CARTESIAN_POINT ( 'NONE',  ( 0.0000000000000000000, 0.0000000000000000000, 0.1250000000000000000 ) ) ;
#267 = AXIS2_PLACEMENT_3D ( 'NONE', #50, #156, #260 ) ;
#268 = VECTOR ( 'NONE', #18, 39.37007874015748143 ) ;
#269 = EDGE_CURVE ( 'NONE', #24, #215, #322, .T. ) ;
#270 = ORIENTED_EDGE ( 'NONE', *, *, #161, .T. ) ;
#271 = APPLICATION_CONTEXT ( 'automotive_design' ) ;
#272 = VERTEX_POINT ( 'NONE', #256 ) ;
#273 = AXIS2_PLACEMENT_3D ( 'NONE', #276, #142, #277 ) ;
#274 = APPLICATION_CONTEXT ( 'automotive_design' ) ;
#275 = CIRCLE ( 'NONE', #13, 0.09999999999999996392 ) ;
#276 = CARTESIAN_POINT ( 'NONE',  ( 0.0000000000000000000, 0.0000000000000000000, 3.000000000000000444 ) ) ;
#277 = DIRECTION ( 'NONE',  ( 1.000000000000000000, 0.0000000000000000000, -0.0000000000000000000 ) ) ;
#278 = CARTESIAN_POINT ( 'NONE',  ( 1.224646799147353115E-17, -0.09999999999999999167, 0.1999999999999999833 ) ) ;
#279 = LINE ( 'NONE', #62, #313 ) ;
#280 = DIRECTION ( 'NONE',  ( -1.000000000000000000, 0.0000000000000000000, 0.0000000000000000000 ) ) ;
#281 = FACE_OUTER_BOUND ( 'NONE', #104, .T. ) ;
#282 = EDGE_CURVE ( 'NONE', #215, #272, #231, .T. ) ;
#283 = DIRECTION ( 'NONE',  ( 1.000000000000000000, 0.0000000000000000000, 0.0000000000000000000 ) ) ;
#284 = CARTESIAN_POINT ( 'NONE',  ( 0.1374999999999998168, 0.0000000000000000000, 1.549999999999994049 ) ) ;
#285 = ORIENTED_EDGE ( 'NONE', *, *, #324, .T. ) ;
#286 = CARTESIAN_POINT ( 'NONE',  ( -0.1250000000000000000, 0.0000000000000000000, 3.000000000000000444 ) ) ;
#287 = EDGE_LOOP ( 'NONE', ( #232, #186, #85, #101, #187 ) ) ;
#288 = EDGE_LOOP ( 'NONE', ( #154, #152, #237, #53 ) ) ;
#289 = PRESENTATION_LAYER_ASSIGNMENT (  '', '', ( #171 ) ) ;
#290 =( LENGTH_UNIT ( ) NAMED_UNIT ( * ) SI_UNIT ( $, .METRE. ) );
#291 = EDGE_CURVE ( 'NONE', #340, #102, #126, .T. ) ;
#292 = ORIENTED_EDGE ( 'NONE', *, *, #248, .F. ) ;
#293 = SURFACE_SIDE_STYLE ('',( #55 ) ) ;
#294 = DIRECTION ( 'NONE',  ( -0.0000000000000000000, -0.0000000000000000000, -1.000000000000000000 ) ) ;
#295 = EDGE_CURVE ( 'NONE', #272, #102, #312, .T. ) ;
#296 = VECTOR ( 'NONE', #98, 39.37007874015748854 ) ;
#297 = ORIENTED_EDGE ( 'NONE', *, *, #31, .T. ) ;
#298 = SURFACE_STYLE_FILL_AREA ( #82 ) ;
#299 = AXIS2_PLACEMENT_3D ( 'NONE', #19, #283, #124 ) ;
#300 = EDGE_CURVE ( 'NONE', #167, #102, #258, .T. ) ;
#301 = CIRCLE ( 'NONE', #205, 0.09999999999999997780 ) ;
#302 = PRODUCT_DEFINITION_SHAPE ( 'NONE', 'NONE',  #7 ) ;
#303 = DIRECTION ( 'NONE',  ( -1.224646799147353207E-16, 1.000000000000000000, 0.0000000000000000000 ) ) ;
#304 = DIRECTION ( 'NONE',  ( -0.0000000000000000000, -0.0000000000000000000, -1.000000000000000000 ) ) ;
#305 = LINE ( 'NONE', #253, #319 ) ;
#306 = DIRECTION ( 'NONE',  ( -1.000000000000000000, 0.0000000000000000000, 0.0000000000000000000 ) ) ;
#307 = CYLINDRICAL_SURFACE ( 'NONE', #32, 0.09999999999999996392 ) ;
#308 = DIRECTION ( 'NONE',  ( 0.0000000000000000000, 0.0000000000000000000, -1.000000000000000000 ) ) ;
#309 = DIRECTION ( 'NONE',  ( -1.000000000000000000, 0.0000000000000000000, 0.0000000000000000000 ) ) ;
#310 =( GEOMETRIC_REPRESENTATION_CONTEXT ( 3 ) GLOBAL_UNCERTAINTY_ASSIGNED_CONTEXT ( ( #163 ) ) GLOBAL_UNIT_ASSIGNED_CONTEXT ( ( #213, #264, #168 ) ) REPRESENTATION_CONTEXT ( 'NONE', 'WORKASPACE' ) );
#311 = ORIENTED_EDGE ( 'NONE', *, *, #269, .F. ) ;
#312 = LINE ( 'NONE', #286, #325 ) ;
#313 = VECTOR ( 'NONE', #39, 39.37007874015748854 ) ;
#314 = ORIENTED_EDGE ( 'NONE', *, *, #269, .T. ) ;
#315 = ORIENTED_EDGE ( 'NONE', *, *, #31, .F. ) ;
#316 = ORIENTED_EDGE ( 'NONE', *, *, #149, .T. ) ;
#317 = AXIS2_PLACEMENT_3D ( 'NONE', #116, #109, #246 ) ;
#318 = ORIENTED_EDGE ( 'NONE', *, *, #214, .F. ) ;
#319 = VECTOR ( 'NONE', #66, 39.37007874015748143 ) ;
#320 = CARTESIAN_POINT ( 'NONE',  ( 0.0000000000000000000, 0.0000000000000000000, 0.5000000000000000000 ) ) ;
#321 =( NAMED_UNIT ( * ) SI_UNIT ( $, .STERADIAN. ) SOLID_ANGLE_UNIT ( ) );
#322 = CIRCLE ( 'NONE', #252, 0.1100000000000004446 ) ;
#323 = EDGE_LOOP ( 'NONE', ( #311, #71, #128, #111 ) ) ;
#324 = EDGE_CURVE ( 'NONE', #272, #20, #141, .T. ) ;
#325 = VECTOR ( 'NONE', #153, 39.37007874015748143 ) ;
#326 = CIRCLE ( 'NONE', #33, 0.1250000000000000000 ) ;
#327 = ADVANCED_FACE ( 'NONE', ( #2 ), #54, .T. ) ;
#328 = DIRECTION ( 'NONE',  ( 0.0000000000000000000, 0.0000000000000000000, 1.000000000000000000 ) ) ;
#329 = FACE_OUTER_BOUND ( 'NONE', #182, .T. ) ;
#330 = CONICAL_SURFACE ( 'NONE', #267, 0.1100000000000004446, 0.7853981633974613796 ) ;
#331 = CONICAL_SURFACE ( 'NONE', #121, 0.1374999999999998168, 0.03569911267932403265 ) ;
#332 = DIRECTION ( 'NONE',  ( 0.0000000000000000000, 0.0000000000000000000, -1.000000000000000000 ) ) ;
#333 = CARTESIAN_POINT ( 'NONE',  ( 0.0000000000000000000, 0.0000000000000000000, 3.000000000000000444 ) ) ;
#334 = CARTESIAN_POINT ( 'NONE',  ( 0.0000000000000000000, 7.654042494670956004E-18, 1.707404996040164512E-17 ) ) ;
#335 = CARTESIAN_POINT ( 'NONE',  ( 0.0000000000000000000, 0.0000000000000000000, 1.549999999999994049 ) ) ;
#336 = ORIENTED_EDGE ( 'NONE', *, *, #225, .T. ) ;
#337 = CARTESIAN_POINT ( 'NONE',  ( 0.0000000000000000000, 0.0000000000000000000, 2.985000000000001208 ) ) ;
#338 = ORIENTED_EDGE ( 'NONE', *, *, #155, .T. ) ;
#339 = ADVANCED_FACE ( 'NONE', ( #162 ), #131, .T. ) ;
#340 = VERTEX_POINT ( 'NONE', #51 ) ;
#341 =( CONVERSION_BASED_UNIT ( 'INCH', #236 ) LENGTH_UNIT ( ) NAMED_UNIT ( #34 ) );
#342 = VERTEX_POINT ( 'NONE', #159 ) ;
#343 = SURFACE_STYLE_USAGE ( .BOTH. , #293 ) ;
#344 =( LENGTH_UNIT ( ) NAMED_UNIT ( * ) SI_UNIT ( $, .METRE. ) );
#345 = AXIS2_PLACEMENT_3D ( 'NONE', #222, #196, #36 ) ;
ENDSEC;
END-ISO-10303-21;
