ISO-10303-21;
HEADER;
FILE_DESCRIPTION (( 'STEP AP214' ),
    '1' );
FILE_NAME ('05662.STEP',
    '2023-06-22T16:17:04',
    ( '' ),
    ( '' ),
    'SwSTEP 2.0',
    'SolidWorks 2023',
    '' );
FILE_SCHEMA (( 'AUTOMOTIVE_DESIGN' ));
ENDSEC;

DATA;
#1 = FACE_OUTER_BOUND ( 'NONE', #251, .T. ) ;
#2 = PRODUCT_CONTEXT ( 'NONE', #155, 'mechanical' ) ;
#3 = CIRCLE ( 'NONE', #212, 0.3125000000000000000 ) ;
#4 = ADVANCED_FACE ( 'NONE', ( #230 ), #234, .T. ) ;
#5 = STYLED_ITEM ( 'NONE', ( #309 ), #73 ) ;
#6 =( LENGTH_UNIT ( ) NAMED_UNIT ( * ) SI_UNIT ( $, .METRE. ) );
#7 = ORIENTED_EDGE ( 'NONE', *, *, #224, .F. ) ;
#8 =( LENGTH_UNIT ( ) NAMED_UNIT ( * ) SI_UNIT ( $, .METRE. ) );
#9 = CIRCLE ( 'NONE', #247, 0.3125000000000001665 ) ;
#10 =( GEOMETRIC_REPRESENTATION_CONTEXT ( 3 ) GLOBAL_UNCERTAINTY_ASSIGNED_CONTEXT ( ( #227 ) ) GLOBAL_UNIT_ASSIGNED_CONTEXT ( ( #92, #63, #191 ) ) REPRESENTATION_CONTEXT ( 'NONE', 'WORKASPACE' ) );
#11 = PRESENTATION_STYLE_ASSIGNMENT (( #32 ) ) ;
#12 = VERTEX_POINT ( 'NONE', #89 ) ;
#13 = CYLINDRICAL_SURFACE ( 'NONE', #244, 0.3125000000000000000 ) ;
#14 = CARTESIAN_POINT ( 'NONE',  ( 0.000000000000000000, 3.250000000000000000, 0.000000000000000000 ) ) ;
#15 = ORIENTED_EDGE ( 'NONE', *, *, #116, .F. ) ;
#16 = MECHANICAL_DESIGN_GEOMETRIC_PRESENTATION_REPRESENTATION (  '', ( #141 ), #80 ) ;
#17 = DIRECTION ( 'NONE',  ( -1.000000000000000000, 0.000000000000000000, 0.000000000000000000 ) ) ;
#18 = ORIENTED_EDGE ( 'NONE', *, *, #176, .T. ) ;
#19 = PLANE ( 'NONE',  #232 ) ;
#20 = SURFACE_SIDE_STYLE ('',( #112 ) ) ;
#21 = VECTOR ( 'NONE', #147, 39.37007874015748143 ) ;
#22 = DIRECTION ( 'NONE',  ( 1.000000000000000000, 4.453261087808560759E-17, 0.000000000000000000 ) ) ;
#23 = SURFACE_STYLE_FILL_AREA ( #58 ) ;
#24 = ORIENTED_EDGE ( 'NONE', *, *, #298, .F. ) ;
#25 = DIRECTION ( 'NONE',  ( -4.453261087808560759E-17, 1.000000000000000000, -0.000000000000000000 ) ) ;
#26 = CIRCLE ( 'NONE', #262, 0.3125000000000000000 ) ;
#27 = CARTESIAN_POINT ( 'NONE',  ( -1.224646799147354440E-16, 6.000000000000000888, 0.000000000000000000 ) ) ;
#28 = ADVANCED_BREP_SHAPE_REPRESENTATION ( '05662', ( #84, #293, #96 ), #133 ) ;
#29 = SURFACE_SIDE_STYLE ('',( #41 ) ) ;
#30 = FILL_AREA_STYLE_COLOUR ( '', #273 ) ;
#31 = DIMENSIONAL_EXPONENTS ( 1.000000000000000000, 0.000000000000000000, 0.000000000000000000, 0.000000000000000000, 0.000000000000000000, 0.000000000000000000, 0.000000000000000000 ) ;
#32 = SURFACE_STYLE_USAGE ( .BOTH. , #265 ) ;
#33 = ORIENTED_EDGE ( 'NONE', *, *, #116, .T. ) ;
#34 = CARTESIAN_POINT ( 'NONE',  ( 0.3125000000000000000, 3.250000000000000000, 3.827021247335479543E-17 ) ) ;
#35 = STYLED_ITEM ( 'NONE', ( #144 ), #139 ) ;
#36 = CYLINDRICAL_SURFACE ( 'NONE', #207, 0.3125000000000000555 ) ;
#37 =( LENGTH_UNIT ( ) NAMED_UNIT ( * ) SI_UNIT ( $, .METRE. ) );
#38 = EDGE_CURVE ( 'NONE', #72, #40, #178, .T. ) ;
#39 = DIRECTION ( 'NONE',  ( -0.000000000000000000, -1.000000000000000000, -0.000000000000000000 ) ) ;
#40 = VERTEX_POINT ( 'NONE', #98 ) ;
#41 = SURFACE_STYLE_FILL_AREA ( #260 ) ;
#42 = CYLINDRICAL_SURFACE ( 'NONE', #289, 0.3125000000000000555 ) ;
#43 = STYLED_ITEM ( 'NONE', ( #242 ), #65 ) ;
#44 = CARTESIAN_POINT ( 'NONE',  ( 0.000000000000000000, 0.000000000000000000, 0.000000000000000000 ) ) ;
#45 = FILL_AREA_STYLE_COLOUR ( '', #101 ) ;
#46 = ORIENTED_EDGE ( 'NONE', *, *, #278, .F. ) ;
#47 = FILL_AREA_STYLE ('',( #30 ) ) ;
#48 = ORIENTED_EDGE ( 'NONE', *, *, #51, .T. ) ;
#49 = DIRECTION ( 'NONE',  ( -0.000000000000000000, -1.000000000000000000, -0.000000000000000000 ) ) ;
#50 = ORIENTED_EDGE ( 'NONE', *, *, #123, .T. ) ;
#51 = EDGE_CURVE ( 'NONE', #72, #125, #109, .T. ) ;
#52 = CARTESIAN_POINT ( 'NONE',  ( 0.000000000000000000, 0.000000000000000000, -0.3125000000000000000 ) ) ;
#53 = EDGE_LOOP ( 'NONE', ( #145, #18, #167, #24 ) ) ;
#54 = PRODUCT_DEFINITION_CONTEXT ( 'detailed design', #170, 'design' ) ;
#55 = ADVANCED_FACE ( 'NONE', ( #164 ), #42, .T. ) ;
#56 = COLOUR_RGB ( '',1.000000000000000000, 0.000000000000000000, 0.000000000000000000 ) ;
#57 = CARTESIAN_POINT ( 'NONE',  ( 0.000000000000000000, 0.000000000000000000, 0.000000000000000000 ) ) ;
#58 = FILL_AREA_STYLE ('',( #209 ) ) ;
#59 = AXIS2_PLACEMENT_3D ( 'NONE', #57, #287, #303 ) ;
#60 = CARTESIAN_POINT ( 'NONE',  ( -1.224646799147354440E-16, 6.000000000000000888, 0.000000000000000000 ) ) ;
#61 = CARTESIAN_POINT ( 'NONE',  ( -1.224646799147354440E-16, 6.000000000000000888, 0.000000000000000000 ) ) ;
#62 = CLOSED_SHELL ( 'NONE', ( #65, #73, #139, #4 ) ) ;
#63 =( NAMED_UNIT ( * ) PLANE_ANGLE_UNIT ( ) SI_UNIT ( $, .RADIAN. ) );
#64 = SURFACE_STYLE_USAGE ( .BOTH. , #29 ) ;
#65 = ADVANCED_FACE ( 'NONE', ( #1 ), #136, .T. ) ;
#66 = DIRECTION ( 'NONE',  ( -4.453261087808560759E-17, 1.000000000000000000, -0.000000000000000000 ) ) ;
#67 = APPLICATION_PROTOCOL_DEFINITION ( 'draft international standard', 'automotive_design', 1998, #170 ) ;
#68 = AXIS2_PLACEMENT_3D ( 'NONE', #135, #162, #128 ) ;
#69 = UNCERTAINTY_MEASURE_WITH_UNIT (LENGTH_MEASURE( 1.000000000000000082E-05 ), #282, 'distance_accuracy_value', 'NONE');
#70 = SURFACE_SIDE_STYLE ('',( #215 ) ) ;
#71 = PRODUCT ( '05662', '05662', '', ( #2 ) ) ;
#72 = VERTEX_POINT ( 'NONE', #115 ) ;
#73 = ADVANCED_FACE ( 'NONE', ( #165 ), #93, .T. ) ;
#74 = CARTESIAN_POINT ( 'NONE',  ( -1.224646799147354440E-16, 6.000000000000000888, 0.000000000000000000 ) ) ;
#75 = MECHANICAL_DESIGN_GEOMETRIC_PRESENTATION_REPRESENTATION (  '', ( #291 ), #86 ) ;
#76 = VERTEX_POINT ( 'NONE', #275 ) ;
#77 = EDGE_CURVE ( 'NONE', #183, #245, #119, .T. ) ;
#78 = EDGE_LOOP ( 'NONE', ( #253, #175, #223, #7 ) ) ;
#79 = DIRECTION ( 'NONE',  ( 0.000000000000000000, 0.000000000000000000, -1.000000000000000000 ) ) ;
#80 =( GEOMETRIC_REPRESENTATION_CONTEXT ( 3 ) GLOBAL_UNCERTAINTY_ASSIGNED_CONTEXT ( ( #143 ) ) GLOBAL_UNIT_ASSIGNED_CONTEXT ( ( #159, #259, #283 ) ) REPRESENTATION_CONTEXT ( 'NONE', 'WORKASPACE' ) );
#81 = PRESENTATION_LAYER_ASSIGNMENT (  '', '', ( #182 ) ) ;
#82 = ORIENTED_EDGE ( 'NONE', *, *, #298, .T. ) ;
#83 = DIRECTION ( 'NONE',  ( -1.000000000000000000, 0.000000000000000000, 0.000000000000000000 ) ) ;
#84 = MANIFOLD_SOLID_BREP ( 'Revolve - Cutting Edge', #62 ) ;
#85 = PRESENTATION_STYLE_ASSIGNMENT (( #256 ) ) ;
#86 =( GEOMETRIC_REPRESENTATION_CONTEXT ( 3 ) GLOBAL_UNCERTAINTY_ASSIGNED_CONTEXT ( ( #302 ) ) GLOBAL_UNIT_ASSIGNED_CONTEXT ( ( #99, #168, #270 ) ) REPRESENTATION_CONTEXT ( 'NONE', 'WORKASPACE' ) );
#87 = DIRECTION ( 'NONE',  ( -1.000000000000000000, -4.453261087808560759E-17, 0.000000000000000000 ) ) ;
#88 =( NAMED_UNIT ( * ) SI_UNIT ( $, .STERADIAN. ) SOLID_ANGLE_UNIT ( ) );
#89 = CARTESIAN_POINT ( 'NONE',  ( 3.827021247335478926E-17, 0.000000000000000000, 0.3125000000000000000 ) ) ;
#90 = FILL_AREA_STYLE_COLOUR ( '', #56 ) ;
#91 = CARTESIAN_POINT ( 'NONE',  ( 0.000000000000000000, 0.000000000000000000, 0.000000000000000000 ) ) ;
#92 =( CONVERSION_BASED_UNIT ( 'INCH', #189 ) LENGTH_UNIT ( ) NAMED_UNIT ( #100 ) );
#93 = PLANE ( 'NONE',  #111 ) ;
#94 =( LENGTH_UNIT ( ) NAMED_UNIT ( * ) SI_UNIT ( $, .METRE. ) );
#95 = PRESENTATION_LAYER_ASSIGNMENT (  '', '', ( #35 ) ) ;
#96 = AXIS2_PLACEMENT_3D ( 'NONE', #91, #188, #240 ) ;
#97 = AXIS2_PLACEMENT_3D ( 'NONE', #199, #49, #79 ) ;
#98 = CARTESIAN_POINT ( 'NONE',  ( -0.3125000000000002776, 6.000000000000000888, 0.000000000000000000 ) ) ;
#99 =( CONVERSION_BASED_UNIT ( 'INCH', #250 ) LENGTH_UNIT ( ) NAMED_UNIT ( #31 ) );
#100 = DIMENSIONAL_EXPONENTS ( 1.000000000000000000, 0.000000000000000000, 0.000000000000000000, 0.000000000000000000, 0.000000000000000000, 0.000000000000000000, 0.000000000000000000 ) ;
#101 = COLOUR_RGB ( '',0.7921568627450980005, 0.8196078431372548767, 0.9333333333333333481 ) ;
#102 = FILL_AREA_STYLE ('',( #45 ) ) ;
#103 = ORIENTED_EDGE ( 'NONE', *, *, #286, .T. ) ;
#104 = EDGE_LOOP ( 'NONE', ( #15, #46 ) ) ;
#105 = CARTESIAN_POINT ( 'NONE',  ( 0.3125000000000000000, 6.000000000000000888, 0.000000000000000000 ) ) ;
#106 = SURFACE_SIDE_STYLE ('',( #23 ) ) ;
#107 = DIRECTION ( 'NONE',  ( -4.453261087808560759E-17, 1.000000000000000000, 0.000000000000000000 ) ) ;
#108 =( LENGTH_UNIT ( ) NAMED_UNIT ( * ) SI_UNIT ( $, .METRE. ) );
#109 = CIRCLE ( 'NONE', #274, 0.3125000000000000000 ) ;
#110 =( GEOMETRIC_REPRESENTATION_CONTEXT ( 3 ) GLOBAL_UNCERTAINTY_ASSIGNED_CONTEXT ( ( #69 ) ) GLOBAL_UNIT_ASSIGNED_CONTEXT ( ( #282, #206, #88 ) ) REPRESENTATION_CONTEXT ( 'NONE', 'WORKASPACE' ) );
#111 = AXIS2_PLACEMENT_3D ( 'NONE', #138, #249, #118 ) ;
#112 = SURFACE_STYLE_FILL_AREA ( #284 ) ;
#113 =( LENGTH_UNIT ( ) NAMED_UNIT ( * ) SI_UNIT ( $, .METRE. ) );
#114 = DIRECTION ( 'NONE',  ( -1.000000000000000000, 0.000000000000000000, 0.000000000000000000 ) ) ;
#115 = CARTESIAN_POINT ( 'NONE',  ( -0.3125000000000000000, 3.250000000000000000, 0.000000000000000000 ) ) ;
#116 = EDGE_CURVE ( 'NONE', #183, #267, #225, .T. ) ;
#117 = MECHANICAL_DESIGN_GEOMETRIC_PRESENTATION_REPRESENTATION (  '', ( #35 ), #239 ) ;
#118 = DIRECTION ( 'NONE',  ( 0.000000000000000000, -0.000000000000000000, 1.000000000000000000 ) ) ;
#119 = LINE ( 'NONE', #52, #21 ) ;
#120 = ORIENTED_EDGE ( 'NONE', *, *, #271, .T. ) ;
#121 = DIMENSIONAL_EXPONENTS ( 1.000000000000000000, 0.000000000000000000, 0.000000000000000000, 0.000000000000000000, 0.000000000000000000, 0.000000000000000000, 0.000000000000000000 ) ;
#122 = SURFACE_STYLE_FILL_AREA ( #47 ) ;
#123 = EDGE_CURVE ( 'NONE', #267, #12, #150, .T. ) ;
#124 = FACE_OUTER_BOUND ( 'NONE', #78, .T. ) ;
#125 = VERTEX_POINT ( 'NONE', #34 ) ;
#126 = ORIENTED_EDGE ( 'NONE', *, *, #51, .F. ) ;
#127 = FACE_OUTER_BOUND ( 'NONE', #169, .T. ) ;
#128 = DIRECTION ( 'NONE',  ( 0.000000000000000000, 0.000000000000000000, -1.000000000000000000 ) ) ;
#129 = DIRECTION ( 'NONE',  ( -1.000000000000000000, 0.000000000000000000, 0.000000000000000000 ) ) ;
#130 = CARTESIAN_POINT ( 'NONE',  ( 0.000000000000000000, 3.250000000000000000, 0.000000000000000000 ) ) ;
#131 = ADVANCED_FACE ( 'NONE', ( #294 ), #36, .T. ) ;
#132 = AXIS2_PLACEMENT_3D ( 'NONE', #105, #153, #22 ) ;
#133 =( GEOMETRIC_REPRESENTATION_CONTEXT ( 3 ) GLOBAL_UNCERTAINTY_ASSIGNED_CONTEXT ( ( #296 ) ) GLOBAL_UNIT_ASSIGNED_CONTEXT ( ( #236, #193, #217 ) ) REPRESENTATION_CONTEXT ( 'NONE', 'WORKASPACE' ) );
#134 = PRESENTATION_LAYER_ASSIGNMENT (  '', '', ( #43 ) ) ;
#135 = CARTESIAN_POINT ( 'NONE',  ( 0.000000000000000000, 0.000000000000000000, 0.000000000000000000 ) ) ;
#136 = CYLINDRICAL_SURFACE ( 'NONE', #281, 0.3125000000000000000 ) ;
#137 = MECHANICAL_DESIGN_GEOMETRIC_PRESENTATION_REPRESENTATION (  '', ( #5 ), #174 ) ;
#138 = CARTESIAN_POINT ( 'NONE',  ( 0.000000000000000000, 3.250000000000000000, 0.000000000000000000 ) ) ;
#139 = ADVANCED_FACE ( 'NONE', ( #124 ), #13, .T. ) ;
#140 = MECHANICAL_DESIGN_GEOMETRIC_PRESENTATION_REPRESENTATION (  '', ( #182 ), #110 ) ;
#141 = STYLED_ITEM ( 'NONE', ( #285 ), #4 ) ;
#142 = SURFACE_STYLE_FILL_AREA ( #102 ) ;
#143 = UNCERTAINTY_MEASURE_WITH_UNIT (LENGTH_MEASURE( 1.000000000000000082E-05 ), #159, 'distance_accuracy_value', 'NONE');
#144 = PRESENTATION_STYLE_ASSIGNMENT (( #222 ) ) ;
#145 = ORIENTED_EDGE ( 'NONE', *, *, #271, .F. ) ;
#146 = PRESENTATION_LAYER_ASSIGNMENT (  '', '', ( #5 ) ) ;
#147 = DIRECTION ( 'NONE',  ( -0.000000000000000000, -1.000000000000000000, -0.000000000000000000 ) ) ;
#148 = PRESENTATION_LAYER_ASSIGNMENT (  '', '', ( #291 ) ) ;
#149 = ORIENTED_EDGE ( 'NONE', *, *, #194, .F. ) ;
#150 = LINE ( 'NONE', #246, #221 ) ;
#151 = ORIENTED_EDGE ( 'NONE', *, *, #38, .F. ) ;
#152 = CARTESIAN_POINT ( 'NONE',  ( 0.000000000000000000, 0.000000000000000000, -0.3125000000000000000 ) ) ;
#153 = DIRECTION ( 'NONE',  ( 4.453261087808560759E-17, -1.000000000000000000, 0.000000000000000000 ) ) ;
#154 = LENGTH_MEASURE_WITH_UNIT ( LENGTH_MEASURE( 0.02539999999999999897 ), #113 );
#155 = APPLICATION_CONTEXT ( 'automotive_design' ) ;
#156 = DIRECTION ( 'NONE',  ( -4.453261087808560759E-17, 1.000000000000000000, -0.000000000000000000 ) ) ;
#157 = PRODUCT_DEFINITION ( 'UNKNOWN', '', #161, #54 ) ;
#158 = LENGTH_MEASURE_WITH_UNIT ( LENGTH_MEASURE( 0.02539999999999999897 ), #108 );
#159 =( CONVERSION_BASED_UNIT ( 'INCH', #154 ) LENGTH_UNIT ( ) NAMED_UNIT ( #200 ) );
#160 = DIRECTION ( 'NONE',  ( -4.453261087808560759E-17, 1.000000000000000000, -0.000000000000000000 ) ) ;
#161 = PRODUCT_DEFINITION_FORMATION_WITH_SPECIFIED_SOURCE ( 'ANY', '', #71, .NOT_KNOWN. ) ;
#162 = DIRECTION ( 'NONE',  ( 0.000000000000000000, -1.000000000000000000, -0.000000000000000000 ) ) ;
#163 =( NAMED_UNIT ( * ) PLANE_ANGLE_UNIT ( ) SI_UNIT ( $, .RADIAN. ) );
#164 = FACE_OUTER_BOUND ( 'NONE', #53, .T. ) ;
#165 = FACE_OUTER_BOUND ( 'NONE', #104, .T. ) ;
#166 = DIRECTION ( 'NONE',  ( -0.000000000000000000, -1.000000000000000000, -0.000000000000000000 ) ) ;
#167 = ORIENTED_EDGE ( 'NONE', *, *, #38, .T. ) ;
#168 =( NAMED_UNIT ( * ) PLANE_ANGLE_UNIT ( ) SI_UNIT ( $, .RADIAN. ) );
#169 = EDGE_LOOP ( 'NONE', ( #269, #82 ) ) ;
#170 = APPLICATION_CONTEXT ( 'automotive_design' ) ;
#171 =( NAMED_UNIT ( * ) PLANE_ANGLE_UNIT ( ) SI_UNIT ( $, .RADIAN. ) );
#172 = UNCERTAINTY_MEASURE_WITH_UNIT (LENGTH_MEASURE( 1.000000000000000082E-05 ), #226, 'distance_accuracy_value', 'NONE');
#173 = CIRCLE ( 'NONE', #220, 0.3125000000000001665 ) ;
#174 =( GEOMETRIC_REPRESENTATION_CONTEXT ( 3 ) GLOBAL_UNCERTAINTY_ASSIGNED_CONTEXT ( ( #197 ) ) GLOBAL_UNIT_ASSIGNED_CONTEXT ( ( #290, #163, #308 ) ) REPRESENTATION_CONTEXT ( 'NONE', 'WORKASPACE' ) );
#175 = ORIENTED_EDGE ( 'NONE', *, *, #278, .T. ) ;
#176 = EDGE_CURVE ( 'NONE', #125, #72, #3, .T. ) ;
#177 = FILL_AREA_STYLE_COLOUR ( '', #304 ) ;
#178 = LINE ( 'NONE', #198, #248 ) ;
#179 = ORIENTED_EDGE ( 'NONE', *, *, #77, .F. ) ;
#180 = DIMENSIONAL_EXPONENTS ( 1.000000000000000000, 0.000000000000000000, 0.000000000000000000, 0.000000000000000000, 0.000000000000000000, 0.000000000000000000, 0.000000000000000000 ) ;
#181 = DIRECTION ( 'NONE',  ( -0.000000000000000000, -1.000000000000000000, -0.000000000000000000 ) ) ;
#182 = STYLED_ITEM ( 'NONE', ( #85 ), #293 ) ;
#183 = VERTEX_POINT ( 'NONE', #305 ) ;
#184 = VECTOR ( 'NONE', #210, 39.37007874015748143 ) ;
#185 = CARTESIAN_POINT ( 'NONE',  ( 0.000000000000000000, 0.000000000000000000, 0.000000000000000000 ) ) ;
#186 = ORIENTED_EDGE ( 'NONE', *, *, #286, .F. ) ;
#187 = ADVANCED_FACE ( 'NONE', ( #233 ), #19, .F. ) ;
#188 = DIRECTION ( 'NONE',  ( 0.000000000000000000, 0.000000000000000000, 1.000000000000000000 ) ) ;
#189 = LENGTH_MEASURE_WITH_UNIT ( LENGTH_MEASURE( 0.02539999999999999897 ), #263 );
#190 = ADVANCED_FACE ( 'NONE', ( #127 ), #231, .F. ) ;
#191 =( NAMED_UNIT ( * ) SI_UNIT ( $, .STERADIAN. ) SOLID_ANGLE_UNIT ( ) );
#192 = DIRECTION ( 'NONE',  ( -1.000000000000000000, 0.000000000000000000, 0.000000000000000000 ) ) ;
#193 =( NAMED_UNIT ( * ) PLANE_ANGLE_UNIT ( ) SI_UNIT ( $, .RADIAN. ) );
#194 = EDGE_CURVE ( 'NONE', #40, #76, #173, .T. ) ;
#195 = LENGTH_MEASURE_WITH_UNIT ( LENGTH_MEASURE( 0.02539999999999999897 ), #94 );
#196 = MECHANICAL_DESIGN_GEOMETRIC_PRESENTATION_REPRESENTATION (  '', ( #43 ), #10 ) ;
#197 = UNCERTAINTY_MEASURE_WITH_UNIT (LENGTH_MEASURE( 1.000000000000000082E-05 ), #290, 'distance_accuracy_value', 'NONE');
#198 = CARTESIAN_POINT ( 'NONE',  ( -0.3125000000000002220, 6.000000000000000888, 0.000000000000000000 ) ) ;
#199 = CARTESIAN_POINT ( 'NONE',  ( 0.000000000000000000, 3.250000000000000000, 0.000000000000000000 ) ) ;
#200 = DIMENSIONAL_EXPONENTS ( 1.000000000000000000, 0.000000000000000000, 0.000000000000000000, 0.000000000000000000, 0.000000000000000000, 0.000000000000000000, 0.000000000000000000 ) ;
#201 = CIRCLE ( 'NONE', #59, 0.3125000000000000000 ) ;
#202 = LENGTH_MEASURE_WITH_UNIT ( LENGTH_MEASURE( 0.02539999999999999897 ), #8 );
#203 = DIMENSIONAL_EXPONENTS ( 1.000000000000000000, 0.000000000000000000, 0.000000000000000000, 0.000000000000000000, 0.000000000000000000, 0.000000000000000000, 0.000000000000000000 ) ;
#204 =( NAMED_UNIT ( * ) SI_UNIT ( $, .STERADIAN. ) SOLID_ANGLE_UNIT ( ) );
#205 = EDGE_LOOP ( 'NONE', ( #103, #272 ) ) ;
#206 =( NAMED_UNIT ( * ) PLANE_ANGLE_UNIT ( ) SI_UNIT ( $, .RADIAN. ) );
#207 = AXIS2_PLACEMENT_3D ( 'NONE', #74, #228, #299 ) ;
#208 = CARTESIAN_POINT ( 'NONE',  ( 0.3124999999999999445, 6.000000000000000888, 3.827021247335479543E-17 ) ) ;
#209 = FILL_AREA_STYLE_COLOUR ( '', #288 ) ;
#210 = DIRECTION ( 'NONE',  ( -4.453261087808560759E-17, 1.000000000000000000, -0.000000000000000000 ) ) ;
#211 = DIRECTION ( 'NONE',  ( -0.000000000000000000, -1.000000000000000000, -0.000000000000000000 ) ) ;
#212 = AXIS2_PLACEMENT_3D ( 'NONE', #130, #156, #17 ) ;
#213 = DIRECTION ( 'NONE',  ( 0.000000000000000000, 0.000000000000000000, -1.000000000000000000 ) ) ;
#214 = SHAPE_DEFINITION_REPRESENTATION ( #238, #28 ) ;
#215 = SURFACE_STYLE_FILL_AREA ( #218 ) ;
#216 = PRODUCT_RELATED_PRODUCT_CATEGORY ( 'part', '', ( #71 ) ) ;
#217 =( NAMED_UNIT ( * ) SI_UNIT ( $, .STERADIAN. ) SOLID_ANGLE_UNIT ( ) );
#218 = FILL_AREA_STYLE ('',( #90 ) ) ;
#219 = SURFACE_STYLE_USAGE ( .BOTH. , #70 ) ;
#220 = AXIS2_PLACEMENT_3D ( 'NONE', #60, #306, #129 ) ;
#221 = VECTOR ( 'NONE', #166, 39.37007874015748143 ) ;
#222 = SURFACE_STYLE_USAGE ( .BOTH. , #300 ) ;
#223 = ORIENTED_EDGE ( 'NONE', *, *, #77, .T. ) ;
#224 = EDGE_CURVE ( 'NONE', #12, #245, #255, .T. ) ;
#225 = CIRCLE ( 'NONE', #97, 0.3125000000000000000 ) ;
#226 =( CONVERSION_BASED_UNIT ( 'INCH', #202 ) LENGTH_UNIT ( ) NAMED_UNIT ( #121 ) );
#227 = UNCERTAINTY_MEASURE_WITH_UNIT (LENGTH_MEASURE( 1.000000000000000082E-05 ), #92, 'distance_accuracy_value', 'NONE');
#228 = DIRECTION ( 'NONE',  ( -4.453261087808560759E-17, 1.000000000000000000, -0.000000000000000000 ) ) ;
#229 = CARTESIAN_POINT ( 'NONE',  ( 0.000000000000000000, 0.000000000000000000, 0.000000000000000000 ) ) ;
#230 = FACE_OUTER_BOUND ( 'NONE', #205, .T. ) ;
#231 = PLANE ( 'NONE',  #132 ) ;
#232 = AXIS2_PLACEMENT_3D ( 'NONE', #279, #107, #87 ) ;
#233 = FACE_OUTER_BOUND ( 'NONE', #295, .T. ) ;
#234 = PLANE ( 'NONE',  #68 ) ;
#235 = COLOUR_RGB ( '',1.000000000000000000, 0.000000000000000000, 0.000000000000000000 ) ;
#236 =( CONVERSION_BASED_UNIT ( 'INCH', #307 ) LENGTH_UNIT ( ) NAMED_UNIT ( #266 ) );
#237 = DIRECTION ( 'NONE',  ( -4.453261087808560759E-17, 1.000000000000000000, -0.000000000000000000 ) ) ;
#238 = PRODUCT_DEFINITION_SHAPE ( 'NONE', 'NONE',  #157 ) ;
#239 =( GEOMETRIC_REPRESENTATION_CONTEXT ( 3 ) GLOBAL_UNCERTAINTY_ASSIGNED_CONTEXT ( ( #172 ) ) GLOBAL_UNIT_ASSIGNED_CONTEXT ( ( #226, #171, #204 ) ) REPRESENTATION_CONTEXT ( 'NONE', 'WORKASPACE' ) );
#240 = DIRECTION ( 'NONE',  ( 1.000000000000000000, 0.000000000000000000, 0.000000000000000000 ) ) ;
#241 = CARTESIAN_POINT ( 'NONE',  ( 0.000000000000000000, 3.250000000000000000, 0.000000000000000000 ) ) ;
#242 = PRESENTATION_STYLE_ASSIGNMENT (( #64 ) ) ;
#243 = DIRECTION ( 'NONE',  ( -0.000000000000000000, -1.000000000000000000, -0.000000000000000000 ) ) ;
#244 = AXIS2_PLACEMENT_3D ( 'NONE', #229, #39, #301 ) ;
#245 = VERTEX_POINT ( 'NONE', #152 ) ;
#246 = CARTESIAN_POINT ( 'NONE',  ( 3.827021247335478926E-17, 0.000000000000000000, 0.3125000000000000000 ) ) ;
#247 = AXIS2_PLACEMENT_3D ( 'NONE', #61, #160, #83 ) ;
#248 = VECTOR ( 'NONE', #66, 39.37007874015748143 ) ;
#249 = DIRECTION ( 'NONE',  ( 0.000000000000000000, 1.000000000000000000, 0.000000000000000000 ) ) ;
#250 = LENGTH_MEASURE_WITH_UNIT ( LENGTH_MEASURE( 0.02539999999999999897 ), #6 );
#251 = EDGE_LOOP ( 'NONE', ( #33, #50, #186, #179 ) ) ;
#252 = LINE ( 'NONE', #208, #184 ) ;
#253 = ORIENTED_EDGE ( 'NONE', *, *, #123, .F. ) ;
#254 = PRESENTATION_LAYER_ASSIGNMENT (  '', '', ( #141 ) ) ;
#255 = CIRCLE ( 'NONE', #297, 0.3125000000000000000 ) ;
#256 = SURFACE_STYLE_USAGE ( .BOTH. , #20 ) ;
#257 = DIRECTION ( 'NONE',  ( 0.000000000000000000, 0.000000000000000000, -1.000000000000000000 ) ) ;
#258 = SURFACE_STYLE_USAGE ( .BOTH. , #106 ) ;
#259 =( NAMED_UNIT ( * ) PLANE_ANGLE_UNIT ( ) SI_UNIT ( $, .RADIAN. ) );
#260 = FILL_AREA_STYLE ('',( #264 ) ) ;
#261 = APPLICATION_PROTOCOL_DEFINITION ( 'draft international standard', 'automotive_design', 1998, #155 ) ;
#262 = AXIS2_PLACEMENT_3D ( 'NONE', #14, #181, #213 ) ;
#263 =( LENGTH_UNIT ( ) NAMED_UNIT ( * ) SI_UNIT ( $, .METRE. ) );
#264 = FILL_AREA_STYLE_COLOUR ( '', #235 ) ;
#265 = SURFACE_SIDE_STYLE ('',( #142 ) ) ;
#266 = DIMENSIONAL_EXPONENTS ( 1.000000000000000000, 0.000000000000000000, 0.000000000000000000, 0.000000000000000000, 0.000000000000000000, 0.000000000000000000, 0.000000000000000000 ) ;
#267 = VERTEX_POINT ( 'NONE', #277 ) ;
#268 = CLOSED_SHELL ( 'NONE', ( #131, #187, #55, #190 ) ) ;
#269 = ORIENTED_EDGE ( 'NONE', *, *, #194, .T. ) ;
#270 =( NAMED_UNIT ( * ) SI_UNIT ( $, .STERADIAN. ) SOLID_ANGLE_UNIT ( ) );
#271 = EDGE_CURVE ( 'NONE', #125, #76, #252, .T. ) ;
#272 = ORIENTED_EDGE ( 'NONE', *, *, #224, .T. ) ;
#273 = COLOUR_RGB ( '',1.000000000000000000, 0.000000000000000000, 0.000000000000000000 ) ;
#274 = AXIS2_PLACEMENT_3D ( 'NONE', #241, #237, #192 ) ;
#275 = CARTESIAN_POINT ( 'NONE',  ( 0.3125000000000000000, 6.000000000000000888, 3.827021247335479543E-17 ) ) ;
#276 = ORIENTED_EDGE ( 'NONE', *, *, #176, .F. ) ;
#277 = CARTESIAN_POINT ( 'NONE',  ( 3.827021247335478926E-17, 3.250000000000000000, 0.3125000000000000000 ) ) ;
#278 = EDGE_CURVE ( 'NONE', #267, #183, #26, .T. ) ;
#279 = CARTESIAN_POINT ( 'NONE',  ( 3.098677236904669840E-34, 3.250000000000000000, 0.000000000000000000 ) ) ;
#280 = EDGE_LOOP ( 'NONE', ( #48, #120, #149, #151 ) ) ;
#281 = AXIS2_PLACEMENT_3D ( 'NONE', #44, #243, #292 ) ;
#282 =( CONVERSION_BASED_UNIT ( 'INCH', #158 ) LENGTH_UNIT ( ) NAMED_UNIT ( #203 ) );
#283 =( NAMED_UNIT ( * ) SI_UNIT ( $, .STERADIAN. ) SOLID_ANGLE_UNIT ( ) );
#284 = FILL_AREA_STYLE ('',( #177 ) ) ;
#285 = PRESENTATION_STYLE_ASSIGNMENT (( #258 ) ) ;
#286 = EDGE_CURVE ( 'NONE', #245, #12, #201, .T. ) ;
#287 = DIRECTION ( 'NONE',  ( -0.000000000000000000, -1.000000000000000000, -0.000000000000000000 ) ) ;
#288 = COLOUR_RGB ( '',1.000000000000000000, 0.000000000000000000, 0.000000000000000000 ) ;
#289 = AXIS2_PLACEMENT_3D ( 'NONE', #27, #25, #114 ) ;
#290 =( CONVERSION_BASED_UNIT ( 'INCH', #195 ) LENGTH_UNIT ( ) NAMED_UNIT ( #180 ) );
#291 = STYLED_ITEM ( 'NONE', ( #11 ), #84 ) ;
#292 = DIRECTION ( 'NONE',  ( 0.000000000000000000, 0.000000000000000000, -1.000000000000000000 ) ) ;
#293 = MANIFOLD_SOLID_BREP ( 'Revolve - Tool Body (Straight Shanked)', #268 ) ;
#294 = FACE_OUTER_BOUND ( 'NONE', #280, .T. ) ;
#295 = EDGE_LOOP ( 'NONE', ( #126, #276 ) ) ;
#296 = UNCERTAINTY_MEASURE_WITH_UNIT (LENGTH_MEASURE( 1.000000000000000082E-05 ), #236, 'distance_accuracy_value', 'NONE');
#297 = AXIS2_PLACEMENT_3D ( 'NONE', #185, #211, #257 ) ;
#298 = EDGE_CURVE ( 'NONE', #76, #40, #9, .T. ) ;
#299 = DIRECTION ( 'NONE',  ( -1.000000000000000000, 0.000000000000000000, 0.000000000000000000 ) ) ;
#300 = SURFACE_SIDE_STYLE ('',( #122 ) ) ;
#301 = DIRECTION ( 'NONE',  ( 0.000000000000000000, 0.000000000000000000, -1.000000000000000000 ) ) ;
#302 = UNCERTAINTY_MEASURE_WITH_UNIT (LENGTH_MEASURE( 1.000000000000000082E-05 ), #99, 'distance_accuracy_value', 'NONE');
#303 = DIRECTION ( 'NONE',  ( 0.000000000000000000, 0.000000000000000000, -1.000000000000000000 ) ) ;
#304 = COLOUR_RGB ( '',0.7921568627450980005, 0.8196078431372548767, 0.9333333333333333481 ) ;
#305 = CARTESIAN_POINT ( 'NONE',  ( 0.000000000000000000, 3.250000000000000000, -0.3125000000000000000 ) ) ;
#306 = DIRECTION ( 'NONE',  ( -4.453261087808560759E-17, 1.000000000000000000, -0.000000000000000000 ) ) ;
#307 = LENGTH_MEASURE_WITH_UNIT ( LENGTH_MEASURE( 0.02539999999999999897 ), #37 );
#308 =( NAMED_UNIT ( * ) SI_UNIT ( $, .STERADIAN. ) SOLID_ANGLE_UNIT ( ) );
#309 = PRESENTATION_STYLE_ASSIGNMENT (( #219 ) ) ;
ENDSEC;
END-ISO-10303-21;
