ISO-10303-21;
HEADER;
FILE_DESCRIPTION (( 'STEP AP214' ),
    '1' );
FILE_NAME ('59692.STEP',
    '2023-07-24T15:24:32',
    ( '' ),
    ( '' ),
    'SwSTEP 2.0',
    'SolidWorks 2023',
    '' );
FILE_SCHEMA (( 'AUTOMOTIVE_DESIGN' ));
ENDSEC;

DATA;
#1 = APPLICATION_CONTEXT ( 'automotive_design' ) ;
#2 = UNCERTAINTY_MEASURE_WITH_UNIT (LENGTH_MEASURE( 1.000000000000000082E-05 ), #116, 'distance_accuracy_value', 'NONE');
#3 = FACE_OUTER_BOUND ( 'NONE', #70, .T. ) ;
#4 = DIRECTION ( 'NONE',  ( -1.213614799521464586E-16, 1.000000000000000000, -0.000000000000000000 ) ) ;
#5 = CLOSED_SHELL ( 'NONE', ( #309, #140, #285, #112, #69, #35 ) ) ;
#6 = SURFACE_SIDE_STYLE ('',( #232 ) ) ;
#7 = VERTEX_POINT ( 'NONE', #223 ) ;
#8 = PRODUCT_RELATED_PRODUCT_CATEGORY ( 'part', '', ( #315 ) ) ;
#9 = PRESENTATION_LAYER_ASSIGNMENT (  '', '', ( #347 ) ) ;
#10 = STYLED_ITEM ( 'NONE', ( #153 ), #112 ) ;
#11 = UNCERTAINTY_MEASURE_WITH_UNIT (LENGTH_MEASURE( 1.000000000000000082E-05 ), #47, 'distance_accuracy_value', 'NONE');
#12 = SURFACE_STYLE_USAGE ( .BOTH. , #328 ) ;
#13 = PLANE ( 'NONE',  #168 ) ;
#14 = CARTESIAN_POINT ( 'NONE',  ( 2.999999999999996891, 63.00000000000000000, 3.673940397442054445E-16 ) ) ;
#15 = ADVANCED_FACE ( 'NONE', ( #188 ), #185, .T. ) ;
#16 = PRESENTATION_STYLE_ASSIGNMENT (( #180 ) ) ;
#17 = PRESENTATION_STYLE_ASSIGNMENT (( #272 ) ) ;
#18 = DIRECTION ( 'NONE',  ( 0.000000000000000000, -0.000000000000000000, 1.000000000000000000 ) ) ;
#19 = DIRECTION ( 'NONE',  ( -1.213614799521464586E-16, 1.000000000000000000, -0.000000000000000000 ) ) ;
#20 =( LENGTH_UNIT ( ) NAMED_UNIT ( * ) SI_UNIT ( .MILLI., .METRE. ) );
#21 = DIRECTION ( 'NONE',  ( -1.213614799521464586E-16, 1.000000000000000000, -0.000000000000000000 ) ) ;
#22 = EDGE_CURVE ( 'NONE', #346, #7, #339, .T. ) ;
#23 = ORIENTED_EDGE ( 'NONE', *, *, #354, .F. ) ;
#24 = CARTESIAN_POINT ( 'NONE',  ( 3.000000000000000888, 9.000000000000001776, 3.673940397442056910E-16 ) ) ;
#25 = VECTOR ( 'NONE', #305, 1000.000000000000000 ) ;
#26 = AXIS2_PLACEMENT_3D ( 'NONE', #95, #48, #247 ) ;
#27 = CARTESIAN_POINT ( 'NONE',  ( 3.673940397442059868E-16, 0.5000000000000000000, 3.000000000000000000 ) ) ;
#28 = AXIS2_PLACEMENT_3D ( 'NONE', #224, #334, #201 ) ;
#29 = CARTESIAN_POINT ( 'NONE',  ( 3.000000000000000444, 63.00000000000000000, 3.673940397442056910E-16 ) ) ;
#30 = AXIS2_PLACEMENT_3D ( 'NONE', #79, #125, #155 ) ;
#31 = STYLED_ITEM ( 'NONE', ( #329 ), #226 ) ;
#32 = DIRECTION ( 'NONE',  ( -1.000000000000000000, 0.000000000000000000, 0.000000000000000000 ) ) ;
#33 = AXIS2_PLACEMENT_3D ( 'NONE', #298, #358, #75 ) ;
#34 = SURFACE_STYLE_FILL_AREA ( #260 ) ;
#35 = ADVANCED_FACE ( 'NONE', ( #300 ), #13, .T. ) ;
#36 = LINE ( 'NONE', #100, #170 ) ;
#37 = STYLED_ITEM ( 'NONE', ( #273 ), #285 ) ;
#38 = ORIENTED_EDGE ( 'NONE', *, *, #253, .F. ) ;
#39 = SURFACE_STYLE_USAGE ( .BOTH. , #6 ) ;
#40 = CARTESIAN_POINT ( 'NONE',  ( 0.000000000000000000, 0.000000000000000000, 0.000000000000000000 ) ) ;
#41 = PRODUCT_DEFINITION ( 'UNKNOWN', '', #241, #280 ) ;
#42 =( LENGTH_UNIT ( ) NAMED_UNIT ( * ) SI_UNIT ( .MILLI., .METRE. ) );
#43 = FILL_AREA_STYLE ('',( #135 ) ) ;
#44 = LINE ( 'NONE', #284, #25 ) ;
#45 = DIRECTION ( 'NONE',  ( -1.213614799521464586E-16, 1.000000000000000000, -0.000000000000000000 ) ) ;
#46 = MECHANICAL_DESIGN_GEOMETRIC_PRESENTATION_REPRESENTATION (  '', ( #131 ), #194 ) ;
#47 =( LENGTH_UNIT ( ) NAMED_UNIT ( * ) SI_UNIT ( .MILLI., .METRE. ) );
#48 = DIRECTION ( 'NONE',  ( 1.213614799521464586E-16, -1.000000000000000000, 0.000000000000000000 ) ) ;
#49 =( NAMED_UNIT ( * ) SI_UNIT ( $, .STERADIAN. ) SOLID_ANGLE_UNIT ( ) );
#50 = FACE_OUTER_BOUND ( 'NONE', #302, .T. ) ;
#51 = DIRECTION ( 'NONE',  ( -0.000000000000000000, -1.000000000000000000, -0.000000000000000000 ) ) ;
#52 = SURFACE_SIDE_STYLE ('',( #82 ) ) ;
#53 =( NAMED_UNIT ( * ) SI_UNIT ( $, .STERADIAN. ) SOLID_ANGLE_UNIT ( ) );
#54 = EDGE_LOOP ( 'NONE', ( #344, #160 ) ) ;
#55 = PRODUCT_CONTEXT ( 'NONE', #230, 'mechanical' ) ;
#56 = CARTESIAN_POINT ( 'NONE',  ( 0.000000000000000000, 0.5000000000000000000, 0.000000000000000000 ) ) ;
#57 = DIRECTION ( 'NONE',  ( 0.000000000000000000, 0.000000000000000000, -1.000000000000000000 ) ) ;
#58 = DIRECTION ( 'NONE',  ( 0.000000000000000000, 0.000000000000000000, -1.000000000000000000 ) ) ;
#59 = COLOUR_RGB ( '',1.000000000000000000, 0.000000000000000000, 0.000000000000000000 ) ;
#60 = VECTOR ( 'NONE', #134, 1000.000000000000000 ) ;
#61 = EDGE_CURVE ( 'NONE', #255, #290, #369, .T. ) ;
#62 = AXIS2_PLACEMENT_3D ( 'NONE', #291, #45, #78 ) ;
#63 = CARTESIAN_POINT ( 'NONE',  ( 0.000000000000000000, 0.5000000000000000000, -3.000000000000000000 ) ) ;
#64 = DIRECTION ( 'NONE',  ( -0.000000000000000000, -1.000000000000000000, -0.000000000000000000 ) ) ;
#65 = UNCERTAINTY_MEASURE_WITH_UNIT (LENGTH_MEASURE( 1.000000000000000082E-05 ), #238, 'distance_accuracy_value', 'NONE');
#66 = AXIS2_PLACEMENT_3D ( 'NONE', #333, #84, #213 ) ;
#67 = STYLED_ITEM ( 'NONE', ( #212 ), #140 ) ;
#68 = ORIENTED_EDGE ( 'NONE', *, *, #240, .T. ) ;
#69 = ADVANCED_FACE ( 'NONE', ( #191 ), #133, .T. ) ;
#70 = EDGE_LOOP ( 'NONE', ( #167, #361 ) ) ;
#71 = CARTESIAN_POINT ( 'NONE',  ( 0.000000000000000000, 0.000000000000000000, 0.000000000000000000 ) ) ;
#72 = ORIENTED_EDGE ( 'NONE', *, *, #363, .T. ) ;
#73 = AXIS2_PLACEMENT_3D ( 'NONE', #310, #337, #58 ) ;
#74 = EDGE_LOOP ( 'NONE', ( #142, #197, #299, #129 ) ) ;
#75 = DIRECTION ( 'NONE',  ( 0.000000000000000000, 0.000000000000000000, -1.000000000000000000 ) ) ;
#76 = EDGE_CURVE ( 'NONE', #157, #255, #44, .T. ) ;
#77 = FILL_AREA_STYLE ('',( #111 ) ) ;
#78 = DIRECTION ( 'NONE',  ( -1.000000000000000000, 0.000000000000000000, 0.000000000000000000 ) ) ;
#79 = CARTESIAN_POINT ( 'NONE',  ( 0.000000000000000000, 0.5000000000000000000, 0.000000000000000000 ) ) ;
#80 = AXIS2_PLACEMENT_3D ( 'NONE', #327, #323, #166 ) ;
#81 = AXIS2_PLACEMENT_3D ( 'NONE', #271, #19, #137 ) ;
#82 = SURFACE_STYLE_FILL_AREA ( #306 ) ;
#83 = FILL_AREA_STYLE_COLOUR ( '', #124 ) ;
#84 = DIRECTION ( 'NONE',  ( -1.000000000000000000, 0.000000000000000000, 0.000000000000000000 ) ) ;
#85 = SURFACE_STYLE_FILL_AREA ( #186 ) ;
#86 = DIRECTION ( 'NONE',  ( 0.000000000000000000, 0.000000000000000000, -1.000000000000000000 ) ) ;
#87 = EDGE_CURVE ( 'NONE', #346, #177, #99, .T. ) ;
#88 = CIRCLE ( 'NONE', #81, 2.999999999999992450 ) ;
#89 = LINE ( 'NONE', #360, #303 ) ;
#90 = CARTESIAN_POINT ( 'NONE',  ( 0.000000000000000000, 0.000000000000000000, 0.000000000000000000 ) ) ;
#91 = AXIS2_PLACEMENT_3D ( 'NONE', #256, #338, #365 ) ;
#92 = UNCERTAINTY_MEASURE_WITH_UNIT (LENGTH_MEASURE( 1.000000000000000082E-05 ), #267, 'distance_accuracy_value', 'NONE');
#93 = EDGE_CURVE ( 'NONE', #7, #321, #278, .T. ) ;
#94 = COLOUR_RGB ( '',0.7921568627450980005, 0.8196078431372548767, 0.9333333333333333481 ) ;
#95 = CARTESIAN_POINT ( 'NONE',  ( 3.000000000000000000, 63.00000000000000000, 0.000000000000000000 ) ) ;
#96 = CARTESIAN_POINT ( 'NONE',  ( 1.469576158976823750E-15, 63.00000000000000000, 0.000000000000000000 ) ) ;
#97 = ORIENTED_EDGE ( 'NONE', *, *, #363, .F. ) ;
#98 = EDGE_CURVE ( 'NONE', #290, #255, #211, .T. ) ;
#99 = CIRCLE ( 'NONE', #30, 3.000000000000000000 ) ;
#100 = CARTESIAN_POINT ( 'NONE',  ( 0.000000000000000000, 0.000000000000000000, -3.000000000000000000 ) ) ;
#101 = MECHANICAL_DESIGN_GEOMETRIC_PRESENTATION_REPRESENTATION (  '', ( #10 ), #178 ) ;
#102 = DIRECTION ( 'NONE',  ( -1.000000000000000000, 0.000000000000000000, 0.000000000000000000 ) ) ;
#103 = SURFACE_STYLE_FILL_AREA ( #351 ) ;
#104 = EDGE_CURVE ( 'NONE', #141, #346, #36, .T. ) ;
#105 = DIRECTION ( 'NONE',  ( -1.000000000000000000, 0.000000000000000000, 0.000000000000000000 ) ) ;
#106 = PRESENTATION_LAYER_ASSIGNMENT (  '', '', ( #210 ) ) ;
#107 = PRESENTATION_LAYER_ASSIGNMENT (  '', '', ( #131 ) ) ;
#108 = ORIENTED_EDGE ( 'NONE', *, *, #314, .F. ) ;
#109 =( NAMED_UNIT ( * ) PLANE_ANGLE_UNIT ( ) SI_UNIT ( $, .RADIAN. ) );
#110 = SURFACE_STYLE_USAGE ( .BOTH. , #356 ) ;
#111 = FILL_AREA_STYLE_COLOUR ( '', #318 ) ;
#112 = ADVANCED_FACE ( 'NONE', ( #317 ), #326, .T. ) ;
#113 = FILL_AREA_STYLE_COLOUR ( '', #59 ) ;
#114 = CARTESIAN_POINT ( 'NONE',  ( -2.999999999999997335, 63.00000000000000000, 0.000000000000000000 ) ) ;
#115 =( LENGTH_UNIT ( ) NAMED_UNIT ( * ) SI_UNIT ( .MILLI., .METRE. ) );
#116 =( LENGTH_UNIT ( ) NAMED_UNIT ( * ) SI_UNIT ( .MILLI., .METRE. ) );
#117 = AXIS2_PLACEMENT_3D ( 'NONE', #332, #297, #350 ) ;
#118 = ORIENTED_EDGE ( 'NONE', *, *, #76, .T. ) ;
#119 = DIRECTION ( 'NONE',  ( -0.000000000000000000, -1.000000000000000000, -0.000000000000000000 ) ) ;
#120 =( NAMED_UNIT ( * ) PLANE_ANGLE_UNIT ( ) SI_UNIT ( $, .RADIAN. ) );
#121 =( NAMED_UNIT ( * ) SI_UNIT ( $, .STERADIAN. ) SOLID_ANGLE_UNIT ( ) );
#122 = AXIS2_PLACEMENT_3D ( 'NONE', #245, #4, #102 ) ;
#123 = DIRECTION ( 'NONE',  ( -0.000000000000000000, -1.000000000000000000, -0.000000000000000000 ) ) ;
#124 = COLOUR_RGB ( '',1.000000000000000000, 0.000000000000000000, 0.000000000000000000 ) ;
#125 = DIRECTION ( 'NONE',  ( -0.000000000000000000, -1.000000000000000000, -0.000000000000000000 ) ) ;
#126 = ADVANCED_FACE ( 'NONE', ( #3 ), #343, .F. ) ;
#127 = AXIS2_PLACEMENT_3D ( 'NONE', #200, #119, #57 ) ;
#128 = DIRECTION ( 'NONE',  ( 0.000000000000000000, 0.000000000000000000, -1.000000000000000000 ) ) ;
#129 = ORIENTED_EDGE ( 'NONE', *, *, #145, .F. ) ;
#130 =( NAMED_UNIT ( * ) SI_UNIT ( $, .STERADIAN. ) SOLID_ANGLE_UNIT ( ) );
#131 = STYLED_ITEM ( 'NONE', ( #17 ), #173 ) ;
#132 = CIRCLE ( 'NONE', #289, 0.5000000000000000000 ) ;
#133 = CYLINDRICAL_SURFACE ( 'NONE', #234, 3.000000000000000000 ) ;
#134 = DIRECTION ( 'NONE',  ( -1.213614799521464586E-16, 1.000000000000000000, -0.000000000000000000 ) ) ;
#135 = FILL_AREA_STYLE_COLOUR ( '', #206 ) ;
#136 = SURFACE_STYLE_USAGE ( .BOTH. , #52 ) ;
#137 = DIRECTION ( 'NONE',  ( -1.000000000000000000, 0.000000000000000000, 0.000000000000000000 ) ) ;
#138 = FACE_OUTER_BOUND ( 'NONE', #237, .T. ) ;
#139 = CIRCLE ( 'NONE', #370, 2.500000000000000000 ) ;
#140 = ADVANCED_FACE ( 'NONE', ( #138 ), #281, .T. ) ;
#141 = VERTEX_POINT ( 'NONE', #181 ) ;
#142 = ORIENTED_EDGE ( 'NONE', *, *, #240, .F. ) ;
#143 = PLANE ( 'NONE',  #73 ) ;
#144 = ORIENTED_EDGE ( 'NONE', *, *, #261, .T. ) ;
#145 = EDGE_CURVE ( 'NONE', #177, #346, #164, .T. ) ;
#146 =( NAMED_UNIT ( * ) PLANE_ANGLE_UNIT ( ) SI_UNIT ( $, .RADIAN. ) );
#147 = AXIS2_PLACEMENT_3D ( 'NONE', #96, #176, #32 ) ;
#148 = UNCERTAINTY_MEASURE_WITH_UNIT (LENGTH_MEASURE( 1.000000000000000082E-05 ), #335, 'distance_accuracy_value', 'NONE');
#149 =( GEOMETRIC_REPRESENTATION_CONTEXT ( 3 ) GLOBAL_UNCERTAINTY_ASSIGNED_CONTEXT ( ( #366 ) ) GLOBAL_UNIT_ASSIGNED_CONTEXT ( ( #42, #109, #348 ) ) REPRESENTATION_CONTEXT ( 'NONE', 'WORKASPACE' ) );
#150 = CARTESIAN_POINT ( 'NONE',  ( 8.023096076392732812E-15, 9.000000000000000000, 0.000000000000000000 ) ) ;
#151 = DIRECTION ( 'NONE',  ( -1.224646799147353454E-16, 0.000000000000000000, -1.000000000000000000 ) ) ;
#152 = STYLED_ITEM ( 'NONE', ( #16 ), #309 ) ;
#153 = PRESENTATION_STYLE_ASSIGNMENT (( #39 ) ) ;
#154 =( GEOMETRIC_REPRESENTATION_CONTEXT ( 3 ) GLOBAL_UNCERTAINTY_ASSIGNED_CONTEXT ( ( #2 ) ) GLOBAL_UNIT_ASSIGNED_CONTEXT ( ( #116, #120, #53 ) ) REPRESENTATION_CONTEXT ( 'NONE', 'WORKASPACE' ) );
#155 = DIRECTION ( 'NONE',  ( 0.000000000000000000, 0.000000000000000000, -1.000000000000000000 ) ) ;
#156 = SURFACE_SIDE_STYLE ('',( #34 ) ) ;
#157 = VERTEX_POINT ( 'NONE', #296 ) ;
#158 = FILL_AREA_STYLE_COLOUR ( '', #279 ) ;
#159 = CIRCLE ( 'NONE', #91, 3.000000000000000000 ) ;
#160 = ORIENTED_EDGE ( 'NONE', *, *, #294, .T. ) ;
#161 = DIRECTION ( 'NONE',  ( 0.000000000000000000, 0.000000000000000000, -1.000000000000000000 ) ) ;
#162 = ORIENTED_EDGE ( 'NONE', *, *, #87, .T. ) ;
#163 = MECHANICAL_DESIGN_GEOMETRIC_PRESENTATION_REPRESENTATION (  '', ( #347 ), #293 ) ;
#164 = CIRCLE ( 'NONE', #117, 3.000000000000000000 ) ;
#165 = CARTESIAN_POINT ( 'NONE',  ( 1.469576158976823750E-15, 63.00000000000000000, 0.000000000000000000 ) ) ;
#166 = DIRECTION ( 'NONE',  ( -1.000000000000000000, 0.000000000000000000, 0.000000000000000000 ) ) ;
#167 = ORIENTED_EDGE ( 'NONE', *, *, #61, .T. ) ;
#168 = AXIS2_PLACEMENT_3D ( 'NONE', #244, #330, #18 ) ;
#169 = SURFACE_STYLE_USAGE ( .BOTH. , #301 ) ;
#170 = VECTOR ( 'NONE', #207, 1000.000000000000000 ) ;
#171 = CARTESIAN_POINT ( 'NONE',  ( 3.061616997868383141E-16, 0.5000000000000000000, 2.500000000000000000 ) ) ;
#172 = ADVANCED_FACE ( 'NONE', ( #283 ), #187, .T. ) ;
#173 = MANIFOLD_SOLID_BREP ( 'Revolve - Cutting Edge', #5 ) ;
#174 = PRESENTATION_LAYER_ASSIGNMENT (  '', '', ( #10 ) ) ;
#175 = ORIENTED_EDGE ( 'NONE', *, *, #341, .F. ) ;
#176 = DIRECTION ( 'NONE',  ( -1.213614799521464586E-16, 1.000000000000000000, -0.000000000000000000 ) ) ;
#177 = VERTEX_POINT ( 'NONE', #27 ) ;
#178 =( GEOMETRIC_REPRESENTATION_CONTEXT ( 3 ) GLOBAL_UNCERTAINTY_ASSIGNED_CONTEXT ( ( #65 ) ) GLOBAL_UNIT_ASSIGNED_CONTEXT ( ( #238, #262, #205 ) ) REPRESENTATION_CONTEXT ( 'NONE', 'WORKASPACE' ) );
#179 = ORIENTED_EDGE ( 'NONE', *, *, #261, .F. ) ;
#180 = SURFACE_STYLE_USAGE ( .BOTH. , #331 ) ;
#181 = CARTESIAN_POINT ( 'NONE',  ( 0.000000000000000000, 9.000000000000000000, -3.000000000000000000 ) ) ;
#182 = SURFACE_SIDE_STYLE ('',( #220 ) ) ;
#183 =( GEOMETRIC_REPRESENTATION_CONTEXT ( 3 ) GLOBAL_UNCERTAINTY_ASSIGNED_CONTEXT ( ( #368 ) ) GLOBAL_UNIT_ASSIGNED_CONTEXT ( ( #20, #251, #49 ) ) REPRESENTATION_CONTEXT ( 'NONE', 'WORKASPACE' ) );
#184 =( GEOMETRIC_REPRESENTATION_CONTEXT ( 3 ) GLOBAL_UNCERTAINTY_ASSIGNED_CONTEXT ( ( #231 ) ) GLOBAL_UNIT_ASSIGNED_CONTEXT ( ( #270, #190, #130 ) ) REPRESENTATION_CONTEXT ( 'NONE', 'WORKASPACE' ) );
#185 = CYLINDRICAL_SURFACE ( 'NONE', #80, 2.999999999999995559 ) ;
#186 = FILL_AREA_STYLE ('',( #83 ) ) ;
#187 = CYLINDRICAL_SURFACE ( 'NONE', #122, 2.999999999999995559 ) ;
#188 = FACE_OUTER_BOUND ( 'NONE', #242, .T. ) ;
#189 =( NAMED_UNIT ( * ) SI_UNIT ( $, .STERADIAN. ) SOLID_ANGLE_UNIT ( ) );
#190 =( NAMED_UNIT ( * ) PLANE_ANGLE_UNIT ( ) SI_UNIT ( $, .RADIAN. ) );
#191 = FACE_OUTER_BOUND ( 'NONE', #74, .T. ) ;
#192 = APPLICATION_PROTOCOL_DEFINITION ( 'draft international standard', 'automotive_design', 1998, #1 ) ;
#193 = PLANE ( 'NONE',  #217 ) ;
#194 =( GEOMETRIC_REPRESENTATION_CONTEXT ( 3 ) GLOBAL_UNCERTAINTY_ASSIGNED_CONTEXT ( ( #259 ) ) GLOBAL_UNIT_ASSIGNED_CONTEXT ( ( #115, #146, #364 ) ) REPRESENTATION_CONTEXT ( 'NONE', 'WORKASPACE' ) );
#195 =( NAMED_UNIT ( * ) SI_UNIT ( $, .STERADIAN. ) SOLID_ANGLE_UNIT ( ) );
#196 = DIRECTION ( 'NONE',  ( 0.000000000000000000, 0.000000000000000000, -1.000000000000000000 ) ) ;
#197 = ORIENTED_EDGE ( 'NONE', *, *, #341, .T. ) ;
#198 = CIRCLE ( 'NONE', #127, 3.000000000000000000 ) ;
#199 = ADVANCED_FACE ( 'NONE', ( #50 ), #193, .F. ) ;
#200 = CARTESIAN_POINT ( 'NONE',  ( 0.000000000000000000, 9.000000000000000000, 0.000000000000000000 ) ) ;
#201 = DIRECTION ( 'NONE',  ( 1.000000000000000000, 0.000000000000000000, 0.000000000000000000 ) ) ;
#202 = DIRECTION ( 'NONE',  ( -1.000000000000000000, -1.213614799521464586E-16, 0.000000000000000000 ) ) ;
#203 = AXIS2_PLACEMENT_3D ( 'NONE', #71, #345, #128 ) ;
#204 = PRESENTATION_LAYER_ASSIGNMENT (  '', '', ( #67 ) ) ;
#205 =( NAMED_UNIT ( * ) SI_UNIT ( $, .STERADIAN. ) SOLID_ANGLE_UNIT ( ) );
#206 = COLOUR_RGB ( '',1.000000000000000000, 0.000000000000000000, 0.000000000000000000 ) ;
#207 = DIRECTION ( 'NONE',  ( -0.000000000000000000, -1.000000000000000000, -0.000000000000000000 ) ) ;
#208 = ORIENTED_EDGE ( 'NONE', *, *, #314, .T. ) ;
#209 = ORIENTED_EDGE ( 'NONE', *, *, #145, .T. ) ;
#210 = STYLED_ITEM ( 'NONE', ( #246 ), #69 ) ;
#211 = CIRCLE ( 'NONE', #147, 2.999999999999998668 ) ;
#212 = PRESENTATION_STYLE_ASSIGNMENT (( #12 ) ) ;
#213 = DIRECTION ( 'NONE',  ( 0.000000000000000000, 0.000000000000000000, 1.000000000000000000 ) ) ;
#214 = CARTESIAN_POINT ( 'NONE',  ( 3.673940397442059868E-16, 9.000000000000000000, 3.000000000000000000 ) ) ;
#215 = FACE_OUTER_BOUND ( 'NONE', #54, .T. ) ;
#216 = AXIS2_PLACEMENT_3D ( 'NONE', #165, #21, #105 ) ;
#217 = AXIS2_PLACEMENT_3D ( 'NONE', #150, #367, #202 ) ;
#218 = PRESENTATION_STYLE_ASSIGNMENT (( #292 ) ) ;
#219 = CIRCLE ( 'NONE', #62, 2.999999999999992450 ) ;
#220 = SURFACE_STYLE_FILL_AREA ( #77 ) ;
#221 =( NAMED_UNIT ( * ) PLANE_ANGLE_UNIT ( ) SI_UNIT ( $, .RADIAN. ) );
#222 = DIRECTION ( 'NONE',  ( -0.000000000000000000, -1.000000000000000000, -0.000000000000000000 ) ) ;
#223 = CARTESIAN_POINT ( 'NONE',  ( 0.000000000000000000, 0.000000000000000000, -2.500000000000000000 ) ) ;
#224 = CARTESIAN_POINT ( 'NONE',  ( 0.000000000000000000, 0.000000000000000000, 0.000000000000000000 ) ) ;
#225 = ORIENTED_EDGE ( 'NONE', *, *, #294, .F. ) ;
#226 = MANIFOLD_SOLID_BREP ( 'Revolve - Tool Body (Straight Shanked)', #287 ) ;
#227 = MECHANICAL_DESIGN_GEOMETRIC_PRESENTATION_REPRESENTATION (  '', ( #152 ), #149 ) ;
#228 =( NAMED_UNIT ( * ) PLANE_ANGLE_UNIT ( ) SI_UNIT ( $, .RADIAN. ) );
#229 =( GEOMETRIC_REPRESENTATION_CONTEXT ( 3 ) GLOBAL_UNCERTAINTY_ASSIGNED_CONTEXT ( ( #92 ) ) GLOBAL_UNIT_ASSIGNED_CONTEXT ( ( #267, #221, #189 ) ) REPRESENTATION_CONTEXT ( 'NONE', 'WORKASPACE' ) );
#230 = APPLICATION_CONTEXT ( 'automotive_design' ) ;
#231 = UNCERTAINTY_MEASURE_WITH_UNIT (LENGTH_MEASURE( 1.000000000000000082E-05 ), #270, 'distance_accuracy_value', 'NONE');
#232 = SURFACE_STYLE_FILL_AREA ( #264 ) ;
#233 = DIRECTION ( 'NONE',  ( 0.000000000000000000, 0.000000000000000000, -1.000000000000000000 ) ) ;
#234 = AXIS2_PLACEMENT_3D ( 'NONE', #40, #316, #161 ) ;
#235 = ORIENTED_EDGE ( 'NONE', *, *, #354, .T. ) ;
#236 = MECHANICAL_DESIGN_GEOMETRIC_PRESENTATION_REPRESENTATION (  '', ( #31 ), #229 ) ;
#237 = EDGE_LOOP ( 'NONE', ( #162, #72, #265, #325 ) ) ;
#238 =( LENGTH_UNIT ( ) NAMED_UNIT ( * ) SI_UNIT ( .MILLI., .METRE. ) );
#239 = ORIENTED_EDGE ( 'NONE', *, *, #61, .F. ) ;
#240 = EDGE_CURVE ( 'NONE', #320, #177, #89, .T. ) ;
#241 = PRODUCT_DEFINITION_FORMATION_WITH_SPECIFIED_SOURCE ( 'ANY', '', #315, .NOT_KNOWN. ) ;
#242 = EDGE_LOOP ( 'NONE', ( #179, #208, #118, #308 ) ) ;
#243 = ORIENTED_EDGE ( 'NONE', *, *, #104, .F. ) ;
#244 = CARTESIAN_POINT ( 'NONE',  ( 0.000000000000000000, 9.000000000000000000, 0.000000000000000000 ) ) ;
#245 = CARTESIAN_POINT ( 'NONE',  ( 1.469576158976823750E-15, 63.00000000000000000, 0.000000000000000000 ) ) ;
#246 = PRESENTATION_STYLE_ASSIGNMENT (( #136 ) ) ;
#247 = DIRECTION ( 'NONE',  ( 1.000000000000000000, 1.213614799521464586E-16, 0.000000000000000000 ) ) ;
#248 = PRESENTATION_LAYER_ASSIGNMENT (  '', '', ( #37 ) ) ;
#249 = SURFACE_STYLE_FILL_AREA ( #311 ) ;
#250 = ORIENTED_EDGE ( 'NONE', *, *, #253, .T. ) ;
#251 =( NAMED_UNIT ( * ) PLANE_ANGLE_UNIT ( ) SI_UNIT ( $, .RADIAN. ) );
#252 = APPLICATION_PROTOCOL_DEFINITION ( 'draft international standard', 'automotive_design', 1998, #230 ) ;
#253 = EDGE_CURVE ( 'NONE', #157, #357, #88, .T. ) ;
#254 = ORIENTED_EDGE ( 'NONE', *, *, #22, .T. ) ;
#255 = VERTEX_POINT ( 'NONE', #114 ) ;
#256 = CARTESIAN_POINT ( 'NONE',  ( 0.000000000000000000, 9.000000000000000000, 0.000000000000000000 ) ) ;
#257 = MECHANICAL_DESIGN_GEOMETRIC_PRESENTATION_REPRESENTATION (  '', ( #210 ), #183 ) ;
#258 = COLOUR_RGB ( '',1.000000000000000000, 0.000000000000000000, 0.000000000000000000 ) ;
#259 = UNCERTAINTY_MEASURE_WITH_UNIT (LENGTH_MEASURE( 1.000000000000000082E-05 ), #115, 'distance_accuracy_value', 'NONE');
#260 = FILL_AREA_STYLE ('',( #352 ) ) ;
#261 = EDGE_CURVE ( 'NONE', #357, #290, #359, .T. ) ;
#262 =( NAMED_UNIT ( * ) PLANE_ANGLE_UNIT ( ) SI_UNIT ( $, .RADIAN. ) );
#263 = MECHANICAL_DESIGN_GEOMETRIC_PRESENTATION_REPRESENTATION (  '', ( #67 ), #184 ) ;
#264 = FILL_AREA_STYLE ('',( #158 ) ) ;
#265 = ORIENTED_EDGE ( 'NONE', *, *, #93, .F. ) ;
#266 = ADVANCED_BREP_SHAPE_REPRESENTATION ( '59692', ( #173, #226, #28 ), #154 ) ;
#267 =( LENGTH_UNIT ( ) NAMED_UNIT ( * ) SI_UNIT ( .MILLI., .METRE. ) );
#268 = SURFACE_STYLE_FILL_AREA ( #43 ) ;
#269 = FILL_AREA_STYLE_COLOUR ( '', #258 ) ;
#270 =( LENGTH_UNIT ( ) NAMED_UNIT ( * ) SI_UNIT ( .MILLI., .METRE. ) );
#271 = CARTESIAN_POINT ( 'NONE',  ( 8.023096076392732812E-15, 9.000000000000001776, 0.000000000000000000 ) ) ;
#272 = SURFACE_STYLE_USAGE ( .BOTH. , #156 ) ;
#273 = PRESENTATION_STYLE_ASSIGNMENT (( #169 ) ) ;
#274 = EDGE_LOOP ( 'NONE', ( #250, #144, #239, #275 ) ) ;
#275 = ORIENTED_EDGE ( 'NONE', *, *, #76, .F. ) ;
#276 = DIRECTION ( 'NONE',  ( 1.000000000000000000, 0.000000000000000000, -1.224646799147353207E-16 ) ) ;
#277 = EDGE_LOOP ( 'NONE', ( #97, #209, #254, #225 ) ) ;
#278 = CIRCLE ( 'NONE', #203, 2.500000000000000000 ) ;
#279 = COLOUR_RGB ( '',1.000000000000000000, 0.000000000000000000, 0.000000000000000000 ) ;
#280 = PRODUCT_DEFINITION_CONTEXT ( 'detailed design', #1, 'design' ) ;
#281 = TOROIDAL_SURFACE ( 'NONE', #362, 2.500000000000000000, 0.5000000000000000000 ) ;
#282 = ORIENTED_EDGE ( 'NONE', *, *, #87, .F. ) ;
#283 = FACE_OUTER_BOUND ( 'NONE', #274, .T. ) ;
#284 = CARTESIAN_POINT ( 'NONE',  ( -2.999999999999994227, 63.00000000000000000, 0.000000000000000000 ) ) ;
#285 = ADVANCED_FACE ( 'NONE', ( #215 ), #143, .T. ) ;
#286 = CARTESIAN_POINT ( 'NONE',  ( 0.000000000000000000, 0.5000000000000000000, 0.000000000000000000 ) ) ;
#287 = CLOSED_SHELL ( 'NONE', ( #172, #199, #15, #126 ) ) ;
#288 =( GEOMETRIC_REPRESENTATION_CONTEXT ( 3 ) GLOBAL_UNCERTAINTY_ASSIGNED_CONTEXT ( ( #148 ) ) GLOBAL_UNIT_ASSIGNED_CONTEXT ( ( #335, #228, #121 ) ) REPRESENTATION_CONTEXT ( 'NONE', 'WORKASPACE' ) );
#289 = AXIS2_PLACEMENT_3D ( 'NONE', #171, #276, #151 ) ;
#290 = VERTEX_POINT ( 'NONE', #29 ) ;
#291 = CARTESIAN_POINT ( 'NONE',  ( 8.023096076392732812E-15, 9.000000000000001776, 0.000000000000000000 ) ) ;
#292 = SURFACE_STYLE_USAGE ( .BOTH. , #182 ) ;
#293 =( GEOMETRIC_REPRESENTATION_CONTEXT ( 3 ) GLOBAL_UNCERTAINTY_ASSIGNED_CONTEXT ( ( #11 ) ) GLOBAL_UNIT_ASSIGNED_CONTEXT ( ( #47, #353, #195 ) ) REPRESENTATION_CONTEXT ( 'NONE', 'WORKASPACE' ) );
#294 = EDGE_CURVE ( 'NONE', #321, #7, #139, .T. ) ;
#295 = PRESENTATION_LAYER_ASSIGNMENT (  '', '', ( #31 ) ) ;
#296 = CARTESIAN_POINT ( 'NONE',  ( -2.999999999999984457, 9.000000000000001776, 0.000000000000000000 ) ) ;
#297 = DIRECTION ( 'NONE',  ( -0.000000000000000000, -1.000000000000000000, -0.000000000000000000 ) ) ;
#298 = CARTESIAN_POINT ( 'NONE',  ( 0.000000000000000000, 0.000000000000000000, 0.000000000000000000 ) ) ;
#299 = ORIENTED_EDGE ( 'NONE', *, *, #104, .T. ) ;
#300 = FACE_OUTER_BOUND ( 'NONE', #355, .T. ) ;
#301 = SURFACE_SIDE_STYLE ('',( #85 ) ) ;
#302 = EDGE_LOOP ( 'NONE', ( #38, #108 ) ) ;
#303 = VECTOR ( 'NONE', #51, 1000.000000000000000 ) ;
#304 = FILL_AREA_STYLE_COLOUR ( '', #319 ) ;
#305 = DIRECTION ( 'NONE',  ( -1.213614799521464586E-16, 1.000000000000000000, -0.000000000000000000 ) ) ;
#306 = FILL_AREA_STYLE ('',( #113 ) ) ;
#307 = FACE_OUTER_BOUND ( 'NONE', #336, .T. ) ;
#308 = ORIENTED_EDGE ( 'NONE', *, *, #98, .F. ) ;
#309 = ADVANCED_FACE ( 'NONE', ( #307 ), #322, .T. ) ;
#310 = CARTESIAN_POINT ( 'NONE',  ( 0.000000000000000000, 0.000000000000000000, 0.000000000000000000 ) ) ;
#311 = FILL_AREA_STYLE ('',( #304 ) ) ;
#312 = MECHANICAL_DESIGN_GEOMETRIC_PRESENTATION_REPRESENTATION (  '', ( #37 ), #288 ) ;
#313 = PRESENTATION_LAYER_ASSIGNMENT (  '', '', ( #152 ) ) ;
#314 = EDGE_CURVE ( 'NONE', #357, #157, #219, .T. ) ;
#315 = PRODUCT ( '59692', '59692', '', ( #55 ) ) ;
#316 = DIRECTION ( 'NONE',  ( -0.000000000000000000, -1.000000000000000000, -0.000000000000000000 ) ) ;
#317 = FACE_OUTER_BOUND ( 'NONE', #277, .T. ) ;
#318 = COLOUR_RGB ( '',1.000000000000000000, 0.000000000000000000, 0.000000000000000000 ) ;
#319 = COLOUR_RGB ( '',0.7921568627450980005, 0.8196078431372548767, 0.9333333333333333481 ) ;
#320 = VERTEX_POINT ( 'NONE', #214 ) ;
#321 = VERTEX_POINT ( 'NONE', #324 ) ;
#322 = CYLINDRICAL_SURFACE ( 'NONE', #33, 3.000000000000000000 ) ;
#323 = DIRECTION ( 'NONE',  ( -1.213614799521464586E-16, 1.000000000000000000, -0.000000000000000000 ) ) ;
#324 = CARTESIAN_POINT ( 'NONE',  ( 3.367778697655221505E-16, 0.000000000000000000, 2.500000000000000000 ) ) ;
#325 = ORIENTED_EDGE ( 'NONE', *, *, #22, .F. ) ;
#326 = TOROIDAL_SURFACE ( 'NONE', #340, 2.500000000000000000, 0.5000000000000000000 ) ;
#327 = CARTESIAN_POINT ( 'NONE',  ( 1.469576158976823750E-15, 63.00000000000000000, 0.000000000000000000 ) ) ;
#328 = SURFACE_SIDE_STYLE ('',( #268 ) ) ;
#329 = PRESENTATION_STYLE_ASSIGNMENT (( #110 ) ) ;
#330 = DIRECTION ( 'NONE',  ( 0.000000000000000000, 1.000000000000000000, 0.000000000000000000 ) ) ;
#331 = SURFACE_SIDE_STYLE ('',( #103 ) ) ;
#332 = CARTESIAN_POINT ( 'NONE',  ( 0.000000000000000000, 0.5000000000000000000, 0.000000000000000000 ) ) ;
#333 = CARTESIAN_POINT ( 'NONE',  ( 0.000000000000000000, 0.5000000000000000000, -2.500000000000000000 ) ) ;
#334 = DIRECTION ( 'NONE',  ( 0.000000000000000000, 0.000000000000000000, 1.000000000000000000 ) ) ;
#335 =( LENGTH_UNIT ( ) NAMED_UNIT ( * ) SI_UNIT ( .MILLI., .METRE. ) );
#336 = EDGE_LOOP ( 'NONE', ( #235, #68, #282, #243 ) ) ;
#337 = DIRECTION ( 'NONE',  ( 0.000000000000000000, -1.000000000000000000, -0.000000000000000000 ) ) ;
#338 = DIRECTION ( 'NONE',  ( -0.000000000000000000, -1.000000000000000000, -0.000000000000000000 ) ) ;
#339 = CIRCLE ( 'NONE', #66, 0.5000000000000000000 ) ;
#340 = AXIS2_PLACEMENT_3D ( 'NONE', #286, #123, #233 ) ;
#341 = EDGE_CURVE ( 'NONE', #320, #141, #159, .T. ) ;
#342 = PRODUCT_DEFINITION_SHAPE ( 'NONE', 'NONE',  #41 ) ;
#343 = PLANE ( 'NONE',  #26 ) ;
#344 = ORIENTED_EDGE ( 'NONE', *, *, #93, .T. ) ;
#345 = DIRECTION ( 'NONE',  ( -0.000000000000000000, -1.000000000000000000, -0.000000000000000000 ) ) ;
#346 = VERTEX_POINT ( 'NONE', #63 ) ;
#347 = STYLED_ITEM ( 'NONE', ( #218 ), #35 ) ;
#348 =( NAMED_UNIT ( * ) SI_UNIT ( $, .STERADIAN. ) SOLID_ANGLE_UNIT ( ) );
#349 = SHAPE_DEFINITION_REPRESENTATION ( #342, #266 ) ;
#350 = DIRECTION ( 'NONE',  ( 0.000000000000000000, 0.000000000000000000, -1.000000000000000000 ) ) ;
#351 = FILL_AREA_STYLE ('',( #269 ) ) ;
#352 = FILL_AREA_STYLE_COLOUR ( '', #94 ) ;
#353 =( NAMED_UNIT ( * ) PLANE_ANGLE_UNIT ( ) SI_UNIT ( $, .RADIAN. ) );
#354 = EDGE_CURVE ( 'NONE', #141, #320, #198, .T. ) ;
#355 = EDGE_LOOP ( 'NONE', ( #23, #175 ) ) ;
#356 = SURFACE_SIDE_STYLE ('',( #249 ) ) ;
#357 = VERTEX_POINT ( 'NONE', #24 ) ;
#358 = DIRECTION ( 'NONE',  ( -0.000000000000000000, -1.000000000000000000, -0.000000000000000000 ) ) ;
#359 = LINE ( 'NONE', #14, #60 ) ;
#360 = CARTESIAN_POINT ( 'NONE',  ( 3.673940397442059868E-16, 0.000000000000000000, 3.000000000000000000 ) ) ;
#361 = ORIENTED_EDGE ( 'NONE', *, *, #98, .T. ) ;
#362 = AXIS2_PLACEMENT_3D ( 'NONE', #56, #222, #86 ) ;
#363 = EDGE_CURVE ( 'NONE', #177, #321, #132, .T. ) ;
#364 =( NAMED_UNIT ( * ) SI_UNIT ( $, .STERADIAN. ) SOLID_ANGLE_UNIT ( ) );
#365 = DIRECTION ( 'NONE',  ( 0.000000000000000000, 0.000000000000000000, -1.000000000000000000 ) ) ;
#366 = UNCERTAINTY_MEASURE_WITH_UNIT (LENGTH_MEASURE( 1.000000000000000082E-05 ), #42, 'distance_accuracy_value', 'NONE');
#367 = DIRECTION ( 'NONE',  ( -1.213614799521464586E-16, 1.000000000000000000, 0.000000000000000000 ) ) ;
#368 = UNCERTAINTY_MEASURE_WITH_UNIT (LENGTH_MEASURE( 1.000000000000000082E-05 ), #20, 'distance_accuracy_value', 'NONE');
#369 = CIRCLE ( 'NONE', #216, 2.999999999999998668 ) ;
#370 = AXIS2_PLACEMENT_3D ( 'NONE', #90, #64, #196 ) ;
ENDSEC;
END-ISO-10303-21;
