ISO-10303-21;
HEADER;
FILE_DESCRIPTION (( 'STEP AP214' ),
    '1' );
FILE_NAME ('Micro_SBM-500-4.STEP',
    '2021-09-02T17:02:48',
    ( '' ),
    ( '' ),
    'SwSTEP 2.0',
    'SolidWorks 2020',
    '' );
FILE_SCHEMA (( 'AUTOMOTIVE_DESIGN' ));
ENDSEC;

DATA;
#1 = AXIS2_PLACEMENT_3D ( 'NONE', #188, #89, #323 ) ;
#2 = CARTESIAN_POINT ( 'NONE',  ( 0.1999999999999999278, 0.0000000000000000000, 0.8999999999999999112 ) ) ;
#3 = SURFACE_SIDE_STYLE ('',( #318 ) ) ;
#4 = AXIS2_PLACEMENT_3D ( 'NONE', #342, #223, #314 ) ;
#5 = ADVANCED_FACE ( 'NONE', ( #15 ), #203, .T. ) ;
#6 = AXIS2_PLACEMENT_3D ( 'NONE', #328, #339, #11 ) ;
#7 = PRESENTATION_LAYER_ASSIGNMENT (  '', '', ( #69 ) ) ;
#8 = PRESENTATION_STYLE_ASSIGNMENT (( #144 ) ) ;
#9 = CLOSED_SHELL ( 'NONE', ( #241, #298, #106, #67, #190, #91, #5, #313, #316, #247, #279 ) ) ;
#10 = ORIENTED_EDGE ( 'NONE', *, *, #235, .T. ) ;
#11 = DIRECTION ( 'NONE',  ( -1.000000000000000000, 0.0000000000000000000, 0.0000000000000000000 ) ) ;
#12 = EDGE_CURVE ( 'NONE', #47, #334, #189, .T. ) ;
#13 = FACE_OUTER_BOUND ( 'NONE', #311, .T. ) ;
#14 = DIRECTION ( 'NONE',  ( -0.0000000000000000000, -0.0000000000000000000, -1.000000000000000000 ) ) ;
#15 = FACE_OUTER_BOUND ( 'NONE', #171, .T. ) ;
#16 = VECTOR ( 'NONE', #167, 39.37007874015748854 ) ;
#17 = DIRECTION ( 'NONE',  ( 1.000000000000000000, 0.0000000000000000000, 0.0000000000000000000 ) ) ;
#18 = DIRECTION ( 'NONE',  ( 0.0000000000000000000, 0.0000000000000000000, 1.000000000000000000 ) ) ;
#19 = CIRCLE ( 'NONE', #169, 0.2500000000000000000 ) ;
#20 = FACE_OUTER_BOUND ( 'NONE', #66, .T. ) ;
#21 = DIRECTION ( 'NONE',  ( 1.000000000000000000, 0.0000000000000000000, -0.0000000000000000000 ) ) ;
#22 = UNCERTAINTY_MEASURE_WITH_UNIT (LENGTH_MEASURE( 1.000000000000000082E-05 ), #31, 'distance_accuracy_value', 'NONE');
#23 = AXIS2_PLACEMENT_3D ( 'NONE', #53, #73, #17 ) ;
#24 = DIRECTION ( 'NONE',  ( -1.000000000000000000, 0.0000000000000000000, 0.0000000000000000000 ) ) ;
#25 = EDGE_CURVE ( 'NONE', #220, #221, #255, .T. ) ;
#26 = DIRECTION ( 'NONE',  ( 0.0000000000000000000, 0.0000000000000000000, 1.000000000000000000 ) ) ;
#27 = EDGE_CURVE ( 'NONE', #36, #175, #232, .T. ) ;
#28 = CIRCLE ( 'NONE', #288, 0.1999999999999999278 ) ;
#29 = ADVANCED_BREP_SHAPE_REPRESENTATION ( 'Micro_SBM-500-4', ( #46, #319 ), #131 ) ;
#30 = APPLICATION_CONTEXT ( 'automotive_design' ) ;
#31 =( CONVERSION_BASED_UNIT ( 'INCH', #55 ) LENGTH_UNIT ( ) NAMED_UNIT ( #98 ) );
#32 = DIRECTION ( 'NONE',  ( 1.000000000000000000, 0.0000000000000000000, 0.0000000000000000000 ) ) ;
#33 = DIRECTION ( 'NONE',  ( 0.0000000000000000000, 0.0000000000000000000, -1.000000000000000000 ) ) ;
#34 =( GEOMETRIC_REPRESENTATION_CONTEXT ( 3 ) GLOBAL_UNCERTAINTY_ASSIGNED_CONTEXT ( ( #22 ) ) GLOBAL_UNIT_ASSIGNED_CONTEXT ( ( #31, #113, #290 ) ) REPRESENTATION_CONTEXT ( 'NONE', 'WORKASPACE' ) );
#35 = EDGE_CURVE ( 'NONE', #119, #310, #19, .T. ) ;
#36 = VERTEX_POINT ( 'NONE', #204 ) ;
#37 = CARTESIAN_POINT ( 'NONE',  ( -0.2350000000000006251, 0.0000000000000000000, 4.000000000000000000 ) ) ;
#38 = CARTESIAN_POINT ( 'NONE',  ( 0.0000000000000000000, 0.0000000000000000000, 1.500000000000000222 ) ) ;
#39 = ORIENTED_EDGE ( 'NONE', *, *, #301, .T. ) ;
#40 = LENGTH_MEASURE_WITH_UNIT ( LENGTH_MEASURE( 0.02539999999999999897 ), #96 );
#41 = AXIS2_PLACEMENT_3D ( 'NONE', #237, #165, #60 ) ;
#42 = ORIENTED_EDGE ( 'NONE', *, *, #308, .F. ) ;
#43 = DIRECTION ( 'NONE',  ( 1.000000000000000000, 0.0000000000000000000, 0.0000000000000000000 ) ) ;
#44 = DIRECTION ( 'NONE',  ( -0.0000000000000000000, -0.0000000000000000000, -1.000000000000000000 ) ) ;
#45 = ORIENTED_EDGE ( 'NONE', *, *, #90, .F. ) ;
#46 = MANIFOLD_SOLID_BREP ( 'Cut-Revolve3', #9 ) ;
#47 = VERTEX_POINT ( 'NONE', #56 ) ;
#48 = CARTESIAN_POINT ( 'NONE',  ( -0.1999999999999999278, 0.0000000000000000000, 0.3999999999999999667 ) ) ;
#49 = ORIENTED_EDGE ( 'NONE', *, *, #25, .F. ) ;
#50 = EDGE_CURVE ( 'NONE', #62, #332, #159, .T. ) ;
#51 = CYLINDRICAL_SURFACE ( 'NONE', #205, 0.1999999999999999278 ) ;
#52 = UNCERTAINTY_MEASURE_WITH_UNIT (LENGTH_MEASURE( 1.000000000000000082E-05 ), #340, 'distance_accuracy_value', 'NONE');
#53 = CARTESIAN_POINT ( 'NONE',  ( 0.0000000000000000000, 0.0000000000000000000, 4.000000000000000000 ) ) ;
#54 = COLOUR_RGB ( '',0.7921568627450980005, 0.8196078431372548767, 0.9333333333333333481 ) ;
#55 = LENGTH_MEASURE_WITH_UNIT ( LENGTH_MEASURE( 0.02539999999999999897 ), #233 );
#56 = CARTESIAN_POINT ( 'NONE',  ( 2.449293598294705921E-17, -0.1999999999999999556, 0.3999999999999999667 ) ) ;
#57 = CARTESIAN_POINT ( 'NONE',  ( 0.0000000000000000000, 0.0000000000000000000, 0.0000000000000000000 ) ) ;
#58 = DIRECTION ( 'NONE',  ( -1.000000000000000000, 0.0000000000000000000, 0.0000000000000000000 ) ) ;
#59 = DIRECTION ( 'NONE',  ( 0.0000000000000000000, 1.000000000000000000, 0.0000000000000000000 ) ) ;
#60 = DIRECTION ( 'NONE',  ( -1.000000000000000000, 0.0000000000000000000, 0.0000000000000000000 ) ) ;
#61 = VECTOR ( 'NONE', #325, 39.37007874015748143 ) ;
#62 = VERTEX_POINT ( 'NONE', #209 ) ;
#63 = ORIENTED_EDGE ( 'NONE', *, *, #236, .T. ) ;
#64 = ORIENTED_EDGE ( 'NONE', *, *, #90, .T. ) ;
#65 = SPHERICAL_SURFACE ( 'NONE', #192, 0.2499999999999999722 ) ;
#66 = EDGE_LOOP ( 'NONE', ( #49, #42, #219, #195 ) ) ;
#67 = ADVANCED_FACE ( 'NONE', ( #260 ), #230, .T. ) ;
#68 = DIRECTION ( 'NONE',  ( 0.0000000000000000000, 0.0000000000000000000, 1.000000000000000000 ) ) ;
#69 = STYLED_ITEM ( 'NONE', ( #164 ), #29 ) ;
#70 = CARTESIAN_POINT ( 'NONE',  ( 0.1999999999999999278, 2.449293598294705613E-17, 0.0000000000000000000 ) ) ;
#71 = ORIENTED_EDGE ( 'NONE', *, *, #80, .F. ) ;
#72 = ORIENTED_EDGE ( 'NONE', *, *, #27, .F. ) ;
#73 = DIRECTION ( 'NONE',  ( 0.0000000000000000000, 0.0000000000000000000, 1.000000000000000000 ) ) ;
#74 = EDGE_LOOP ( 'NONE', ( #177, #172 ) ) ;
#75 = PRODUCT ( 'Micro_SBM-500-4', 'Micro_SBM-500-4', '', ( #84 ) ) ;
#76 = VECTOR ( 'NONE', #115, 39.37007874015748143 ) ;
#77 = CARTESIAN_POINT ( 'NONE',  ( 0.0000000000000000000, 0.0000000000000000000, 0.3999999999999999667 ) ) ;
#78 = UNCERTAINTY_MEASURE_WITH_UNIT (LENGTH_MEASURE( 1.000000000000000082E-05 ), #148, 'distance_accuracy_value', 'NONE');
#79 = DIRECTION ( 'NONE',  ( -0.0000000000000000000, -0.0000000000000000000, -1.000000000000000000 ) ) ;
#80 = EDGE_CURVE ( 'NONE', #310, #119, #112, .T. ) ;
#81 = APPLICATION_PROTOCOL_DEFINITION ( 'draft international standard', 'automotive_design', 1998, #179 ) ;
#82 = AXIS2_PLACEMENT_3D ( 'NONE', #305, #44, #128 ) ;
#83 = FACE_OUTER_BOUND ( 'NONE', #306, .T. ) ;
#84 = PRODUCT_CONTEXT ( 'NONE', #30, 'mechanical' ) ;
#85 = FACE_OUTER_BOUND ( 'NONE', #218, .T. ) ;
#86 = DIRECTION ( 'NONE',  ( 0.0000000000000000000, 0.0000000000000000000, 1.000000000000000000 ) ) ;
#87 = AXIS2_PLACEMENT_3D ( 'NONE', #178, #202, #258 ) ;
#88 = AXIS2_PLACEMENT_3D ( 'NONE', #155, #129, #227 ) ;
#89 = DIRECTION ( 'NONE',  ( -0.0000000000000000000, -0.0000000000000000000, -1.000000000000000000 ) ) ;
#90 = EDGE_CURVE ( 'NONE', #62, #100, #141, .T. ) ;
#91 = ADVANCED_FACE ( 'NONE', ( #345 ), #111, .T. ) ;
#92 = ORIENTED_EDGE ( 'NONE', *, *, #118, .F. ) ;
#93 = AXIS2_PLACEMENT_3D ( 'NONE', #108, #257, #226 ) ;
#94 = ORIENTED_EDGE ( 'NONE', *, *, #301, .F. ) ;
#95 = ORIENTED_EDGE ( 'NONE', *, *, #252, .T. ) ;
#96 =( LENGTH_UNIT ( ) NAMED_UNIT ( * ) SI_UNIT ( $, .METRE. ) );
#97 = COLOUR_RGB ( '',0.7921568627450980005, 0.8196078431372548767, 0.9333333333333333481 ) ;
#98 = DIMENSIONAL_EXPONENTS ( 1.000000000000000000, 0.0000000000000000000, 0.0000000000000000000, 0.0000000000000000000, 0.0000000000000000000, 0.0000000000000000000, 0.0000000000000000000 ) ;
#99 = ORIENTED_EDGE ( 'NONE', *, *, #35, .F. ) ;
#100 = VERTEX_POINT ( 'NONE', #2 ) ;
#101 = DIRECTION ( 'NONE',  ( 0.0000000000000000000, 0.0000000000000000000, 1.000000000000000000 ) ) ;
#102 = ORIENTED_EDGE ( 'NONE', *, *, #50, .F. ) ;
#103 = DIRECTION ( 'NONE',  ( 0.0000000000000000000, 0.0000000000000000000, 1.000000000000000000 ) ) ;
#104 = DIMENSIONAL_EXPONENTS ( 1.000000000000000000, 0.0000000000000000000, 0.0000000000000000000, 0.0000000000000000000, 0.0000000000000000000, 0.0000000000000000000, 0.0000000000000000000 ) ;
#105 = CYLINDRICAL_SURFACE ( 'NONE', #224, 0.2500000000000000000 ) ;
#106 = ADVANCED_FACE ( 'NONE', ( #83 ), #161, .T. ) ;
#107 = CARTESIAN_POINT ( 'NONE',  ( -0.2500000000000000000, 3.061616997868383018E-17, 1.500000000000000222 ) ) ;
#108 = CARTESIAN_POINT ( 'NONE',  ( 0.0000000000000000000, 0.0000000000000000000, 4.000000000000000000 ) ) ;
#109 = AXIS2_PLACEMENT_3D ( 'NONE', #243, #68, #217 ) ;
#110 = FACE_OUTER_BOUND ( 'NONE', #330, .T. ) ;
#111 = SPHERICAL_SURFACE ( 'NONE', #343, 0.2499999999999999722 ) ;
#112 = CIRCLE ( 'NONE', #208, 0.2500000000000000000 ) ;
#113 =( NAMED_UNIT ( * ) PLANE_ANGLE_UNIT ( ) SI_UNIT ( $, .RADIAN. ) );
#114 = PRODUCT_DEFINITION_FORMATION_WITH_SPECIFIED_SOURCE ( 'ANY', '', #75, .NOT_KNOWN. ) ;
#115 = DIRECTION ( 'NONE',  ( -0.0000000000000000000, -0.0000000000000000000, -1.000000000000000000 ) ) ;
#116 = CARTESIAN_POINT ( 'NONE',  ( -0.2350000000000006251, 0.0000000000000000000, 4.000000000000000000 ) ) ;
#117 = CIRCLE ( 'NONE', #87, 0.2500000000000000000 ) ;
#118 = EDGE_CURVE ( 'NONE', #220, #174, #166, .T. ) ;
#119 = VERTEX_POINT ( 'NONE', #265 ) ;
#120 = CIRCLE ( 'NONE', #259, 0.1999999999999999278 ) ;
#121 = CARTESIAN_POINT ( 'NONE',  ( 0.0000000000000000000, 0.0000000000000000000, 4.000000000000000000 ) ) ;
#122 = ORIENTED_EDGE ( 'NONE', *, *, #198, .T. ) ;
#123 = PRODUCT_DEFINITION_SHAPE ( 'NONE', 'NONE',  #231 ) ;
#124 = EDGE_CURVE ( 'NONE', #100, #119, #143, .T. ) ;
#125 = LINE ( 'NONE', #70, #254 ) ;
#126 = ORIENTED_EDGE ( 'NONE', *, *, #198, .F. ) ;
#127 = DIRECTION ( 'NONE',  ( 0.7071067811865394681, 8.659560562354834251E-17, -0.7071067811865555663 ) ) ;
#128 = DIRECTION ( 'NONE',  ( -1.000000000000000000, 0.0000000000000000000, 0.0000000000000000000 ) ) ;
#129 = DIRECTION ( 'NONE',  ( -0.0000000000000000000, -0.0000000000000000000, -1.000000000000000000 ) ) ;
#130 = DIRECTION ( 'NONE',  ( 1.000000000000000000, 1.224646799147353207E-16, -0.0000000000000000000 ) ) ;
#131 =( GEOMETRIC_REPRESENTATION_CONTEXT ( 3 ) GLOBAL_UNCERTAINTY_ASSIGNED_CONTEXT ( ( #52 ) ) GLOBAL_UNIT_ASSIGNED_CONTEXT ( ( #340, #150, #250 ) ) REPRESENTATION_CONTEXT ( 'NONE', 'WORKASPACE' ) );
#132 = FILL_AREA_STYLE_COLOUR ( '', #97 ) ;
#133 = FACE_OUTER_BOUND ( 'NONE', #276, .T. ) ;
#134 = LINE ( 'NONE', #280, #147 ) ;
#135 = STYLED_ITEM ( 'NONE', ( #8 ), #46 ) ;
#136 = DIRECTION ( 'NONE',  ( -1.000000000000000000, 0.0000000000000000000, 0.0000000000000000000 ) ) ;
#137 =( NAMED_UNIT ( * ) SI_UNIT ( $, .STERADIAN. ) SOLID_ANGLE_UNIT ( ) );
#138 = AXIS2_PLACEMENT_3D ( 'NONE', #186, #86, #213 ) ;
#139 = LINE ( 'NONE', #116, #61 ) ;
#140 = SURFACE_STYLE_USAGE ( .BOTH. , #3 ) ;
#141 = CIRCLE ( 'NONE', #1, 0.1999999999999999278 ) ;
#142 = ORIENTED_EDGE ( 'NONE', *, *, #124, .T. ) ;
#143 = LINE ( 'NONE', #271, #238 ) ;
#144 = SURFACE_STYLE_USAGE ( .BOTH. , #269 ) ;
#145 = EDGE_LOOP ( 'NONE', ( #168, #216, #242, #10 ) ) ;
#146 = EDGE_CURVE ( 'NONE', #62, #310, #261, .T. ) ;
#147 = VECTOR ( 'NONE', #14, 39.37007874015748143 ) ;
#148 =( CONVERSION_BASED_UNIT ( 'INCH', #40 ) LENGTH_UNIT ( ) NAMED_UNIT ( #104 ) );
#149 = CARTESIAN_POINT ( 'NONE',  ( 0.2350000000000006251, 2.969768487932335429E-17, 4.000000000000000000 ) ) ;
#150 =( NAMED_UNIT ( * ) PLANE_ANGLE_UNIT ( ) SI_UNIT ( $, .RADIAN. ) );
#151 = ORIENTED_EDGE ( 'NONE', *, *, #183, .F. ) ;
#152 = CARTESIAN_POINT ( 'NONE',  ( -0.2500000000000000000, 0.0000000000000000000, 3.985000000000000320 ) ) ;
#153 = ORIENTED_EDGE ( 'NONE', *, *, #235, .F. ) ;
#154 = CIRCLE ( 'NONE', #245, 0.2500000000000000000 ) ;
#155 = CARTESIAN_POINT ( 'NONE',  ( 0.0000000000000000000, 0.0000000000000000000, 0.3999999999999999667 ) ) ;
#156 = DIRECTION ( 'NONE',  ( -0.0000000000000000000, -0.0000000000000000000, -1.000000000000000000 ) ) ;
#157 = CARTESIAN_POINT ( 'NONE',  ( 0.0000000000000000000, 1.530808498934191201E-17, 3.414809992080329023E-17 ) ) ;
#158 =( GEOMETRIC_REPRESENTATION_CONTEXT ( 3 ) GLOBAL_UNCERTAINTY_ASSIGNED_CONTEXT ( ( #78 ) ) GLOBAL_UNIT_ASSIGNED_CONTEXT ( ( #148, #215, #137 ) ) REPRESENTATION_CONTEXT ( 'NONE', 'WORKASPACE' ) );
#159 = LINE ( 'NONE', #212, #76 ) ;
#160 = DIRECTION ( 'NONE',  ( 1.000000000000000000, 0.0000000000000000000, 0.0000000000000000000 ) ) ;
#161 = CYLINDRICAL_SURFACE ( 'NONE', #263, 0.1999999999999999278 ) ;
#162 = DIRECTION ( 'NONE',  ( 0.0000000000000000000, 0.0000000000000000000, 1.000000000000000000 ) ) ;
#163 = VECTOR ( 'NONE', #338, 39.37007874015748143 ) ;
#164 = PRESENTATION_STYLE_ASSIGNMENT (( #140 ) ) ;
#165 = DIRECTION ( 'NONE',  ( 0.0000000000000000000, 0.0000000000000000000, -1.000000000000000000 ) ) ;
#166 = CIRCLE ( 'NONE', #315, 0.2350000000000006251 ) ;
#167 = DIRECTION ( 'NONE',  ( -0.08304547985374009789, 1.017013810865388104E-17, 0.9965457582448795648 ) ) ;
#168 = ORIENTED_EDGE ( 'NONE', *, *, #12, .F. ) ;
#169 = AXIS2_PLACEMENT_3D ( 'NONE', #38, #103, #43 ) ;
#170 = ORIENTED_EDGE ( 'NONE', *, *, #333, .F. ) ;
#171 = EDGE_LOOP ( 'NONE', ( #273, #126, #142, #71 ) ) ;
#172 = ORIENTED_EDGE ( 'NONE', *, *, #118, .T. ) ;
#173 = ORIENTED_EDGE ( 'NONE', *, *, #266, .F. ) ;
#174 = VERTEX_POINT ( 'NONE', #37 ) ;
#175 = VERTEX_POINT ( 'NONE', #194 ) ;
#176 = LINE ( 'NONE', #206, #163 ) ;
#177 = ORIENTED_EDGE ( 'NONE', *, *, #308, .T. ) ;
#178 = CARTESIAN_POINT ( 'NONE',  ( 0.0000000000000000000, 0.0000000000000000000, 3.985000000000000320 ) ) ;
#179 = APPLICATION_CONTEXT ( 'automotive_design' ) ;
#180 = AXIS2_PLACEMENT_3D ( 'NONE', #121, #18, #21 ) ;
#181 = VECTOR ( 'NONE', #127, 39.37007874015748143 ) ;
#182 = DIRECTION ( 'NONE',  ( -1.000000000000000000, 0.0000000000000000000, 0.0000000000000000000 ) ) ;
#183 = EDGE_CURVE ( 'NONE', #100, #175, #125, .T. ) ;
#184 = MECHANICAL_DESIGN_GEOMETRIC_PRESENTATION_REPRESENTATION (  '', ( #69 ), #34 ) ;
#185 = CARTESIAN_POINT ( 'NONE',  ( 0.0000000000000000000, 0.0000000000000000000, 0.0000000000000000000 ) ) ;
#186 = CARTESIAN_POINT ( 'NONE',  ( 0.0000000000000000000, 0.0000000000000000000, 1.799999999999997158 ) ) ;
#187 = CARTESIAN_POINT ( 'NONE',  ( 0.0000000000000000000, 0.0000000000000000000, 1.500000000000000222 ) ) ;
#188 = CARTESIAN_POINT ( 'NONE',  ( 0.0000000000000000000, 0.0000000000000000000, 0.8999999999999999112 ) ) ;
#189 = CIRCLE ( 'NONE', #322, 0.2499999999999999722 ) ;
#190 = ADVANCED_FACE ( 'NONE', ( #13 ), #65, .T. ) ;
#191 = ORIENTED_EDGE ( 'NONE', *, *, #320, .F. ) ;
#192 = AXIS2_PLACEMENT_3D ( 'NONE', #331, #275, #197 ) ;
#193 = FILL_AREA_STYLE ('',( #132 ) ) ;
#194 = CARTESIAN_POINT ( 'NONE',  ( 0.1999999999999999278, 2.449293598294705613E-17, 0.3999999999999999667 ) ) ;
#195 = ORIENTED_EDGE ( 'NONE', *, *, #236, .F. ) ;
#196 = ORIENTED_EDGE ( 'NONE', *, *, #25, .T. ) ;
#197 = DIRECTION ( 'NONE',  ( 0.0000000000000000000, 1.000000000000000000, 0.0000000000000000000 ) ) ;
#198 = EDGE_CURVE ( 'NONE', #100, #62, #299, .T. ) ;
#199 = MECHANICAL_DESIGN_GEOMETRIC_PRESENTATION_REPRESENTATION (  '', ( #135 ), #158 ) ;
#200 = ORIENTED_EDGE ( 'NONE', *, *, #146, .T. ) ;
#201 = ORIENTED_EDGE ( 'NONE', *, *, #12, .T. ) ;
#202 = DIRECTION ( 'NONE',  ( 0.0000000000000000000, 0.0000000000000000000, -1.000000000000000000 ) ) ;
#203 = CONICAL_SURFACE ( 'NONE', #109, 0.2749999999999998002, 0.08314123188844135814 ) ;
#204 = CARTESIAN_POINT ( 'NONE',  ( 0.0000000000000000000, 0.1999999999999999556, 0.3999999999999999667 ) ) ;
#205 = AXIS2_PLACEMENT_3D ( 'NONE', #317, #79, #24 ) ;
#206 = CARTESIAN_POINT ( 'NONE',  ( 0.2500000000000000000, 3.061616997868383018E-17, 4.000000000000000000 ) ) ;
#207 = DIRECTION ( 'NONE',  ( 0.0000000000000000000, 0.0000000000000000000, 1.000000000000000000 ) ) ;
#208 = AXIS2_PLACEMENT_3D ( 'NONE', #187, #26, #234 ) ;
#209 = CARTESIAN_POINT ( 'NONE',  ( -0.1999999999999999278, 2.755455298081544161E-17, 0.8999999999999999112 ) ) ;
#210 = CARTESIAN_POINT ( 'NONE',  ( -0.2749999999999998002, 3.367778697655218793E-17, 1.799999999999997158 ) ) ;
#211 = CARTESIAN_POINT ( 'NONE',  ( 0.0000000000000000000, 0.0000000000000000000, 4.000000000000000000 ) ) ;
#212 = CARTESIAN_POINT ( 'NONE',  ( -0.1999999999999999278, 0.0000000000000000000, 0.0000000000000000000 ) ) ;
#213 = DIRECTION ( 'NONE',  ( 1.000000000000000000, 0.0000000000000000000, 0.0000000000000000000 ) ) ;
#214 = AXIS2_PLACEMENT_3D ( 'NONE', #222, #335, #101 ) ;
#215 =( NAMED_UNIT ( * ) PLANE_ANGLE_UNIT ( ) SI_UNIT ( $, .RADIAN. ) );
#216 = ORIENTED_EDGE ( 'NONE', *, *, #266, .T. ) ;
#217 = DIRECTION ( 'NONE',  ( 1.000000000000000000, 0.0000000000000000000, 0.0000000000000000000 ) ) ;
#218 = EDGE_LOOP ( 'NONE', ( #92, #196, #170, #326 ) ) ;
#219 = ORIENTED_EDGE ( 'NONE', *, *, #239, .T. ) ;
#220 = VERTEX_POINT ( 'NONE', #149 ) ;
#221 = VERTEX_POINT ( 'NONE', #249 ) ;
#222 = CARTESIAN_POINT ( 'NONE',  ( 0.0000000000000000000, 0.0000000000000000000, 0.2500000000000000000 ) ) ;
#223 = DIRECTION ( 'NONE',  ( -0.0000000000000000000, -0.0000000000000000000, -1.000000000000000000 ) ) ;
#224 = AXIS2_PLACEMENT_3D ( 'NONE', #312, #156, #341 ) ;
#225 = DIRECTION ( 'NONE',  ( -1.224646799147353207E-16, 1.000000000000000000, 0.0000000000000000000 ) ) ;
#226 = DIRECTION ( 'NONE',  ( -1.000000000000000000, 0.0000000000000000000, 0.0000000000000000000 ) ) ;
#227 = DIRECTION ( 'NONE',  ( -1.000000000000000000, 0.0000000000000000000, 0.0000000000000000000 ) ) ;
#228 = CYLINDRICAL_SURFACE ( 'NONE', #4, 0.2500000000000000000 ) ;
#229 = PRODUCT_DEFINITION_CONTEXT ( 'detailed design', #179, 'design' ) ;
#230 = CONICAL_SURFACE ( 'NONE', #138, 0.2749999999999998002, 0.08314123188844135814 ) ;
#231 = PRODUCT_DEFINITION ( 'UNKNOWN', '', #114, #229 ) ;
#232 = CIRCLE ( 'NONE', #6, 0.1999999999999999278 ) ;
#233 =( LENGTH_UNIT ( ) NAMED_UNIT ( * ) SI_UNIT ( $, .METRE. ) );
#234 = DIRECTION ( 'NONE',  ( 1.000000000000000000, 0.0000000000000000000, 0.0000000000000000000 ) ) ;
#235 = EDGE_CURVE ( 'NONE', #36, #334, #294, .T. ) ;
#236 = EDGE_CURVE ( 'NONE', #221, #327, #154, .T. ) ;
#237 = CARTESIAN_POINT ( 'NONE',  ( 0.0000000000000000000, 0.0000000000000000000, 4.000000000000000000 ) ) ;
#238 = VECTOR ( 'NONE', #291, 39.37007874015748854 ) ;
#239 = EDGE_CURVE ( 'NONE', #174, #327, #139, .T. ) ;
#240 = ORIENTED_EDGE ( 'NONE', *, *, #183, .T. ) ;
#241 = ADVANCED_FACE ( 'NONE', ( #85 ), #272, .T. ) ;
#242 = ORIENTED_EDGE ( 'NONE', *, *, #320, .T. ) ;
#243 = CARTESIAN_POINT ( 'NONE',  ( 0.0000000000000000000, 0.0000000000000000000, 1.799999999999997158 ) ) ;
#244 = ORIENTED_EDGE ( 'NONE', *, *, #252, .F. ) ;
#245 = AXIS2_PLACEMENT_3D ( 'NONE', #284, #33, #297 ) ;
#246 = SURFACE_STYLE_FILL_AREA ( #193 ) ;
#247 = ADVANCED_FACE ( 'NONE', ( #268 ), #293, .T. ) ;
#248 = CARTESIAN_POINT ( 'NONE',  ( 0.0000000000000000000, 0.0000000000000000000, 0.2500000000000000000 ) ) ;
#249 = CARTESIAN_POINT ( 'NONE',  ( 0.2500000000000000000, 3.061616997868383018E-17, 3.985000000000000320 ) ) ;
#250 =( NAMED_UNIT ( * ) SI_UNIT ( $, .STERADIAN. ) SOLID_ANGLE_UNIT ( ) );
#251 = ORIENTED_EDGE ( 'NONE', *, *, #80, .T. ) ;
#252 = EDGE_CURVE ( 'NONE', #327, #310, #134, .T. ) ;
#253 = DIRECTION ( 'NONE',  ( -0.0000000000000000000, -0.0000000000000000000, -1.000000000000000000 ) ) ;
#254 = VECTOR ( 'NONE', #302, 39.37007874015748143 ) ;
#255 = LINE ( 'NONE', #270, #181 ) ;
#256 = LENGTH_MEASURE_WITH_UNIT ( LENGTH_MEASURE( 0.02539999999999999897 ), #344 );
#257 = DIRECTION ( 'NONE',  ( 0.0000000000000000000, 0.0000000000000000000, -1.000000000000000000 ) ) ;
#258 = DIRECTION ( 'NONE',  ( 1.000000000000000000, 0.0000000000000000000, 0.0000000000000000000 ) ) ;
#259 = AXIS2_PLACEMENT_3D ( 'NONE', #77, #253, #182 ) ;
#260 = FACE_OUTER_BOUND ( 'NONE', #300, .T. ) ;
#261 = LINE ( 'NONE', #210, #16 ) ;
#262 = FILL_AREA_STYLE_COLOUR ( '', #54 ) ;
#263 = AXIS2_PLACEMENT_3D ( 'NONE', #185, #292, #58 ) ;
#264 = FILL_AREA_STYLE ('',( #262 ) ) ;
#265 = CARTESIAN_POINT ( 'NONE',  ( 0.2500000000000000000, 0.0000000000000000000, 1.500000000000000222 ) ) ;
#266 = EDGE_CURVE ( 'NONE', #47, #332, #120, .T. ) ;
#267 = CIRCLE ( 'NONE', #88, 0.1999999999999999278 ) ;
#268 = FACE_OUTER_BOUND ( 'NONE', #74, .T. ) ;
#269 = SURFACE_SIDE_STYLE ('',( #246 ) ) ;
#270 = CARTESIAN_POINT ( 'NONE',  ( 0.2350000000000006251, 2.877919977996287839E-17, 4.000000000000000000 ) ) ;
#271 = CARTESIAN_POINT ( 'NONE',  ( 0.2749999999999998002, 0.0000000000000000000, 1.799999999999997158 ) ) ;
#272 = CONICAL_SURFACE ( 'NONE', #41, 0.2350000000000006251, 0.7853981633974369547 ) ;
#273 = ORIENTED_EDGE ( 'NONE', *, *, #146, .F. ) ;
#274 = ORIENTED_EDGE ( 'NONE', *, *, #35, .T. ) ;
#275 = DIRECTION ( 'NONE',  ( 1.000000000000000000, 0.0000000000000000000, 0.0000000000000000000 ) ) ;
#276 = EDGE_LOOP ( 'NONE', ( #151, #122, #281, #173, #296 ) ) ;
#277 = CARTESIAN_POINT ( 'NONE',  ( 0.0000000000000000000, 0.0000000000000000000, 0.3999999999999999667 ) ) ;
#278 = ORIENTED_EDGE ( 'NONE', *, *, #124, .F. ) ;
#279 = ADVANCED_FACE ( 'NONE', ( #20 ), #336, .T. ) ;
#280 = CARTESIAN_POINT ( 'NONE',  ( -0.2500000000000000000, 0.0000000000000000000, 4.000000000000000000 ) ) ;
#281 = ORIENTED_EDGE ( 'NONE', *, *, #50, .T. ) ;
#282 = APPLICATION_PROTOCOL_DEFINITION ( 'draft international standard', 'automotive_design', 1998, #30 ) ;
#283 = CIRCLE ( 'NONE', #23, 0.2350000000000006251 ) ;
#284 = CARTESIAN_POINT ( 'NONE',  ( 0.0000000000000000000, 0.0000000000000000000, 3.985000000000000320 ) ) ;
#285 = PRODUCT_RELATED_PRODUCT_CATEGORY ( 'part', '', ( #75 ) ) ;
#286 = DIRECTION ( 'NONE',  ( -0.0000000000000000000, -0.0000000000000000000, -1.000000000000000000 ) ) ;
#287 = SHAPE_DEFINITION_REPRESENTATION ( #123, #29 ) ;
#288 = AXIS2_PLACEMENT_3D ( 'NONE', #277, #286, #136 ) ;
#289 = EDGE_CURVE ( 'NONE', #175, #47, #267, .T. ) ;
#290 =( NAMED_UNIT ( * ) SI_UNIT ( $, .STERADIAN. ) SOLID_ANGLE_UNIT ( ) );
#291 = DIRECTION ( 'NONE',  ( 0.08304547985374009789, 0.0000000000000000000, 0.9965457582448795648 ) ) ;
#292 = DIRECTION ( 'NONE',  ( -0.0000000000000000000, -0.0000000000000000000, -1.000000000000000000 ) ) ;
#293 = PLANE ( 'NONE',  #180 ) ;
#294 = CIRCLE ( 'NONE', #214, 0.2500000000000000000 ) ;
#295 = DIRECTION ( 'NONE',  ( 1.000000000000000000, 0.0000000000000000000, 0.0000000000000000000 ) ) ;
#296 = ORIENTED_EDGE ( 'NONE', *, *, #289, .F. ) ;
#297 = DIRECTION ( 'NONE',  ( 1.000000000000000000, 0.0000000000000000000, 0.0000000000000000000 ) ) ;
#298 = ADVANCED_FACE ( 'NONE', ( #307 ), #228, .T. ) ;
#299 = CIRCLE ( 'NONE', #82, 0.1999999999999999278 ) ;
#300 = EDGE_LOOP ( 'NONE', ( #45, #200, #99, #278 ) ) ;
#301 = EDGE_CURVE ( 'NONE', #221, #119, #176, .T. ) ;
#302 = DIRECTION ( 'NONE',  ( -0.0000000000000000000, -0.0000000000000000000, -1.000000000000000000 ) ) ;
#303 = DIMENSIONAL_EXPONENTS ( 1.000000000000000000, 0.0000000000000000000, 0.0000000000000000000, 0.0000000000000000000, 0.0000000000000000000, 0.0000000000000000000, 0.0000000000000000000 ) ;
#304 = ORIENTED_EDGE ( 'NONE', *, *, #27, .T. ) ;
#305 = CARTESIAN_POINT ( 'NONE',  ( 0.0000000000000000000, 0.0000000000000000000, 0.8999999999999999112 ) ) ;
#306 = EDGE_LOOP ( 'NONE', ( #64, #240, #72, #191, #102 ) ) ;
#307 = FACE_OUTER_BOUND ( 'NONE', #337, .T. ) ;
#308 = EDGE_CURVE ( 'NONE', #174, #220, #283, .T. ) ;
#309 = ORIENTED_EDGE ( 'NONE', *, *, #289, .T. ) ;
#310 = VERTEX_POINT ( 'NONE', #107 ) ;
#311 = EDGE_LOOP ( 'NONE', ( #304, #309, #201, #153 ) ) ;
#312 = CARTESIAN_POINT ( 'NONE',  ( 0.0000000000000000000, 0.0000000000000000000, 4.000000000000000000 ) ) ;
#313 = ADVANCED_FACE ( 'NONE', ( #133 ), #51, .T. ) ;
#314 = DIRECTION ( 'NONE',  ( -1.000000000000000000, 0.0000000000000000000, 0.0000000000000000000 ) ) ;
#315 = AXIS2_PLACEMENT_3D ( 'NONE', #211, #162, #295 ) ;
#316 = ADVANCED_FACE ( 'NONE', ( #110 ), #105, .T. ) ;
#317 = CARTESIAN_POINT ( 'NONE',  ( 0.0000000000000000000, 0.0000000000000000000, 0.0000000000000000000 ) ) ;
#318 = SURFACE_STYLE_FILL_AREA ( #264 ) ;
#319 = AXIS2_PLACEMENT_3D ( 'NONE', #57, #207, #160 ) ;
#320 = EDGE_CURVE ( 'NONE', #332, #36, #28, .T. ) ;
#321 = CARTESIAN_POINT ( 'NONE',  ( 0.0000000000000000000, 0.0000000000000000000, 0.2500000000000000000 ) ) ;
#322 = AXIS2_PLACEMENT_3D ( 'NONE', #248, #130, #225 ) ;
#323 = DIRECTION ( 'NONE',  ( -1.000000000000000000, 0.0000000000000000000, 0.0000000000000000000 ) ) ;
#324 = PRESENTATION_LAYER_ASSIGNMENT (  '', '', ( #135 ) ) ;
#325 = DIRECTION ( 'NONE',  ( -0.7071067811865394681, 0.0000000000000000000, -0.7071067811865555663 ) ) ;
#326 = ORIENTED_EDGE ( 'NONE', *, *, #239, .F. ) ;
#327 = VERTEX_POINT ( 'NONE', #152 ) ;
#328 = CARTESIAN_POINT ( 'NONE',  ( 0.0000000000000000000, 0.0000000000000000000, 0.3999999999999999667 ) ) ;
#329 = ORIENTED_EDGE ( 'NONE', *, *, #333, .T. ) ;
#330 = EDGE_LOOP ( 'NONE', ( #94, #63, #95, #251 ) ) ;
#331 = CARTESIAN_POINT ( 'NONE',  ( 0.0000000000000000000, 0.0000000000000000000, 0.2500000000000000000 ) ) ;
#332 = VERTEX_POINT ( 'NONE', #48 ) ;
#333 = EDGE_CURVE ( 'NONE', #327, #221, #117, .T. ) ;
#334 = VERTEX_POINT ( 'NONE', #157 ) ;
#335 = DIRECTION ( 'NONE',  ( -1.000000000000000000, 0.0000000000000000000, 0.0000000000000000000 ) ) ;
#336 = CONICAL_SURFACE ( 'NONE', #93, 0.2350000000000006251, 0.7853981633974369547 ) ;
#337 = EDGE_LOOP ( 'NONE', ( #329, #39, #274, #244 ) ) ;
#338 = DIRECTION ( 'NONE',  ( -0.0000000000000000000, -0.0000000000000000000, -1.000000000000000000 ) ) ;
#339 = DIRECTION ( 'NONE',  ( -0.0000000000000000000, -0.0000000000000000000, -1.000000000000000000 ) ) ;
#340 =( CONVERSION_BASED_UNIT ( 'INCH', #256 ) LENGTH_UNIT ( ) NAMED_UNIT ( #303 ) );
#341 = DIRECTION ( 'NONE',  ( -1.000000000000000000, 0.0000000000000000000, 0.0000000000000000000 ) ) ;
#342 = CARTESIAN_POINT ( 'NONE',  ( 0.0000000000000000000, 0.0000000000000000000, 4.000000000000000000 ) ) ;
#343 = AXIS2_PLACEMENT_3D ( 'NONE', #321, #32, #59 ) ;
#344 =( LENGTH_UNIT ( ) NAMED_UNIT ( * ) SI_UNIT ( $, .METRE. ) );
#345 = FACE_OUTER_BOUND ( 'NONE', #145, .T. ) ;
ENDSEC;
END-ISO-10303-21;
