ISO-10303-21;
HEADER;
FILE_DESCRIPTION (( 'STEP AP214' ),
    '1' );
FILE_NAME ('Micro_BMR-026-2X.STEP',
    '2021-09-03T13:58:56',
    ( '' ),
    ( '' ),
    'SwSTEP 2.0',
    'SolidWorks 2020',
    '' );
FILE_SCHEMA (( 'AUTOMOTIVE_DESIGN' ));
ENDSEC;

DATA;
#1 = DIRECTION ( 'NONE',  ( 1.224646799147353454E-16, 0.0000000000000000000, 1.000000000000000000 ) ) ;
#2 = CARTESIAN_POINT ( 'NONE',  ( 0.0000000000000000000, 0.0000000000000000000, 0.0000000000000000000 ) ) ;
#3 = EDGE_LOOP ( 'NONE', ( #304, #323, #199, #73 ) ) ;
#4 = SURFACE_SIDE_STYLE ('',( #229 ) ) ;
#5 = DIRECTION ( 'NONE',  ( -1.000000000000000000, 0.0000000000000000000, 0.0000000000000000000 ) ) ;
#6 = CONICAL_SURFACE ( 'NONE', #64, 0.01298699999999999855, 0.1745329251994338915 ) ;
#7 = EDGE_LOOP ( 'NONE', ( #251, #110, #51, #160 ) ) ;
#8 =( NAMED_UNIT ( * ) SI_UNIT ( $, .STERADIAN. ) SOLID_ANGLE_UNIT ( ) );
#9 = DIRECTION ( 'NONE',  ( 0.0000000000000000000, 0.0000000000000000000, -1.000000000000000000 ) ) ;
#10 = EDGE_CURVE ( 'NONE', #182, #227, #244, .T. ) ;
#11 = ORIENTED_EDGE ( 'NONE', *, *, #102, .T. ) ;
#12 = DIRECTION ( 'NONE',  ( 1.000000000000000000, 0.0000000000000000000, 0.0000000000000000000 ) ) ;
#13 = DIRECTION ( 'NONE',  ( 0.0000000000000000000, 1.000000000000000000, 0.0000000000000000000 ) ) ;
#14 = CIRCLE ( 'NONE', #148, 0.06250000000000002776 ) ;
#15 = FACE_OUTER_BOUND ( 'NONE', #139, .T. ) ;
#16 =( CONVERSION_BASED_UNIT ( 'INCH', #220 ) LENGTH_UNIT ( ) NAMED_UNIT ( #214 ) );
#17 = EDGE_CURVE ( 'NONE', #308, #275, #232, .T. ) ;
#18 = UNCERTAINTY_MEASURE_WITH_UNIT (LENGTH_MEASURE( 1.000000000000000082E-05 ), #59, 'distance_accuracy_value', 'NONE');
#19 = SURFACE_SIDE_STYLE ('',( #43 ) ) ;
#20 = AXIS2_PLACEMENT_3D ( 'NONE', #100, #138, #76 ) ;
#21 = PRESENTATION_LAYER_ASSIGNMENT (  '', '', ( #159 ) ) ;
#22 = VERTEX_POINT ( 'NONE', #81 ) ;
#23 = EDGE_CURVE ( 'NONE', #175, #182, #42, .T. ) ;
#24 = CARTESIAN_POINT ( 'NONE',  ( 0.01298700000000000722, 0.0000000000000000000, 0.07799999999999999989 ) ) ;
#25 = ORIENTED_EDGE ( 'NONE', *, *, #56, .T. ) ;
#26 = DIRECTION ( 'NONE',  ( 0.0000000000000000000, 0.0000000000000000000, -1.000000000000000000 ) ) ;
#27 = CARTESIAN_POINT ( 'NONE',  ( 1.590448798052667897E-18, 0.0000000000000000000, 0.01298700000000000028 ) ) ;
#28 = CIRCLE ( 'NONE', #129, 0.06250000000000002776 ) ;
#29 = AXIS2_PLACEMENT_3D ( 'NONE', #278, #63, #35 ) ;
#30 = CARTESIAN_POINT ( 'NONE',  ( 0.0000000000000000000, 0.0000000000000000000, 1.500000000000000222 ) ) ;
#31 = VERTEX_POINT ( 'NONE', #123 ) ;
#32 = CARTESIAN_POINT ( 'NONE',  ( -0.06249999999999997918, 0.0000000000000000000, 0.3588021767347302493 ) ) ;
#33 = CARTESIAN_POINT ( 'NONE',  ( 0.04750000000000064587, 6.735557395310483192E-18, 1.500000000000000222 ) ) ;
#34 = ORIENTED_EDGE ( 'NONE', *, *, #267, .F. ) ;
#35 = DIRECTION ( 'NONE',  ( 1.000000000000000000, 0.0000000000000000000, 0.0000000000000000000 ) ) ;
#36 = EDGE_LOOP ( 'NONE', ( #88, #290, #181, #158 ) ) ;
#37 = DIRECTION ( 'NONE',  ( -0.0000000000000000000, -0.0000000000000000000, -1.000000000000000000 ) ) ;
#38 = DIRECTION ( 'NONE',  ( 1.000000000000000000, 0.0000000000000000000, 0.0000000000000000000 ) ) ;
#39 = ORIENTED_EDGE ( 'NONE', *, *, #167, .T. ) ;
#40 = SPHERICAL_SURFACE ( 'NONE', #121, 0.01298700000000000028 ) ;
#41 = ORIENTED_EDGE ( 'NONE', *, *, #126, .T. ) ;
#42 = CIRCLE ( 'NONE', #219, 0.04750000000000064587 ) ;
#43 = SURFACE_STYLE_FILL_AREA ( #268 ) ;
#44 = DIRECTION ( 'NONE',  ( 1.000000000000000000, 0.0000000000000000000, -0.0000000000000000000 ) ) ;
#45 = ADVANCED_FACE ( 'NONE', ( #132 ), #294, .T. ) ;
#46 = SURFACE_STYLE_USAGE ( .BOTH. , #19 ) ;
#47 = SHAPE_DEFINITION_REPRESENTATION ( #215, #127 ) ;
#48 = ADVANCED_FACE ( 'NONE', ( #179 ), #99, .T. ) ;
#49 = DIRECTION ( 'NONE',  ( 1.224646799147353454E-16, 0.0000000000000000000, 1.000000000000000000 ) ) ;
#50 = CIRCLE ( 'NONE', #236, 0.01298700000000000028 ) ;
#51 = ORIENTED_EDGE ( 'NONE', *, *, #17, .T. ) ;
#52 = ORIENTED_EDGE ( 'NONE', *, *, #208, .F. ) ;
#53 = CARTESIAN_POINT ( 'NONE',  ( 1.590448798052667897E-18, 0.0000000000000000000, 0.01298700000000000028 ) ) ;
#54 = LINE ( 'NONE', #286, #91 ) ;
#55 = FACE_OUTER_BOUND ( 'NONE', #211, .T. ) ;
#56 = EDGE_CURVE ( 'NONE', #124, #308, #90, .T. ) ;
#57 = AXIS2_PLACEMENT_3D ( 'NONE', #212, #260, #44 ) ;
#58 = CARTESIAN_POINT ( 'NONE',  ( 0.0000000000000000000, 0.0000000000000000000, 1.500000000000000222 ) ) ;
#59 =( CONVERSION_BASED_UNIT ( 'INCH', #180 ) LENGTH_UNIT ( ) NAMED_UNIT ( #77 ) );
#60 = DIRECTION ( 'NONE',  ( 1.224646799147353207E-16, 1.000000000000000000, -0.0000000000000000000 ) ) ;
#61 = EDGE_CURVE ( 'NONE', #227, #22, #14, .T. ) ;
#62 = EDGE_LOOP ( 'NONE', ( #25, #185, #309, #34 ) ) ;
#63 = DIRECTION ( 'NONE',  ( 0.0000000000000000000, 1.000000000000000000, 0.0000000000000000000 ) ) ;
#64 = AXIS2_PLACEMENT_3D ( 'NONE', #72, #276, #170 ) ;
#65 = ORIENTED_EDGE ( 'NONE', *, *, #142, .T. ) ;
#66 = DIRECTION ( 'NONE',  ( 1.224646799147353454E-16, 0.0000000000000000000, 1.000000000000000000 ) ) ;
#67 = APPLICATION_CONTEXT ( 'automotive_design' ) ;
#68 = ORIENTED_EDGE ( 'NONE', *, *, #23, .T. ) ;
#69 = MECHANICAL_DESIGN_GEOMETRIC_PRESENTATION_REPRESENTATION (  '', ( #299 ), #241 ) ;
#70 = EDGE_CURVE ( 'NONE', #162, #275, #165, .T. ) ;
#71 = AXIS2_PLACEMENT_3D ( 'NONE', #222, #171, #146 ) ;
#72 = CARTESIAN_POINT ( 'NONE',  ( 9.552245033349356976E-18, 0.0000000000000000000, 0.07799999999999999989 ) ) ;
#73 = ORIENTED_EDGE ( 'NONE', *, *, #126, .F. ) ;
#74 = AXIS2_PLACEMENT_3D ( 'NONE', #2, #176, #153 ) ;
#75 = VECTOR ( 'NONE', #186, 39.37007874015748143 ) ;
#76 = DIRECTION ( 'NONE',  ( 1.000000000000000000, 0.0000000000000000000, 0.0000000000000000000 ) ) ;
#77 = DIMENSIONAL_EXPONENTS ( 1.000000000000000000, 0.0000000000000000000, 0.0000000000000000000, 0.0000000000000000000, 0.0000000000000000000, 0.0000000000000000000, 0.0000000000000000000 ) ;
#78 = DIRECTION ( 'NONE',  ( -1.000000000000000000, 0.0000000000000000000, 0.0000000000000000000 ) ) ;
#79 = EDGE_CURVE ( 'NONE', #22, #227, #28, .T. ) ;
#80 = CARTESIAN_POINT ( 'NONE',  ( 0.0000000000000000000, 0.0000000000000000000, 1.500000000000000222 ) ) ;
#81 = CARTESIAN_POINT ( 'NONE',  ( -0.06250000000000002776, 0.0000000000000000000, 1.485000000000000764 ) ) ;
#82 = AXIS2_PLACEMENT_3D ( 'NONE', #194, #322, #252 ) ;
#83 = UNCERTAINTY_MEASURE_WITH_UNIT (LENGTH_MEASURE( 1.000000000000000082E-05 ), #111, 'distance_accuracy_value', 'NONE');
#84 = PRESENTATION_STYLE_ASSIGNMENT (( #203 ) ) ;
#85 = PRODUCT_RELATED_PRODUCT_CATEGORY ( 'part', '', ( #315 ) ) ;
#86 = VERTEX_POINT ( 'NONE', #297 ) ;
#87 =( NAMED_UNIT ( * ) PLANE_ANGLE_UNIT ( ) SI_UNIT ( $, .RADIAN. ) );
#88 = ORIENTED_EDGE ( 'NONE', *, *, #10, .F. ) ;
#89 = LINE ( 'NONE', #213, #75 ) ;
#90 = CIRCLE ( 'NONE', #82, 0.01298699999999999855 ) ;
#91 = VECTOR ( 'NONE', #257, 39.37007874015748143 ) ;
#92 = ORIENTED_EDGE ( 'NONE', *, *, #102, .F. ) ;
#93 = DIRECTION ( 'NONE',  ( 1.000000000000000000, 0.0000000000000000000, 0.0000000000000000000 ) ) ;
#94 = CYLINDRICAL_SURFACE ( 'NONE', #189, 0.01298700000000000028 ) ;
#95 = DIRECTION ( 'NONE',  ( 0.0000000000000000000, 0.0000000000000000000, -1.000000000000000000 ) ) ;
#96 = CARTESIAN_POINT ( 'NONE',  ( -0.04750000000000064587, 0.0000000000000000000, 1.500000000000000222 ) ) ;
#97 = ADVANCED_FACE ( 'NONE', ( #319 ), #6, .T. ) ;
#98 =( NAMED_UNIT ( * ) PLANE_ANGLE_UNIT ( ) SI_UNIT ( $, .RADIAN. ) );
#99 = CYLINDRICAL_SURFACE ( 'NONE', #74, 0.01298700000000000028 ) ;
#100 = CARTESIAN_POINT ( 'NONE',  ( 4.394059372652903669E-17, 0.0000000000000000000, 0.3588021767347302493 ) ) ;
#101 = VECTOR ( 'NONE', #320, 39.37007874015748143 ) ;
#102 = EDGE_CURVE ( 'NONE', #86, #224, #204, .T. ) ;
#103 = CARTESIAN_POINT ( 'NONE',  ( 0.0000000000000000000, 0.0000000000000000000, 1.485000000000000764 ) ) ;
#104 = DIRECTION ( 'NONE',  ( -0.1736481776669311916, 2.126576849575783316E-17, 0.9848077530122080203 ) ) ;
#105 = DIRECTION ( 'NONE',  ( 0.0000000000000000000, 0.0000000000000000000, 1.000000000000000000 ) ) ;
#106 = DIRECTION ( 'NONE',  ( 1.000000000000000000, 0.0000000000000000000, 0.0000000000000000000 ) ) ;
#107 = DIRECTION ( 'NONE',  ( -1.224646799147353454E-16, -0.0000000000000000000, -1.000000000000000000 ) ) ;
#108 = ORIENTED_EDGE ( 'NONE', *, *, #267, .T. ) ;
#109 = DIRECTION ( 'NONE',  ( 1.000000000000000000, 0.0000000000000000000, 0.0000000000000000000 ) ) ;
#110 = ORIENTED_EDGE ( 'NONE', *, *, #142, .F. ) ;
#111 =( CONVERSION_BASED_UNIT ( 'INCH', #314 ) LENGTH_UNIT ( ) NAMED_UNIT ( #259 ) );
#112 = CIRCLE ( 'NONE', #134, 0.01298699999999999855 ) ;
#113 = VECTOR ( 'NONE', #295, 39.37007874015748143 ) ;
#114 = ADVANCED_FACE ( 'NONE', ( #225 ), #302, .T. ) ;
#115 = DIRECTION ( 'NONE',  ( -1.224646799147353454E-16, -0.0000000000000000000, -1.000000000000000000 ) ) ;
#116 = ADVANCED_FACE ( 'NONE', ( #55 ), #240, .T. ) ;
#117 = APPLICATION_PROTOCOL_DEFINITION ( 'draft international standard', 'automotive_design', 1998, #67 ) ;
#118 = COLOUR_RGB ( '',0.7921568627450980005, 0.8196078431372548767, 0.9333333333333333481 ) ;
#119 = LINE ( 'NONE', #96, #135 ) ;
#120 = APPLICATION_PROTOCOL_DEFINITION ( 'draft international standard', 'automotive_design', 1998, #195 ) ;
#121 = AXIS2_PLACEMENT_3D ( 'NONE', #239, #13, #93 ) ;
#122 = DIRECTION ( 'NONE',  ( -1.000000000000000000, 0.0000000000000000000, 0.0000000000000000000 ) ) ;
#123 = CARTESIAN_POINT ( 'NONE',  ( 2.385673197079001846E-18, 0.0000000000000000000, 0.0000000000000000000 ) ) ;
#124 = VERTEX_POINT ( 'NONE', #221 ) ;
#125 = PRODUCT_CONTEXT ( 'NONE', #67, 'mechanical' ) ;
#126 = EDGE_CURVE ( 'NONE', #22, #162, #298, .T. ) ;
#127 = ADVANCED_BREP_SHAPE_REPRESENTATION ( 'Micro_BMR-026-2X', ( #169, #71 ), #174 ) ;
#128 = ORIENTED_EDGE ( 'NONE', *, *, #17, .F. ) ;
#129 = AXIS2_PLACEMENT_3D ( 'NONE', #301, #9, #109 ) ;
#130 = AXIS2_PLACEMENT_3D ( 'NONE', #133, #60, #210 ) ;
#131 = FILL_AREA_STYLE ('',( #226 ) ) ;
#132 = FACE_OUTER_BOUND ( 'NONE', #36, .T. ) ;
#133 = CARTESIAN_POINT ( 'NONE',  ( 1.590448798052667897E-18, 0.0000000000000000000, 0.01298700000000000028 ) ) ;
#134 = AXIS2_PLACEMENT_3D ( 'NONE', #152, #107, #5 ) ;
#135 = VECTOR ( 'NONE', #184, 39.37007874015748854 ) ;
#136 = ORIENTED_EDGE ( 'NONE', *, *, #291, .T. ) ;
#137 = CARTESIAN_POINT ( 'NONE',  ( 0.01298700000000000201, 1.590448798052667705E-18, 0.01298699999999999855 ) ) ;
#138 = DIRECTION ( 'NONE',  ( -1.224646799147353454E-16, -0.0000000000000000000, -1.000000000000000000 ) ) ;
#139 = EDGE_LOOP ( 'NONE', ( #150, #228, #247, #128 ) ) ;
#140 = CARTESIAN_POINT ( 'NONE',  ( 4.394059372652903669E-17, 0.0000000000000000000, 0.3588021767347302493 ) ) ;
#141 = EDGE_CURVE ( 'NONE', #124, #162, #317, .T. ) ;
#142 = EDGE_CURVE ( 'NONE', #308, #124, #112, .T. ) ;
#143 = CARTESIAN_POINT ( 'NONE',  ( 0.0000000000000000000, 0.0000000000000000000, 0.0000000000000000000 ) ) ;
#144 = DIRECTION ( 'NONE',  ( -1.000000000000000000, 0.0000000000000000000, 1.643378952067610433E-16 ) ) ;
#145 = CIRCLE ( 'NONE', #166, 0.01298700000000000028 ) ;
#146 = DIRECTION ( 'NONE',  ( 1.000000000000000000, 0.0000000000000000000, 0.0000000000000000000 ) ) ;
#147 = CARTESIAN_POINT ( 'NONE',  ( 0.0000000000000000000, 0.0000000000000000000, 1.500000000000000222 ) ) ;
#148 = AXIS2_PLACEMENT_3D ( 'NONE', #103, #200, #38 ) ;
#149 = ORIENTED_EDGE ( 'NONE', *, *, #277, .F. ) ;
#150 = ORIENTED_EDGE ( 'NONE', *, *, #56, .F. ) ;
#151 = DIRECTION ( 'NONE',  ( -1.000000000000000000, 0.0000000000000000000, 1.643378952067610433E-16 ) ) ;
#152 = CARTESIAN_POINT ( 'NONE',  ( 9.552245033349356976E-18, 0.0000000000000000000, 0.07799999999999999989 ) ) ;
#153 = DIRECTION ( 'NONE',  ( -1.000000000000000000, 0.0000000000000000000, 1.224646799147353454E-16 ) ) ;
#154 = COLOUR_RGB ( '',0.7921568627450980005, 0.8196078431372548767, 0.9333333333333333481 ) ;
#155 = DIRECTION ( 'NONE',  ( -1.000000000000000000, 0.0000000000000000000, 0.0000000000000000000 ) ) ;
#156 = FACE_OUTER_BOUND ( 'NONE', #245, .T. ) ;
#157 = CYLINDRICAL_SURFACE ( 'NONE', #230, 0.06250000000000002776 ) ;
#158 = ORIENTED_EDGE ( 'NONE', *, *, #61, .F. ) ;
#159 = STYLED_ITEM ( 'NONE', ( #84 ), #169 ) ;
#160 = ORIENTED_EDGE ( 'NONE', *, *, #277, .T. ) ;
#161 = DIRECTION ( 'NONE',  ( -1.000000000000000000, 0.0000000000000000000, 1.224646799147353454E-16 ) ) ;
#162 = VERTEX_POINT ( 'NONE', #32 ) ;
#163 = DIRECTION ( 'NONE',  ( 1.000000000000000000, 0.0000000000000000000, 0.0000000000000000000 ) ) ;
#164 = CARTESIAN_POINT ( 'NONE',  ( 0.01298700000000000722, 0.0000000000000000000, 0.07799999999999999989 ) ) ;
#165 = CIRCLE ( 'NONE', #20, 0.06250000000000002776 ) ;
#166 = AXIS2_PLACEMENT_3D ( 'NONE', #27, #1, #144 ) ;
#167 = EDGE_CURVE ( 'NONE', #182, #175, #183, .T. ) ;
#168 = MECHANICAL_DESIGN_GEOMETRIC_PRESENTATION_REPRESENTATION (  '', ( #159 ), #265 ) ;
#169 = MANIFOLD_SOLID_BREP ( 'Fillet1', #262 ) ;
#170 = DIRECTION ( 'NONE',  ( 1.000000000000000000, 0.0000000000000000000, 0.0000000000000000000 ) ) ;
#171 = DIRECTION ( 'NONE',  ( 0.0000000000000000000, 0.0000000000000000000, 1.000000000000000000 ) ) ;
#172 = ADVANCED_FACE ( 'NONE', ( #156 ), #157, .T. ) ;
#173 = EDGE_LOOP ( 'NONE', ( #233, #136, #92 ) ) ;
#174 =( GEOMETRIC_REPRESENTATION_CONTEXT ( 3 ) GLOBAL_UNCERTAINTY_ASSIGNED_CONTEXT ( ( #83 ) ) GLOBAL_UNIT_ASSIGNED_CONTEXT ( ( #111, #292, #235 ) ) REPRESENTATION_CONTEXT ( 'NONE', 'WORKASPACE' ) );
#175 = VERTEX_POINT ( 'NONE', #253 ) ;
#176 = DIRECTION ( 'NONE',  ( -1.224646799147353454E-16, -0.0000000000000000000, -1.000000000000000000 ) ) ;
#177 = ORIENTED_EDGE ( 'NONE', *, *, #313, .F. ) ;
#178 = DIRECTION ( 'NONE',  ( 0.0000000000000000000, 0.0000000000000000000, 1.000000000000000000 ) ) ;
#179 = FACE_OUTER_BOUND ( 'NONE', #62, .T. ) ;
#180 = LENGTH_MEASURE_WITH_UNIT ( LENGTH_MEASURE( 0.02539999999999999897 ), #206 );
#181 = ORIENTED_EDGE ( 'NONE', *, *, #313, .T. ) ;
#182 = VERTEX_POINT ( 'NONE', #33 ) ;
#183 = CIRCLE ( 'NONE', #296, 0.04750000000000064587 ) ;
#184 = DIRECTION ( 'NONE',  ( -0.7071067811865462405, 0.0000000000000000000, -0.7071067811865486830 ) ) ;
#185 = ORIENTED_EDGE ( 'NONE', *, *, #208, .T. ) ;
#186 = DIRECTION ( 'NONE',  ( -1.224646799147353454E-16, -0.0000000000000000000, -1.000000000000000000 ) ) ;
#187 = FACE_OUTER_BOUND ( 'NONE', #285, .T. ) ;
#188 = AXIS2_PLACEMENT_3D ( 'NONE', #53, #49, #151 ) ;
#189 = AXIS2_PLACEMENT_3D ( 'NONE', #143, #115, #161 ) ;
#190 = CARTESIAN_POINT ( 'NONE',  ( 9.552245033349356976E-18, 0.0000000000000000000, 0.07799999999999999989 ) ) ;
#191 = CARTESIAN_POINT ( 'NONE',  ( -0.06250000000000002776, 0.0000000000000000000, 1.500000000000000222 ) ) ;
#192 = EDGE_CURVE ( 'NONE', #31, #86, #217, .T. ) ;
#193 = ADVANCED_FACE ( 'NONE', ( #207 ), #307, .T. ) ;
#194 = CARTESIAN_POINT ( 'NONE',  ( 9.552245033349356976E-18, 0.0000000000000000000, 0.07799999999999999989 ) ) ;
#195 = APPLICATION_CONTEXT ( 'automotive_design' ) ;
#196 = DIRECTION ( 'NONE',  ( 0.1736481776669313859, 0.0000000000000000000, 0.9848077530122077983 ) ) ;
#197 = AXIS2_PLACEMENT_3D ( 'NONE', #30, #243, #122 ) ;
#198 = PRESENTATION_LAYER_ASSIGNMENT (  '', '', ( #299 ) ) ;
#199 = ORIENTED_EDGE ( 'NONE', *, *, #70, .F. ) ;
#200 = DIRECTION ( 'NONE',  ( 0.0000000000000000000, 0.0000000000000000000, -1.000000000000000000 ) ) ;
#201 = CARTESIAN_POINT ( 'NONE',  ( 0.04750000000000064587, 5.817072295950006528E-18, 1.500000000000000222 ) ) ;
#202 = VECTOR ( 'NONE', #281, 39.37007874015748854 ) ;
#203 = SURFACE_STYLE_USAGE ( .BOTH. , #4 ) ;
#204 = CIRCLE ( 'NONE', #188, 0.01298700000000000028 ) ;
#205 = CIRCLE ( 'NONE', #273, 0.06250000000000002776 ) ;
#206 =( LENGTH_UNIT ( ) NAMED_UNIT ( * ) SI_UNIT ( $, .METRE. ) );
#207 = FACE_OUTER_BOUND ( 'NONE', #173, .T. ) ;
#208 = EDGE_CURVE ( 'NONE', #308, #224, #54, .T. ) ;
#209 = EDGE_LOOP ( 'NONE', ( #52, #65, #108, #11 ) ) ;
#210 = DIRECTION ( 'NONE',  ( -1.000000000000000000, 1.224646799147353207E-16, 0.0000000000000000000 ) ) ;
#211 = EDGE_LOOP ( 'NONE', ( #306, #255, #231, #177 ) ) ;
#212 = CARTESIAN_POINT ( 'NONE',  ( 0.0000000000000000000, 0.0000000000000000000, 1.500000000000000222 ) ) ;
#213 = CARTESIAN_POINT ( 'NONE',  ( -0.01298700000000000028, 0.0000000000000000000, 1.590448798052667897E-18 ) ) ;
#214 = DIMENSIONAL_EXPONENTS ( 1.000000000000000000, 0.0000000000000000000, 0.0000000000000000000, 0.0000000000000000000, 0.0000000000000000000, 0.0000000000000000000, 0.0000000000000000000 ) ;
#215 = PRODUCT_DEFINITION_SHAPE ( 'NONE', 'NONE',  #254 ) ;
#216 = FACE_OUTER_BOUND ( 'NONE', #209, .T. ) ;
#217 = CIRCLE ( 'NONE', #130, 0.01298700000000000028 ) ;
#218 = CARTESIAN_POINT ( 'NONE',  ( 0.06250000000000002776, 7.654042494670959086E-18, 1.500000000000000222 ) ) ;
#219 = AXIS2_PLACEMENT_3D ( 'NONE', #58, #105, #274 ) ;
#220 = LENGTH_MEASURE_WITH_UNIT ( LENGTH_MEASURE( 0.02539999999999999897 ), #318 );
#221 = CARTESIAN_POINT ( 'NONE',  ( -0.01298699999999998987, 4.622245646361813491E-18, 0.07799999999999999989 ) ) ;
#222 = CARTESIAN_POINT ( 'NONE',  ( 0.0000000000000000000, 0.0000000000000000000, 0.0000000000000000000 ) ) ;
#223 = EDGE_LOOP ( 'NONE', ( #68, #39 ) ) ;
#224 = VERTEX_POINT ( 'NONE', #137 ) ;
#225 = FACE_OUTER_BOUND ( 'NONE', #3, .T. ) ;
#226 = FILL_AREA_STYLE_COLOUR ( '', #154 ) ;
#227 = VERTEX_POINT ( 'NONE', #249 ) ;
#228 = ORIENTED_EDGE ( 'NONE', *, *, #141, .T. ) ;
#229 = SURFACE_STYLE_FILL_AREA ( #131 ) ;
#230 = AXIS2_PLACEMENT_3D ( 'NONE', #284, #37, #280 ) ;
#231 = ORIENTED_EDGE ( 'NONE', *, *, #79, .F. ) ;
#232 = LINE ( 'NONE', #24, #242 ) ;
#233 = ORIENTED_EDGE ( 'NONE', *, *, #192, .F. ) ;
#234 = PLANE ( 'NONE',  #57 ) ;
#235 =( NAMED_UNIT ( * ) SI_UNIT ( $, .STERADIAN. ) SOLID_ANGLE_UNIT ( ) );
#236 = AXIS2_PLACEMENT_3D ( 'NONE', #316, #312, #95 ) ;
#237 =( LENGTH_UNIT ( ) NAMED_UNIT ( * ) SI_UNIT ( $, .METRE. ) );
#238 = EDGE_CURVE ( 'NONE', #224, #86, #145, .T. ) ;
#239 = CARTESIAN_POINT ( 'NONE',  ( 1.590448798052667897E-18, 0.0000000000000000000, 0.01298700000000000028 ) ) ;
#240 = CONICAL_SURFACE ( 'NONE', #197, 0.04750000000000064587, 0.7853981633974466137 ) ;
#241 =( GEOMETRIC_REPRESENTATION_CONTEXT ( 3 ) GLOBAL_UNCERTAINTY_ASSIGNED_CONTEXT ( ( #271 ) ) GLOBAL_UNIT_ASSIGNED_CONTEXT ( ( #16, #98, #246 ) ) REPRESENTATION_CONTEXT ( 'NONE', 'WORKASPACE' ) );
#242 = VECTOR ( 'NONE', #196, 39.37007874015748143 ) ;
#243 = DIRECTION ( 'NONE',  ( 0.0000000000000000000, 0.0000000000000000000, -1.000000000000000000 ) ) ;
#244 = LINE ( 'NONE', #201, #202 ) ;
#245 = EDGE_LOOP ( 'NONE', ( #287, #250, #41, #149 ) ) ;
#246 =( NAMED_UNIT ( * ) SI_UNIT ( $, .STERADIAN. ) SOLID_ANGLE_UNIT ( ) );
#247 = ORIENTED_EDGE ( 'NONE', *, *, #70, .T. ) ;
#248 = ADVANCED_FACE ( 'NONE', ( #15 ), #270, .T. ) ;
#249 = CARTESIAN_POINT ( 'NONE',  ( 0.06250000000000002776, 7.654042494670959086E-18, 1.485000000000000764 ) ) ;
#250 = ORIENTED_EDGE ( 'NONE', *, *, #61, .T. ) ;
#251 = ORIENTED_EDGE ( 'NONE', *, *, #141, .F. ) ;
#252 = DIRECTION ( 'NONE',  ( -1.000000000000000000, 0.0000000000000000000, 0.0000000000000000000 ) ) ;
#253 = CARTESIAN_POINT ( 'NONE',  ( -0.04750000000000064587, 0.0000000000000000000, 1.500000000000000222 ) ) ;
#254 = PRODUCT_DEFINITION ( 'UNKNOWN', '', #256, #282 ) ;
#255 = ORIENTED_EDGE ( 'NONE', *, *, #10, .T. ) ;
#256 = PRODUCT_DEFINITION_FORMATION_WITH_SPECIFIED_SOURCE ( 'ANY', '', #315, .NOT_KNOWN. ) ;
#257 = DIRECTION ( 'NONE',  ( -1.224646799147353454E-16, -0.0000000000000000000, -1.000000000000000000 ) ) ;
#258 = ORIENTED_EDGE ( 'NONE', *, *, #238, .F. ) ;
#259 = DIMENSIONAL_EXPONENTS ( 1.000000000000000000, 0.0000000000000000000, 0.0000000000000000000, 0.0000000000000000000, 0.0000000000000000000, 0.0000000000000000000, 0.0000000000000000000 ) ;
#260 = DIRECTION ( 'NONE',  ( 0.0000000000000000000, 0.0000000000000000000, 1.000000000000000000 ) ) ;
#261 = ORIENTED_EDGE ( 'NONE', *, *, #192, .T. ) ;
#262 = CLOSED_SHELL ( 'NONE', ( #305, #48, #248, #116, #114, #172, #283, #45, #97, #300, #193 ) ) ;
#263 = DIRECTION ( 'NONE',  ( -1.224646799147353454E-16, -0.0000000000000000000, -1.000000000000000000 ) ) ;
#264 = AXIS2_PLACEMENT_3D ( 'NONE', #279, #26, #155 ) ;
#265 =( GEOMETRIC_REPRESENTATION_CONTEXT ( 3 ) GLOBAL_UNCERTAINTY_ASSIGNED_CONTEXT ( ( #18 ) ) GLOBAL_UNIT_ASSIGNED_CONTEXT ( ( #59, #87, #8 ) ) REPRESENTATION_CONTEXT ( 'NONE', 'WORKASPACE' ) );
#266 = FILL_AREA_STYLE_COLOUR ( '', #118 ) ;
#267 = EDGE_CURVE ( 'NONE', #124, #86, #89, .T. ) ;
#268 = FILL_AREA_STYLE ('',( #266 ) ) ;
#269 = PRESENTATION_STYLE_ASSIGNMENT (( #46 ) ) ;
#270 = CONICAL_SURFACE ( 'NONE', #310, 0.01298699999999999855, 0.1745329251994338915 ) ;
#271 = UNCERTAINTY_MEASURE_WITH_UNIT (LENGTH_MEASURE( 1.000000000000000082E-05 ), #16, 'distance_accuracy_value', 'NONE');
#272 = ORIENTED_EDGE ( 'NONE', *, *, #291, .F. ) ;
#273 = AXIS2_PLACEMENT_3D ( 'NONE', #140, #263, #163 ) ;
#274 = DIRECTION ( 'NONE',  ( 1.000000000000000000, 0.0000000000000000000, 0.0000000000000000000 ) ) ;
#275 = VERTEX_POINT ( 'NONE', #311 ) ;
#276 = DIRECTION ( 'NONE',  ( 1.224646799147353454E-16, 0.0000000000000000000, 1.000000000000000000 ) ) ;
#277 = EDGE_CURVE ( 'NONE', #275, #162, #205, .T. ) ;
#278 = CARTESIAN_POINT ( 'NONE',  ( 1.590448798052667897E-18, 0.0000000000000000000, 0.01298700000000000028 ) ) ;
#279 = CARTESIAN_POINT ( 'NONE',  ( 0.0000000000000000000, 0.0000000000000000000, 1.500000000000000222 ) ) ;
#280 = DIRECTION ( 'NONE',  ( -1.000000000000000000, 0.0000000000000000000, 0.0000000000000000000 ) ) ;
#281 = DIRECTION ( 'NONE',  ( 0.7071067811865462405, 8.659560562354916834E-17, -0.7071067811865486830 ) ) ;
#282 = PRODUCT_DEFINITION_CONTEXT ( 'detailed design', #195, 'design' ) ;
#283 = ADVANCED_FACE ( 'NONE', ( #293 ), #234, .T. ) ;
#284 = CARTESIAN_POINT ( 'NONE',  ( 0.0000000000000000000, 0.0000000000000000000, 1.500000000000000222 ) ) ;
#285 = EDGE_LOOP ( 'NONE', ( #272, #261, #258 ) ) ;
#286 = CARTESIAN_POINT ( 'NONE',  ( 0.01298700000000000028, 1.590448798052667705E-18, -1.590448798052667897E-18 ) ) ;
#287 = ORIENTED_EDGE ( 'NONE', *, *, #321, .F. ) ;
#288 = VECTOR ( 'NONE', #104, 39.37007874015747433 ) ;
#289 = LINE ( 'NONE', #218, #113 ) ;
#290 = ORIENTED_EDGE ( 'NONE', *, *, #23, .F. ) ;
#291 = EDGE_CURVE ( 'NONE', #31, #224, #50, .T. ) ;
#292 =( NAMED_UNIT ( * ) PLANE_ANGLE_UNIT ( ) SI_UNIT ( $, .RADIAN. ) );
#293 = FACE_OUTER_BOUND ( 'NONE', #223, .T. ) ;
#294 = CONICAL_SURFACE ( 'NONE', #264, 0.04750000000000064587, 0.7853981633974466137 ) ;
#295 = DIRECTION ( 'NONE',  ( -0.0000000000000000000, -0.0000000000000000000, -1.000000000000000000 ) ) ;
#296 = AXIS2_PLACEMENT_3D ( 'NONE', #80, #178, #106 ) ;
#297 = CARTESIAN_POINT ( 'NONE',  ( -0.01298699999999999855, 0.0000000000000000000, 0.01298700000000000201 ) ) ;
#298 = LINE ( 'NONE', #191, #101 ) ;
#299 = STYLED_ITEM ( 'NONE', ( #269 ), #127 ) ;
#300 = ADVANCED_FACE ( 'NONE', ( #216 ), #94, .T. ) ;
#301 = CARTESIAN_POINT ( 'NONE',  ( 0.0000000000000000000, 0.0000000000000000000, 1.485000000000000764 ) ) ;
#302 = CYLINDRICAL_SURFACE ( 'NONE', #324, 0.06250000000000002776 ) ;
#303 = CARTESIAN_POINT ( 'NONE',  ( -0.01298699999999998987, 1.590448798052667319E-18, 0.07799999999999999989 ) ) ;
#304 = ORIENTED_EDGE ( 'NONE', *, *, #79, .T. ) ;
#305 = ADVANCED_FACE ( 'NONE', ( #187 ), #40, .T. ) ;
#306 = ORIENTED_EDGE ( 'NONE', *, *, #167, .F. ) ;
#307 = SPHERICAL_SURFACE ( 'NONE', #29, 0.01298700000000000028 ) ;
#308 = VERTEX_POINT ( 'NONE', #164 ) ;
#309 = ORIENTED_EDGE ( 'NONE', *, *, #238, .T. ) ;
#310 = AXIS2_PLACEMENT_3D ( 'NONE', #190, #66, #12 ) ;
#311 = CARTESIAN_POINT ( 'NONE',  ( 0.06250000000000006939, 7.654042494670963708E-18, 0.3588021767347302493 ) ) ;
#312 = DIRECTION ( 'NONE',  ( 0.0000000000000000000, -1.000000000000000000, 0.0000000000000000000 ) ) ;
#313 = EDGE_CURVE ( 'NONE', #175, #22, #119, .T. ) ;
#314 = LENGTH_MEASURE_WITH_UNIT ( LENGTH_MEASURE( 0.02539999999999999897 ), #237 );
#315 = PRODUCT ( 'Micro_BMR-026-2X', 'Micro_BMR-026-2X', '', ( #125 ) ) ;
#316 = CARTESIAN_POINT ( 'NONE',  ( 1.590448798052667897E-18, 0.0000000000000000000, 0.01298700000000000028 ) ) ;
#317 = LINE ( 'NONE', #303, #288 ) ;
#318 =( LENGTH_UNIT ( ) NAMED_UNIT ( * ) SI_UNIT ( $, .METRE. ) );
#319 = FACE_OUTER_BOUND ( 'NONE', #7, .T. ) ;
#320 = DIRECTION ( 'NONE',  ( -0.0000000000000000000, -0.0000000000000000000, -1.000000000000000000 ) ) ;
#321 = EDGE_CURVE ( 'NONE', #227, #275, #289, .T. ) ;
#322 = DIRECTION ( 'NONE',  ( -1.224646799147353454E-16, -0.0000000000000000000, -1.000000000000000000 ) ) ;
#323 = ORIENTED_EDGE ( 'NONE', *, *, #321, .T. ) ;
#324 = AXIS2_PLACEMENT_3D ( 'NONE', #147, #325, #78 ) ;
#325 = DIRECTION ( 'NONE',  ( -0.0000000000000000000, -0.0000000000000000000, -1.000000000000000000 ) ) ;
ENDSEC;
END-ISO-10303-21;
