ISO-10303-21;
HEADER;
FILE_DESCRIPTION (( 'STEP AP214' ),
    '1' );
FILE_NAME ('59820.STEP',
    '2023-07-12T13:06:19',
    ( '' ),
    ( '' ),
    'SwSTEP 2.0',
    'SolidWorks 2023',
    '' );
FILE_SCHEMA (( 'AUTOMOTIVE_DESIGN' ));
ENDSEC;

DATA;
#1 = CARTESIAN_POINT ( 'NONE',  ( -0.1250000000000000278, 0.09499999999999964029, 0.000000000000000000 ) ) ;
#2 = PLANE ( 'NONE',  #285 ) ;
#3 = UNCERTAINTY_MEASURE_WITH_UNIT (LENGTH_MEASURE( 1.000000000000000082E-05 ), #273, 'distance_accuracy_value', 'NONE');
#4 = EDGE_CURVE ( 'NONE', #238, #144, #37, .T. ) ;
#5 = ORIENTED_EDGE ( 'NONE', *, *, #91, .F. ) ;
#6 = EDGE_LOOP ( 'NONE', ( #75, #291, #288, #166 ) ) ;
#7 = VERTEX_POINT ( 'NONE', #199 ) ;
#8 = ADVANCED_FACE ( 'NONE', ( #295 ), #127, .T. ) ;
#9 = DIRECTION ( 'NONE',  ( -1.000000000000000000, -1.644639139670155606E-16, 0.000000000000000000 ) ) ;
#10 = AXIS2_PLACEMENT_3D ( 'NONE', #73, #165, #22 ) ;
#11 = ADVANCED_FACE ( 'NONE', ( #59 ), #220, .T. ) ;
#12 = PRESENTATION_STYLE_ASSIGNMENT (( #41 ) ) ;
#13 =( CONVERSION_BASED_UNIT ( 'INCH', #67 ) LENGTH_UNIT ( ) NAMED_UNIT ( #111 ) );
#14 = FILL_AREA_STYLE_COLOUR ( '', #130 ) ;
#15 = DIRECTION ( 'NONE',  ( 1.644639139670155606E-16, -1.000000000000000000, -0.000000000000000000 ) ) ;
#16 = CIRCLE ( 'NONE', #213, 0.02999999999999999889 ) ;
#17 = FACE_OUTER_BOUND ( 'NONE', #214, .T. ) ;
#18 = EDGE_CURVE ( 'NONE', #7, #93, #290, .T. ) ;
#19 = SURFACE_SIDE_STYLE ('',( #45 ) ) ;
#20 = LINE ( 'NONE', #92, #52 ) ;
#21 = EDGE_LOOP ( 'NONE', ( #99, #230, #175, #47 ) ) ;
#22 = DIRECTION ( 'NONE',  ( 1.000000000000000000, 1.119813943094168828E-16, 0.000000000000000000 ) ) ;
#23 = AXIS2_PLACEMENT_3D ( 'NONE', #212, #115, #94 ) ;
#24 = CARTESIAN_POINT ( 'NONE',  ( 0.1249999999999999445, 2.500000000000000000, 1.530808498934189352E-17 ) ) ;
#25 = EDGE_CURVE ( 'NONE', #54, #118, #16, .T. ) ;
#26 = CARTESIAN_POINT ( 'NONE',  ( 3.305475932715153396E-16, 0.09499999999999966804, 0.000000000000000000 ) ) ;
#27 = PRODUCT ( '59820', '59820', '', ( #282 ) ) ;
#28 =( LENGTH_UNIT ( ) NAMED_UNIT ( * ) SI_UNIT ( $, .METRE. ) );
#29 = ORIENTED_EDGE ( 'NONE', *, *, #25, .T. ) ;
#30 = PRESENTATION_LAYER_ASSIGNMENT (  '', '', ( #167 ) ) ;
#31 = ORIENTED_EDGE ( 'NONE', *, *, #55, .F. ) ;
#32 = STYLED_ITEM ( 'NONE', ( #87 ), #239 ) ;
#33 = DIRECTION ( 'NONE',  ( -1.000000000000000000, 0.000000000000000000, 0.000000000000000000 ) ) ;
#34 = CARTESIAN_POINT ( 'NONE',  ( 6.123233995736772199E-17, 2.500000000000000000, 0.000000000000000000 ) ) ;
#35 = ADVANCED_FACE ( 'NONE', ( #36 ), #109, .T. ) ;
#36 = FACE_OUTER_BOUND ( 'NONE', #261, .T. ) ;
#37 = CIRCLE ( 'NONE', #112, 0.1249999999999996253 ) ;
#38 = APPLICATION_CONTEXT ( 'automotive_design' ) ;
#39 = FILL_AREA_STYLE ('',( #274 ) ) ;
#40 =( NAMED_UNIT ( * ) PLANE_ANGLE_UNIT ( ) SI_UNIT ( $, .RADIAN. ) );
#41 = SURFACE_STYLE_USAGE ( .BOTH. , #183 ) ;
#42 = DIRECTION ( 'NONE',  ( -1.000000000000000000, 0.000000000000000000, 0.000000000000000000 ) ) ;
#43 = CIRCLE ( 'NONE', #242, 0.1249999999999999861 ) ;
#44 = CARTESIAN_POINT ( 'NONE',  ( 3.305475932715153396E-16, 0.09499999999999966804, 0.000000000000000000 ) ) ;
#45 = SURFACE_STYLE_FILL_AREA ( #259 ) ;
#46 =( NAMED_UNIT ( * ) SI_UNIT ( $, .STERADIAN. ) SOLID_ANGLE_UNIT ( ) );
#47 = ORIENTED_EDGE ( 'NONE', *, *, #120, .F. ) ;
#48 = LINE ( 'NONE', #185, #125 ) ;
#49 = AXIS2_PLACEMENT_3D ( 'NONE', #227, #222, #157 ) ;
#50 = CLOSED_SHELL ( 'NONE', ( #8, #267, #11, #136 ) ) ;
#51 = EDGE_CURVE ( 'NONE', #118, #54, #206, .T. ) ;
#52 = VECTOR ( 'NONE', #303, 39.37007874015748143 ) ;
#53 = EDGE_LOOP ( 'NONE', ( #192, #189 ) ) ;
#54 = VERTEX_POINT ( 'NONE', #246 ) ;
#55 = EDGE_CURVE ( 'NONE', #293, #147, #139, .T. ) ;
#56 = ADVANCED_BREP_SHAPE_REPRESENTATION ( '59820', ( #159, #269, #149 ), #284 ) ;
#57 = DIMENSIONAL_EXPONENTS ( 1.000000000000000000, 0.000000000000000000, 0.000000000000000000, 0.000000000000000000, 0.000000000000000000, 0.000000000000000000, 0.000000000000000000 ) ;
#58 = DIRECTION ( 'NONE',  ( -1.644639139670155606E-16, 1.000000000000000000, 0.000000000000000000 ) ) ;
#59 = FACE_OUTER_BOUND ( 'NONE', #21, .T. ) ;
#60 =( NAMED_UNIT ( * ) SI_UNIT ( $, .STERADIAN. ) SOLID_ANGLE_UNIT ( ) );
#61 = DIRECTION ( 'NONE',  ( 1.000000000000000000, 1.365923996832131856E-16, 0.000000000000000000 ) ) ;
#62 = DIRECTION ( 'NONE',  ( 0.000000000000000000, 0.000000000000000000, 1.000000000000000000 ) ) ;
#63 = FACE_OUTER_BOUND ( 'NONE', #126, .T. ) ;
#64 = VECTOR ( 'NONE', #252, 39.37007874015748143 ) ;
#65 =( NAMED_UNIT ( * ) PLANE_ANGLE_UNIT ( ) SI_UNIT ( $, .RADIAN. ) );
#66 = DIMENSIONAL_EXPONENTS ( 1.000000000000000000, 0.000000000000000000, 0.000000000000000000, 0.000000000000000000, 0.000000000000000000, 0.000000000000000000, 0.000000000000000000 ) ;
#67 = LENGTH_MEASURE_WITH_UNIT ( LENGTH_MEASURE( 0.02539999999999999897 ), #245 );
#68 =( CONVERSION_BASED_UNIT ( 'INCH', #180 ) LENGTH_UNIT ( ) NAMED_UNIT ( #294 ) );
#69 = SURFACE_STYLE_FILL_AREA ( #253 ) ;
#70 = PRESENTATION_STYLE_ASSIGNMENT (( #143 ) ) ;
#71 =( GEOMETRIC_REPRESENTATION_CONTEXT ( 3 ) GLOBAL_UNCERTAINTY_ASSIGNED_CONTEXT ( ( #283 ) ) GLOBAL_UNIT_ASSIGNED_CONTEXT ( ( #13, #110, #277 ) ) REPRESENTATION_CONTEXT ( 'NONE', 'WORKASPACE' ) );
#72 = EDGE_CURVE ( 'NONE', #144, #93, #48, .T. ) ;
#73 = CARTESIAN_POINT ( 'NONE',  ( 0.1249999999999999584, 2.500000000000000000, 0.000000000000000000 ) ) ;
#74 = PRESENTATION_LAYER_ASSIGNMENT (  '', '', ( #205 ) ) ;
#75 = ORIENTED_EDGE ( 'NONE', *, *, #4, .T. ) ;
#76 = DIRECTION ( 'NONE',  ( -1.644639139670155606E-16, 1.000000000000000000, 0.000000000000000000 ) ) ;
#77 = DIRECTION ( 'NONE',  ( -1.119813943094168828E-16, 1.000000000000000000, -0.000000000000000000 ) ) ;
#78 = MECHANICAL_DESIGN_GEOMETRIC_PRESENTATION_REPRESENTATION (  '', ( #32 ), #292 ) ;
#79 = COLOUR_RGB ( '',1.000000000000000000, 0.000000000000000000, 0.000000000000000000 ) ;
#80 = DIRECTION ( 'NONE',  ( -1.000000000000000000, -1.365923996832135800E-16, 0.000000000000000000 ) ) ;
#81 =( NAMED_UNIT ( * ) PLANE_ANGLE_UNIT ( ) SI_UNIT ( $, .RADIAN. ) );
#82 = SURFACE_SIDE_STYLE ('',( #241 ) ) ;
#83 = ADVANCED_FACE ( 'NONE', ( #260 ), #280, .T. ) ;
#84 =( GEOMETRIC_REPRESENTATION_CONTEXT ( 3 ) GLOBAL_UNCERTAINTY_ASSIGNED_CONTEXT ( ( #122 ) ) GLOBAL_UNIT_ASSIGNED_CONTEXT ( ( #68, #40, #60 ) ) REPRESENTATION_CONTEXT ( 'NONE', 'WORKASPACE' ) );
#85 =( LENGTH_UNIT ( ) NAMED_UNIT ( * ) SI_UNIT ( $, .METRE. ) );
#86 = LENGTH_MEASURE_WITH_UNIT ( LENGTH_MEASURE( 0.02539999999999999897 ), #299 );
#87 = PRESENTATION_STYLE_ASSIGNMENT (( #131 ) ) ;
#88 = CARTESIAN_POINT ( 'NONE',  ( 6.123233995736772199E-17, 2.500000000000000000, 0.000000000000000000 ) ) ;
#89 = CARTESIAN_POINT ( 'NONE',  ( -0.02999999999999999889, -9.867834838020933759E-18, 0.000000000000000000 ) ) ;
#90 =( NAMED_UNIT ( * ) SI_UNIT ( $, .STERADIAN. ) SOLID_ANGLE_UNIT ( ) );
#91 = EDGE_CURVE ( 'NONE', #54, #147, #168, .T. ) ;
#92 = CARTESIAN_POINT ( 'NONE',  ( -0.1249999999999996947, 2.500000000000000000, 0.000000000000000000 ) ) ;
#93 = VERTEX_POINT ( 'NONE', #24 ) ;
#94 = DIRECTION ( 'NONE',  ( 1.000000000000000000, 1.644639139670155606E-16, 0.000000000000000000 ) ) ;
#95 = UNCERTAINTY_MEASURE_WITH_UNIT (LENGTH_MEASURE( 1.000000000000000082E-05 ), #140, 'distance_accuracy_value', 'NONE');
#96 = ORIENTED_EDGE ( 'NONE', *, *, #105, .F. ) ;
#97 = SURFACE_SIDE_STYLE ('',( #208 ) ) ;
#98 = AXIS2_PLACEMENT_3D ( 'NONE', #276, #248, #33 ) ;
#99 = ORIENTED_EDGE ( 'NONE', *, *, #72, .F. ) ;
#100 = COLOUR_RGB ( '',1.000000000000000000, 0.000000000000000000, 0.000000000000000000 ) ;
#101 =( NAMED_UNIT ( * ) SI_UNIT ( $, .STERADIAN. ) SOLID_ANGLE_UNIT ( ) );
#102 = ORIENTED_EDGE ( 'NONE', *, *, #51, .F. ) ;
#103 = ORIENTED_EDGE ( 'NONE', *, *, #55, .T. ) ;
#104 =( NAMED_UNIT ( * ) SI_UNIT ( $, .STERADIAN. ) SOLID_ANGLE_UNIT ( ) );
#105 = EDGE_CURVE ( 'NONE', #147, #293, #43, .T. ) ;
#106 = AXIS2_PLACEMENT_3D ( 'NONE', #44, #265, #145 ) ;
#107 = CIRCLE ( 'NONE', #224, 0.1249999999999999029 ) ;
#108 = SURFACE_STYLE_FILL_AREA ( #39 ) ;
#109 = CONICAL_SURFACE ( 'NONE', #237, 0.02999999999999999889, 0.7853981633974500554 ) ;
#110 =( NAMED_UNIT ( * ) PLANE_ANGLE_UNIT ( ) SI_UNIT ( $, .RADIAN. ) );
#111 = DIMENSIONAL_EXPONENTS ( 1.000000000000000000, 0.000000000000000000, 0.000000000000000000, 0.000000000000000000, 0.000000000000000000, 0.000000000000000000, 0.000000000000000000 ) ;
#112 = AXIS2_PLACEMENT_3D ( 'NONE', #26, #77, #80 ) ;
#113 = SURFACE_STYLE_FILL_AREA ( #155 ) ;
#114 = CARTESIAN_POINT ( 'NONE',  ( 0.02999999999999999889, 0.000000000000000000, 3.673940397442059190E-18 ) ) ;
#115 = DIRECTION ( 'NONE',  ( 1.644639139670155606E-16, -1.000000000000000000, -0.000000000000000000 ) ) ;
#116 = AXIS2_PLACEMENT_3D ( 'NONE', #181, #275, #61 ) ;
#117 = CARTESIAN_POINT ( 'NONE',  ( 0.1249999999999999445, 0.09499999999999968192, 1.530808498934189352E-17 ) ) ;
#118 = VERTEX_POINT ( 'NONE', #89 ) ;
#119 =( NAMED_UNIT ( * ) PLANE_ANGLE_UNIT ( ) SI_UNIT ( $, .RADIAN. ) );
#120 = EDGE_CURVE ( 'NONE', #93, #7, #107, .T. ) ;
#121 =( NAMED_UNIT ( * ) SI_UNIT ( $, .STERADIAN. ) SOLID_ANGLE_UNIT ( ) );
#122 = UNCERTAINTY_MEASURE_WITH_UNIT (LENGTH_MEASURE( 1.000000000000000082E-05 ), #68, 'distance_accuracy_value', 'NONE');
#123 = MECHANICAL_DESIGN_GEOMETRIC_PRESENTATION_REPRESENTATION (  '', ( #198 ), #162 ) ;
#124 = EDGE_CURVE ( 'NONE', #238, #7, #20, .T. ) ;
#125 = VECTOR ( 'NONE', #309, 39.37007874015748143 ) ;
#126 = EDGE_LOOP ( 'NONE', ( #197, #29 ) ) ;
#127 = CYLINDRICAL_SURFACE ( 'NONE', #98, 0.1249999999999997641 ) ;
#128 = FILL_AREA_STYLE_COLOUR ( '', #296 ) ;
#129 = FILL_AREA_STYLE ('',( #250 ) ) ;
#130 = COLOUR_RGB ( '',1.000000000000000000, 0.000000000000000000, 0.000000000000000000 ) ;
#131 = SURFACE_STYLE_USAGE ( .BOTH. , #300 ) ;
#132 = DIRECTION ( 'NONE',  ( 1.644639139670155606E-16, -1.000000000000000000, -0.000000000000000000 ) ) ;
#133 = CARTESIAN_POINT ( 'NONE',  ( 0.000000000000000000, 0.000000000000000000, 0.000000000000000000 ) ) ;
#134 = DIMENSIONAL_EXPONENTS ( 1.000000000000000000, 0.000000000000000000, 0.000000000000000000, 0.000000000000000000, 0.000000000000000000, 0.000000000000000000, 0.000000000000000000 ) ;
#135 = MECHANICAL_DESIGN_GEOMETRIC_PRESENTATION_REPRESENTATION (  '', ( #272 ), #71 ) ;
#136 = ADVANCED_FACE ( 'NONE', ( #209 ), #286, .F. ) ;
#137 = SURFACE_STYLE_USAGE ( .BOTH. , #19 ) ;
#138 = DIRECTION ( 'NONE',  ( -1.000000000000000000, -1.644639139670155606E-16, 0.000000000000000000 ) ) ;
#139 = CIRCLE ( 'NONE', #116, 0.1249999999999999861 ) ;
#140 =( CONVERSION_BASED_UNIT ( 'INCH', #234 ) LENGTH_UNIT ( ) NAMED_UNIT ( #134 ) );
#141 = UNCERTAINTY_MEASURE_WITH_UNIT (LENGTH_MEASURE( 1.000000000000000082E-05 ), #254, 'distance_accuracy_value', 'NONE');
#142 = PRESENTATION_STYLE_ASSIGNMENT (( #137 ) ) ;
#143 = SURFACE_STYLE_USAGE ( .BOTH. , #97 ) ;
#144 = VERTEX_POINT ( 'NONE', #117 ) ;
#145 = DIRECTION ( 'NONE',  ( -1.000000000000000000, -1.365923996832135800E-16, 0.000000000000000000 ) ) ;
#146 = APPLICATION_CONTEXT ( 'automotive_design' ) ;
#147 = VERTEX_POINT ( 'NONE', #264 ) ;
#148 = CARTESIAN_POINT ( 'NONE',  ( 8.114513699204969647E-34, -4.933917419010466879E-18, 0.000000000000000000 ) ) ;
#149 = AXIS2_PLACEMENT_3D ( 'NONE', #133, #62, #297 ) ;
#150 = AXIS2_PLACEMENT_3D ( 'NONE', #34, #221, #278 ) ;
#151 = DIRECTION ( 'NONE',  ( -1.000000000000000000, 0.000000000000000000, 0.000000000000000000 ) ) ;
#152 = DIRECTION ( 'NONE',  ( 1.000000000000000000, 1.644639139670155606E-16, 0.000000000000000000 ) ) ;
#153 = LINE ( 'NONE', #184, #231 ) ;
#154 =( GEOMETRIC_REPRESENTATION_CONTEXT ( 3 ) GLOBAL_UNCERTAINTY_ASSIGNED_CONTEXT ( ( #141 ) ) GLOBAL_UNIT_ASSIGNED_CONTEXT ( ( #254, #194, #46 ) ) REPRESENTATION_CONTEXT ( 'NONE', 'WORKASPACE' ) );
#155 = FILL_AREA_STYLE ('',( #14 ) ) ;
#156 = APPLICATION_PROTOCOL_DEFINITION ( 'draft international standard', 'automotive_design', 1998, #38 ) ;
#157 = DIRECTION ( 'NONE',  ( -1.000000000000000000, -1.644639139670155606E-16, 0.000000000000000000 ) ) ;
#158 = CARTESIAN_POINT ( 'NONE',  ( 6.123233995736772199E-17, 2.500000000000000000, 0.000000000000000000 ) ) ;
#159 = MANIFOLD_SOLID_BREP ( 'Revolve - Cutting Edge', #243 ) ;
#160 = ADVANCED_FACE ( 'NONE', ( #17 ), #256, .T. ) ;
#161 = FACE_OUTER_BOUND ( 'NONE', #53, .T. ) ;
#162 =( GEOMETRIC_REPRESENTATION_CONTEXT ( 3 ) GLOBAL_UNCERTAINTY_ASSIGNED_CONTEXT ( ( #188 ) ) GLOBAL_UNIT_ASSIGNED_CONTEXT ( ( #263, #119, #101 ) ) REPRESENTATION_CONTEXT ( 'NONE', 'WORKASPACE' ) );
#163 = UNCERTAINTY_MEASURE_WITH_UNIT (LENGTH_MEASURE( 1.000000000000000082E-05 ), #173, 'distance_accuracy_value', 'NONE');
#164 = DIRECTION ( 'NONE',  ( -1.000000000000000000, -1.119813943094168828E-16, 0.000000000000000000 ) ) ;
#165 = DIRECTION ( 'NONE',  ( 1.119813943094168828E-16, -1.000000000000000000, 0.000000000000000000 ) ) ;
#166 = ORIENTED_EDGE ( 'NONE', *, *, #124, .F. ) ;
#167 = STYLED_ITEM ( 'NONE', ( #70 ), #83 ) ;
#168 = LINE ( 'NONE', #114, #64 ) ;
#169 = ORIENTED_EDGE ( 'NONE', *, *, #91, .T. ) ;
#170 = CARTESIAN_POINT ( 'NONE',  ( 3.305475932715153396E-16, 0.09499999999999966804, 0.000000000000000000 ) ) ;
#171 = EDGE_LOOP ( 'NONE', ( #31, #96 ) ) ;
#172 = PRESENTATION_LAYER_ASSIGNMENT (  '', '', ( #272 ) ) ;
#173 =( CONVERSION_BASED_UNIT ( 'INCH', #219 ) LENGTH_UNIT ( ) NAMED_UNIT ( #279 ) );
#174 = MECHANICAL_DESIGN_GEOMETRIC_PRESENTATION_REPRESENTATION (  '', ( #205 ), #233 ) ;
#175 = ORIENTED_EDGE ( 'NONE', *, *, #124, .T. ) ;
#176 = ORIENTED_EDGE ( 'NONE', *, *, #25, .F. ) ;
#177 = DIRECTION ( 'NONE',  ( -1.119813943094168828E-16, 1.000000000000000000, -0.000000000000000000 ) ) ;
#178 = PRESENTATION_LAYER_ASSIGNMENT (  '', '', ( #198 ) ) ;
#179 = CARTESIAN_POINT ( 'NONE',  ( 8.114513699204969647E-34, -4.933917419010466879E-18, 0.000000000000000000 ) ) ;
#180 = LENGTH_MEASURE_WITH_UNIT ( LENGTH_MEASURE( 0.02539999999999999897 ), #85 );
#181 = CARTESIAN_POINT ( 'NONE',  ( -1.562407182686642119E-17, 0.09499999999999965417, 0.000000000000000000 ) ) ;
#182 = CARTESIAN_POINT ( 'NONE',  ( -0.1249999999999992922, 0.09499999999999965417, 0.000000000000000000 ) ) ;
#183 = SURFACE_SIDE_STYLE ('',( #69 ) ) ;
#184 = CARTESIAN_POINT ( 'NONE',  ( -0.02999999999999999889, -9.867834838020933759E-18, 0.000000000000000000 ) ) ;
#185 = CARTESIAN_POINT ( 'NONE',  ( 0.1249999999999998335, 2.500000000000000000, 1.530808498934188736E-17 ) ) ;
#186 = SURFACE_SIDE_STYLE ('',( #108 ) ) ;
#187 = DIRECTION ( 'NONE',  ( -1.119813943094168828E-16, 1.000000000000000000, -0.000000000000000000 ) ) ;
#188 = UNCERTAINTY_MEASURE_WITH_UNIT (LENGTH_MEASURE( 1.000000000000000082E-05 ), #263, 'distance_accuracy_value', 'NONE');
#189 = ORIENTED_EDGE ( 'NONE', *, *, #298, .F. ) ;
#190 = DIRECTION ( 'NONE',  ( -1.119813943094168828E-16, 1.000000000000000000, 0.000000000000000000 ) ) ;
#191 = EDGE_CURVE ( 'NONE', #118, #293, #153, .T. ) ;
#192 = ORIENTED_EDGE ( 'NONE', *, *, #4, .F. ) ;
#193 =( NAMED_UNIT ( * ) PLANE_ANGLE_UNIT ( ) SI_UNIT ( $, .RADIAN. ) );
#194 =( NAMED_UNIT ( * ) PLANE_ANGLE_UNIT ( ) SI_UNIT ( $, .RADIAN. ) );
#195 = PRESENTATION_LAYER_ASSIGNMENT (  '', '', ( #32 ) ) ;
#196 = PRODUCT_DEFINITION_CONTEXT ( 'detailed design', #38, 'design' ) ;
#197 = ORIENTED_EDGE ( 'NONE', *, *, #51, .T. ) ;
#198 = STYLED_ITEM ( 'NONE', ( #142 ), #269 ) ;
#199 = CARTESIAN_POINT ( 'NONE',  ( -0.1249999999999998335, 2.500000000000000000, 0.000000000000000000 ) ) ;
#200 = CIRCLE ( 'NONE', #106, 0.1249999999999996253 ) ;
#201 = DIRECTION ( 'NONE',  ( 1.644639139670155606E-16, -1.000000000000000000, -0.000000000000000000 ) ) ;
#202 = DIMENSIONAL_EXPONENTS ( 1.000000000000000000, 0.000000000000000000, 0.000000000000000000, 0.000000000000000000, 0.000000000000000000, 0.000000000000000000, 0.000000000000000000 ) ;
#203 = PRODUCT_DEFINITION_FORMATION_WITH_SPECIFIED_SOURCE ( 'ANY', '', #27, .NOT_KNOWN. ) ;
#204 = PLANE ( 'NONE',  #23 ) ;
#205 = STYLED_ITEM ( 'NONE', ( #226 ), #35 ) ;
#206 = CIRCLE ( 'NONE', #287, 0.02999999999999999889 ) ;
#207 =( LENGTH_UNIT ( ) NAMED_UNIT ( * ) SI_UNIT ( $, .METRE. ) );
#208 = SURFACE_STYLE_FILL_AREA ( #281 ) ;
#209 = FACE_OUTER_BOUND ( 'NONE', #240, .T. ) ;
#210 = ORIENTED_EDGE ( 'NONE', *, *, #105, .T. ) ;
#211 = MECHANICAL_DESIGN_GEOMETRIC_PRESENTATION_REPRESENTATION (  '', ( #266 ), #84 ) ;
#212 = CARTESIAN_POINT ( 'NONE',  ( 4.057256849602484823E-34, -2.466958709505233440E-18, 0.000000000000000000 ) ) ;
#213 = AXIS2_PLACEMENT_3D ( 'NONE', #148, #132, #244 ) ;
#214 = EDGE_LOOP ( 'NONE', ( #176, #169, #210, #306 ) ) ;
#215 = LENGTH_MEASURE_WITH_UNIT ( LENGTH_MEASURE( 0.02539999999999999897 ), #304 );
#216 = PRODUCT_DEFINITION_SHAPE ( 'NONE', 'NONE',  #308 ) ;
#217 = ORIENTED_EDGE ( 'NONE', *, *, #120, .T. ) ;
#218 = COLOUR_RGB ( '',0.7921568627450980005, 0.8196078431372548767, 0.9333333333333333481 ) ;
#219 = LENGTH_MEASURE_WITH_UNIT ( LENGTH_MEASURE( 0.02539999999999999897 ), #28 );
#220 = CYLINDRICAL_SURFACE ( 'NONE', #236, 0.1249999999999997641 ) ;
#221 = DIRECTION ( 'NONE',  ( -1.119813943094168828E-16, 1.000000000000000000, -0.000000000000000000 ) ) ;
#222 = DIRECTION ( 'NONE',  ( -1.644639139670155606E-16, 1.000000000000000000, 0.000000000000000000 ) ) ;
#223 = SURFACE_STYLE_USAGE ( .BOTH. , #82 ) ;
#224 = AXIS2_PLACEMENT_3D ( 'NONE', #158, #187, #42 ) ;
#225 = PRESENTATION_STYLE_ASSIGNMENT (( #302 ) ) ;
#226 = PRESENTATION_STYLE_ASSIGNMENT (( #223 ) ) ;
#227 = CARTESIAN_POINT ( 'NONE',  ( 8.114513699204969647E-34, -4.933917419010466879E-18, 0.000000000000000000 ) ) ;
#228 = CARTESIAN_POINT ( 'NONE',  ( -1.562407182686641811E-17, 0.09499999999999961253, 0.000000000000000000 ) ) ;
#229 = DIRECTION ( 'NONE',  ( 1.000000000000000000, 1.365923996832131856E-16, 0.000000000000000000 ) ) ;
#230 = ORIENTED_EDGE ( 'NONE', *, *, #298, .T. ) ;
#231 = VECTOR ( 'NONE', #247, 39.37007874015748854 ) ;
#232 = LENGTH_MEASURE_WITH_UNIT ( LENGTH_MEASURE( 0.02539999999999999897 ), #289 );
#233 =( GEOMETRIC_REPRESENTATION_CONTEXT ( 3 ) GLOBAL_UNCERTAINTY_ASSIGNED_CONTEXT ( ( #3 ) ) GLOBAL_UNIT_ASSIGNED_CONTEXT ( ( #273, #65, #104 ) ) REPRESENTATION_CONTEXT ( 'NONE', 'WORKASPACE' ) );
#234 = LENGTH_MEASURE_WITH_UNIT ( LENGTH_MEASURE( 0.02539999999999999897 ), #207 );
#235 = ORIENTED_EDGE ( 'NONE', *, *, #191, .T. ) ;
#236 = AXIS2_PLACEMENT_3D ( 'NONE', #88, #177, #151 ) ;
#237 = AXIS2_PLACEMENT_3D ( 'NONE', #271, #58, #9 ) ;
#238 = VERTEX_POINT ( 'NONE', #182 ) ;
#239 = ADVANCED_FACE ( 'NONE', ( #63 ), #204, .T. ) ;
#240 = EDGE_LOOP ( 'NONE', ( #268, #217 ) ) ;
#241 = SURFACE_STYLE_FILL_AREA ( #129 ) ;
#242 = AXIS2_PLACEMENT_3D ( 'NONE', #262, #15, #229 ) ;
#243 = CLOSED_SHELL ( 'NONE', ( #160, #83, #35, #239 ) ) ;
#244 = DIRECTION ( 'NONE',  ( 1.000000000000000000, 1.644639139670155606E-16, 0.000000000000000000 ) ) ;
#245 =( LENGTH_UNIT ( ) NAMED_UNIT ( * ) SI_UNIT ( $, .METRE. ) );
#246 = CARTESIAN_POINT ( 'NONE',  ( 0.02999999999999999889, 0.000000000000000000, 9.491012693391986370E-18 ) ) ;
#247 = DIRECTION ( 'NONE',  ( -0.7071067811865487940, 0.7071067811865461294, 0.000000000000000000 ) ) ;
#248 = DIRECTION ( 'NONE',  ( -1.119813943094168828E-16, 1.000000000000000000, -0.000000000000000000 ) ) ;
#249 = PRESENTATION_LAYER_ASSIGNMENT (  '', '', ( #266 ) ) ;
#250 = FILL_AREA_STYLE_COLOUR ( '', #79 ) ;
#251 = SHAPE_DEFINITION_REPRESENTATION ( #216, #56 ) ;
#252 = DIRECTION ( 'NONE',  ( 0.7071067811865486830, 0.7071067811865464625, 8.659560562354948882E-17 ) ) ;
#253 = FILL_AREA_STYLE ('',( #128 ) ) ;
#254 =( CONVERSION_BASED_UNIT ( 'INCH', #215 ) LENGTH_UNIT ( ) NAMED_UNIT ( #66 ) );
#255 = APPLICATION_PROTOCOL_DEFINITION ( 'draft international standard', 'automotive_design', 1998, #146 ) ;
#256 = CONICAL_SURFACE ( 'NONE', #49, 0.02999999999999999889, 0.7853981633974500554 ) ;
#257 = FILL_AREA_STYLE_COLOUR ( '', #218 ) ;
#258 = PRODUCT_RELATED_PRODUCT_CATEGORY ( 'part', '', ( #27 ) ) ;
#259 = FILL_AREA_STYLE ('',( #257 ) ) ;
#260 = FACE_OUTER_BOUND ( 'NONE', #171, .T. ) ;
#261 = EDGE_LOOP ( 'NONE', ( #5, #102, #235, #103 ) ) ;
#262 = CARTESIAN_POINT ( 'NONE',  ( -1.562407182686642119E-17, 0.09499999999999965417, 0.000000000000000000 ) ) ;
#263 =( CONVERSION_BASED_UNIT ( 'INCH', #232 ) LENGTH_UNIT ( ) NAMED_UNIT ( #57 ) );
#264 = CARTESIAN_POINT ( 'NONE',  ( 0.1249999999999999584, 0.09499999999999966804, 1.530808498934191201E-17 ) ) ;
#265 = DIRECTION ( 'NONE',  ( -1.119813943094168828E-16, 1.000000000000000000, -0.000000000000000000 ) ) ;
#266 = STYLED_ITEM ( 'NONE', ( #225 ), #160 ) ;
#267 = ADVANCED_FACE ( 'NONE', ( #161 ), #2, .F. ) ;
#268 = ORIENTED_EDGE ( 'NONE', *, *, #18, .T. ) ;
#269 = MANIFOLD_SOLID_BREP ( 'Revolve - Tool Body (Tipped Off)', #50 ) ;
#270 = MECHANICAL_DESIGN_GEOMETRIC_PRESENTATION_REPRESENTATION (  '', ( #167 ), #154 ) ;
#271 = CARTESIAN_POINT ( 'NONE',  ( 8.114513699204969647E-34, -4.933917419010466879E-18, 0.000000000000000000 ) ) ;
#272 = STYLED_ITEM ( 'NONE', ( #12 ), #159 ) ;
#273 =( CONVERSION_BASED_UNIT ( 'INCH', #86 ) LENGTH_UNIT ( ) NAMED_UNIT ( #202 ) );
#274 = FILL_AREA_STYLE_COLOUR ( '', #301 ) ;
#275 = DIRECTION ( 'NONE',  ( 1.644639139670155606E-16, -1.000000000000000000, -0.000000000000000000 ) ) ;
#276 = CARTESIAN_POINT ( 'NONE',  ( 6.123233995736772199E-17, 2.500000000000000000, 0.000000000000000000 ) ) ;
#277 =( NAMED_UNIT ( * ) SI_UNIT ( $, .STERADIAN. ) SOLID_ANGLE_UNIT ( ) );
#278 = DIRECTION ( 'NONE',  ( -1.000000000000000000, 0.000000000000000000, 0.000000000000000000 ) ) ;
#279 = DIMENSIONAL_EXPONENTS ( 1.000000000000000000, 0.000000000000000000, 0.000000000000000000, 0.000000000000000000, 0.000000000000000000, 0.000000000000000000, 0.000000000000000000 ) ;
#280 = PLANE ( 'NONE',  #305 ) ;
#281 = FILL_AREA_STYLE ('',( #307 ) ) ;
#282 = PRODUCT_CONTEXT ( 'NONE', #146, 'mechanical' ) ;
#283 = UNCERTAINTY_MEASURE_WITH_UNIT (LENGTH_MEASURE( 1.000000000000000082E-05 ), #13, 'distance_accuracy_value', 'NONE');
#284 =( GEOMETRIC_REPRESENTATION_CONTEXT ( 3 ) GLOBAL_UNCERTAINTY_ASSIGNED_CONTEXT ( ( #163 ) ) GLOBAL_UNIT_ASSIGNED_CONTEXT ( ( #173, #81, #90 ) ) REPRESENTATION_CONTEXT ( 'NONE', 'WORKASPACE' ) );
#285 = AXIS2_PLACEMENT_3D ( 'NONE', #170, #190, #164 ) ;
#286 = PLANE ( 'NONE',  #10 ) ;
#287 = AXIS2_PLACEMENT_3D ( 'NONE', #179, #201, #152 ) ;
#288 = ORIENTED_EDGE ( 'NONE', *, *, #18, .F. ) ;
#289 =( LENGTH_UNIT ( ) NAMED_UNIT ( * ) SI_UNIT ( $, .METRE. ) );
#290 = CIRCLE ( 'NONE', #150, 0.1249999999999999029 ) ;
#291 = ORIENTED_EDGE ( 'NONE', *, *, #72, .T. ) ;
#292 =( GEOMETRIC_REPRESENTATION_CONTEXT ( 3 ) GLOBAL_UNCERTAINTY_ASSIGNED_CONTEXT ( ( #95 ) ) GLOBAL_UNIT_ASSIGNED_CONTEXT ( ( #140, #193, #121 ) ) REPRESENTATION_CONTEXT ( 'NONE', 'WORKASPACE' ) );
#293 = VERTEX_POINT ( 'NONE', #1 ) ;
#294 = DIMENSIONAL_EXPONENTS ( 1.000000000000000000, 0.000000000000000000, 0.000000000000000000, 0.000000000000000000, 0.000000000000000000, 0.000000000000000000, 0.000000000000000000 ) ;
#295 = FACE_OUTER_BOUND ( 'NONE', #6, .T. ) ;
#296 = COLOUR_RGB ( '',0.7921568627450980005, 0.8196078431372548767, 0.9333333333333333481 ) ;
#297 = DIRECTION ( 'NONE',  ( 1.000000000000000000, 0.000000000000000000, 0.000000000000000000 ) ) ;
#298 = EDGE_CURVE ( 'NONE', #144, #238, #200, .T. ) ;
#299 =( LENGTH_UNIT ( ) NAMED_UNIT ( * ) SI_UNIT ( $, .METRE. ) );
#300 = SURFACE_SIDE_STYLE ('',( #113 ) ) ;
#301 = COLOUR_RGB ( '',1.000000000000000000, 0.000000000000000000, 0.000000000000000000 ) ;
#302 = SURFACE_STYLE_USAGE ( .BOTH. , #186 ) ;
#303 = DIRECTION ( 'NONE',  ( -1.119813943094168828E-16, 1.000000000000000000, -0.000000000000000000 ) ) ;
#304 =( LENGTH_UNIT ( ) NAMED_UNIT ( * ) SI_UNIT ( $, .METRE. ) );
#305 = AXIS2_PLACEMENT_3D ( 'NONE', #228, #76, #138 ) ;
#306 = ORIENTED_EDGE ( 'NONE', *, *, #191, .F. ) ;
#307 = FILL_AREA_STYLE_COLOUR ( '', #100 ) ;
#308 = PRODUCT_DEFINITION ( 'UNKNOWN', '', #203, #196 ) ;
#309 = DIRECTION ( 'NONE',  ( -1.119813943094168828E-16, 1.000000000000000000, -0.000000000000000000 ) ) ;
ENDSEC;
END-ISO-10303-21;
