ISO-10303-21;
HEADER;
FILE_DESCRIPTION (( 'STEP AP214' ),
    '1' );
FILE_NAME ('Micro_SME-007-2.STEP',
    '2021-09-02T09:41:27',
    ( '' ),
    ( '' ),
    'SwSTEP 2.0',
    'SolidWorks 2020',
    '' );
FILE_SCHEMA (( 'AUTOMOTIVE_DESIGN' ));
ENDSEC;

DATA;
#1 =( NAMED_UNIT ( * ) SI_UNIT ( $, .STERADIAN. ) SOLID_ANGLE_UNIT ( ) );
#2 = VERTEX_POINT ( 'NONE', #44 ) ;
#3 = MECHANICAL_DESIGN_GEOMETRIC_PRESENTATION_REPRESENTATION (  '', ( #106 ), #278 ) ;
#4 = LINE ( 'NONE', #89, #157 ) ;
#5 = CARTESIAN_POINT ( 'NONE',  ( 0.0000000000000000000, 0.0000000000000000000, 1.500000000000000222 ) ) ;
#6 = DIRECTION ( 'NONE',  ( 0.0000000000000000000, 0.0000000000000000000, 1.000000000000000000 ) ) ;
#7 = DIRECTION ( 'NONE',  ( 1.000000000000000000, 0.0000000000000000000, 0.0000000000000000000 ) ) ;
#8 = DIRECTION ( 'NONE',  ( -0.0000000000000000000, -0.0000000000000000000, -1.000000000000000000 ) ) ;
#9 = EDGE_CURVE ( 'NONE', #248, #206, #22, .T. ) ;
#10 = DIRECTION ( 'NONE',  ( -0.0000000000000000000, -0.0000000000000000000, -1.000000000000000000 ) ) ;
#11 = PRESENTATION_LAYER_ASSIGNMENT (  '', '', ( #106 ) ) ;
#12 = LENGTH_MEASURE_WITH_UNIT ( LENGTH_MEASURE( 0.02539999999999999897 ), #218 );
#13 = CLOSED_SHELL ( 'NONE', ( #148, #168, #267, #98, #280, #138, #74, #244, #114, #195 ) ) ;
#14 =( NAMED_UNIT ( * ) SI_UNIT ( $, .STERADIAN. ) SOLID_ANGLE_UNIT ( ) );
#15 = DIRECTION ( 'NONE',  ( 1.000000000000000000, 0.0000000000000000000, 0.0000000000000000000 ) ) ;
#16 = CIRCLE ( 'NONE', #265, 0.003496500000000003511 ) ;
#17 = CARTESIAN_POINT ( 'NONE',  ( 0.04750000000000064587, 5.817072295950006528E-18, 1.500000000000000222 ) ) ;
#18 = ORIENTED_EDGE ( 'NONE', *, *, #62, .T. ) ;
#19 = EDGE_CURVE ( 'NONE', #282, #2, #4, .T. ) ;
#20 = DIRECTION ( 'NONE',  ( 1.000000000000000000, 0.0000000000000000000, 0.0000000000000000000 ) ) ;
#21 = ORIENTED_EDGE ( 'NONE', *, *, #9, .T. ) ;
#22 = LINE ( 'NONE', #209, #279 ) ;
#23 = ORIENTED_EDGE ( 'NONE', *, *, #32, .F. ) ;
#24 = EDGE_LOOP ( 'NONE', ( #185, #67, #144, #46 ) ) ;
#25 = VERTEX_POINT ( 'NONE', #189 ) ;
#26 = STYLED_ITEM ( 'NONE', ( #246 ), #276 ) ;
#27 = CARTESIAN_POINT ( 'NONE',  ( -0.06250000000000002776, 0.0000000000000000000, 1.500000000000000222 ) ) ;
#28 = DIRECTION ( 'NONE',  ( -1.000000000000000000, 0.0000000000000000000, 1.224646799147353700E-16 ) ) ;
#29 = CARTESIAN_POINT ( 'NONE',  ( 4.220444871214045189E-17, 0.0000000000000000000, 0.3446254768438118399 ) ) ;
#30 = DIRECTION ( 'NONE',  ( -1.000000000000000000, 0.0000000000000000000, 1.224646799147353700E-16 ) ) ;
#31 = AXIS2_PLACEMENT_3D ( 'NONE', #76, #50, #120 ) ;
#32 = EDGE_CURVE ( 'NONE', #207, #204, #272, .T. ) ;
#33 = LINE ( 'NONE', #96, #48 ) ;
#34 = CARTESIAN_POINT ( 'NONE',  ( 0.003496500000000000476, 0.0000000000000000000, 0.01000000000000000021 ) ) ;
#35 =( NAMED_UNIT ( * ) PLANE_ANGLE_UNIT ( ) SI_UNIT ( $, .RADIAN. ) );
#36 = DIRECTION ( 'NONE',  ( 1.000000000000000000, 0.0000000000000000000, 0.0000000000000000000 ) ) ;
#37 = DIRECTION ( 'NONE',  ( -1.000000000000000000, 0.0000000000000000000, 0.0000000000000000000 ) ) ;
#38 = EDGE_CURVE ( 'NONE', #2, #206, #175, .T. ) ;
#39 = ORIENTED_EDGE ( 'NONE', *, *, #289, .F. ) ;
#40 = VERTEX_POINT ( 'NONE', #298 ) ;
#41 = APPLICATION_PROTOCOL_DEFINITION ( 'draft international standard', 'automotive_design', 1998, #212 ) ;
#42 = ORIENTED_EDGE ( 'NONE', *, *, #38, .F. ) ;
#43 = AXIS2_PLACEMENT_3D ( 'NONE', #211, #256, #30 ) ;
#44 = CARTESIAN_POINT ( 'NONE',  ( 0.06250000000000006939, 7.654042494670963708E-18, 0.3446254768438118399 ) ) ;
#45 = CARTESIAN_POINT ( 'NONE',  ( 0.0000000000000000000, 0.0000000000000000000, 0.0000000000000000000 ) ) ;
#46 = ORIENTED_EDGE ( 'NONE', *, *, #172, .F. ) ;
#47 = DIRECTION ( 'NONE',  ( -1.224646799147353700E-16, -0.0000000000000000000, -1.000000000000000000 ) ) ;
#48 = VECTOR ( 'NONE', #197, 39.37007874015748143 ) ;
#49 = CIRCLE ( 'NONE', #109, 0.06250000000000002776 ) ;
#50 = DIRECTION ( 'NONE',  ( 0.0000000000000000000, 0.0000000000000000000, 1.000000000000000000 ) ) ;
#51 = DIRECTION ( 'NONE',  ( -1.224646799147353700E-16, -0.0000000000000000000, -1.000000000000000000 ) ) ;
#52 = PLANE ( 'NONE',  #146 ) ;
#53 = PLANE ( 'NONE',  #68 ) ;
#54 = AXIS2_PLACEMENT_3D ( 'NONE', #171, #123, #7 ) ;
#55 = FILL_AREA_STYLE ('',( #77 ) ) ;
#56 = UNCERTAINTY_MEASURE_WITH_UNIT (LENGTH_MEASURE( 1.000000000000000082E-05 ), #61, 'distance_accuracy_value', 'NONE');
#57 = DIRECTION ( 'NONE',  ( 1.224646799147353700E-16, 0.0000000000000000000, 1.000000000000000000 ) ) ;
#58 =( NAMED_UNIT ( * ) SI_UNIT ( $, .STERADIAN. ) SOLID_ANGLE_UNIT ( ) );
#59 = AXIS2_PLACEMENT_3D ( 'NONE', #258, #142, #95 ) ;
#60 = CARTESIAN_POINT ( 'NONE',  ( -0.003496499999999998307, 4.041120123996416021E-18, 0.01000000000000000021 ) ) ;
#61 =( CONVERSION_BASED_UNIT ( 'INCH', #262 ) LENGTH_UNIT ( ) NAMED_UNIT ( #174 ) );
#62 = EDGE_CURVE ( 'NONE', #204, #2, #85, .T. ) ;
#63 = PRODUCT_DEFINITION_SHAPE ( 'NONE', 'NONE',  #233 ) ;
#64 = DIRECTION ( 'NONE',  ( 0.0000000000000000000, 0.0000000000000000000, -1.000000000000000000 ) ) ;
#65 = FILL_AREA_STYLE ('',( #181 ) ) ;
#66 = DIRECTION ( 'NONE',  ( -0.0000000000000000000, -0.0000000000000000000, -1.000000000000000000 ) ) ;
#67 = ORIENTED_EDGE ( 'NONE', *, *, #179, .T. ) ;
#68 = AXIS2_PLACEMENT_3D ( 'NONE', #261, #6, #147 ) ;
#69 = EDGE_LOOP ( 'NONE', ( #133, #18, #186, #224 ) ) ;
#70 = CARTESIAN_POINT ( 'NONE',  ( 0.0000000000000000000, 0.0000000000000000000, 1.485000000000000764 ) ) ;
#71 = DIRECTION ( 'NONE',  ( -1.224646799147353700E-16, -0.0000000000000000000, -1.000000000000000000 ) ) ;
#72 = EDGE_LOOP ( 'NONE', ( #39, #134, #111, #139 ) ) ;
#73 = FACE_OUTER_BOUND ( 'NONE', #24, .T. ) ;
#74 = ADVANCED_FACE ( 'NONE', ( #234 ), #167, .T. ) ;
#75 = DIRECTION ( 'NONE',  ( -1.000000000000000000, 0.0000000000000000000, 1.224646799147353700E-16 ) ) ;
#76 = CARTESIAN_POINT ( 'NONE',  ( 0.0000000000000000000, 0.0000000000000000000, 1.500000000000000222 ) ) ;
#77 = FILL_AREA_STYLE_COLOUR ( '', #166 ) ;
#78 = PRESENTATION_STYLE_ASSIGNMENT (( #198 ) ) ;
#79 = AXIS2_PLACEMENT_3D ( 'NONE', #118, #230, #213 ) ;
#80 = PRESENTATION_LAYER_ASSIGNMENT (  '', '', ( #26 ) ) ;
#81 = CARTESIAN_POINT ( 'NONE',  ( 0.0000000000000000000, 0.0000000000000000000, 1.500000000000000222 ) ) ;
#82 =( LENGTH_UNIT ( ) NAMED_UNIT ( * ) SI_UNIT ( $, .METRE. ) );
#83 =( NAMED_UNIT ( * ) PLANE_ANGLE_UNIT ( ) SI_UNIT ( $, .RADIAN. ) );
#84 = VERTEX_POINT ( 'NONE', #216 ) ;
#85 = LINE ( 'NONE', #184, #176 ) ;
#86 = EDGE_LOOP ( 'NONE', ( #163, #208, #23, #260 ) ) ;
#87 = ORIENTED_EDGE ( 'NONE', *, *, #172, .T. ) ;
#88 = EDGE_CURVE ( 'NONE', #207, #206, #287, .T. ) ;
#89 = CARTESIAN_POINT ( 'NONE',  ( 0.003496500000000000476, 0.0000000000000000000, 0.01000000000000000021 ) ) ;
#90 = DIRECTION ( 'NONE',  ( -1.000000000000000000, 0.0000000000000000000, 0.0000000000000000000 ) ) ;
#91 = CARTESIAN_POINT ( 'NONE',  ( 0.003496500000000003511, 4.281977533218723780E-19, 5.923751059261921468E-35 ) ) ;
#92 = AXIS2_PLACEMENT_3D ( 'NONE', #81, #102, #223 ) ;
#93 = AXIS2_PLACEMENT_3D ( 'NONE', #165, #117, #75 ) ;
#94 = FACE_OUTER_BOUND ( 'NONE', #269, .T. ) ;
#95 = DIRECTION ( 'NONE',  ( -1.000000000000000000, 0.0000000000000000000, 0.0000000000000000000 ) ) ;
#96 = CARTESIAN_POINT ( 'NONE',  ( 0.003496500000000001343, 4.281977533218722336E-19, -4.281977533218723780E-19 ) ) ;
#97 = VECTOR ( 'NONE', #103, 39.37007874015748854 ) ;
#98 = ADVANCED_FACE ( 'NONE', ( #191 ), #143, .T. ) ;
#99 = CARTESIAN_POINT ( 'NONE',  ( 1.224646799147353770E-18, 0.0000000000000000000, 0.01000000000000000021 ) ) ;
#100 = SURFACE_STYLE_FILL_AREA ( #55 ) ;
#101 = EDGE_CURVE ( 'NONE', #248, #84, #259, .T. ) ;
#102 = DIRECTION ( 'NONE',  ( -0.0000000000000000000, -0.0000000000000000000, -1.000000000000000000 ) ) ;
#103 = DIRECTION ( 'NONE',  ( 0.7071067811865462405, 8.659560562354916834E-17, -0.7071067811865486830 ) ) ;
#104 = PRODUCT ( 'Micro_SME-007-2', 'Micro_SME-007-2', '', ( #136 ) ) ;
#105 = EDGE_LOOP ( 'NONE', ( #285, #21, #247, #225 ) ) ;
#106 = STYLED_ITEM ( 'NONE', ( #78 ), #274 ) ;
#107 = DIRECTION ( 'NONE',  ( 1.000000000000000000, 0.0000000000000000000, 0.0000000000000000000 ) ) ;
#108 = EDGE_CURVE ( 'NONE', #206, #2, #49, .T. ) ;
#109 = AXIS2_PLACEMENT_3D ( 'NONE', #29, #71, #140 ) ;
#110 = APPLICATION_PROTOCOL_DEFINITION ( 'draft international standard', 'automotive_design', 1998, #240 ) ;
#111 = ORIENTED_EDGE ( 'NONE', *, *, #254, .T. ) ;
#112 = LENGTH_MEASURE_WITH_UNIT ( LENGTH_MEASURE( 0.02539999999999999897 ), #82 );
#113 = ORIENTED_EDGE ( 'NONE', *, *, #229, .T. ) ;
#114 = ADVANCED_FACE ( 'NONE', ( #73 ), #194, .T. ) ;
#115 = ORIENTED_EDGE ( 'NONE', *, *, #205, .T. ) ;
#116 = ORIENTED_EDGE ( 'NONE', *, *, #38, .T. ) ;
#117 = DIRECTION ( 'NONE',  ( -1.224646799147353700E-16, -0.0000000000000000000, -1.000000000000000000 ) ) ;
#118 = CARTESIAN_POINT ( 'NONE',  ( 1.224646799147353770E-18, 0.0000000000000000000, 0.01000000000000000021 ) ) ;
#119 = EDGE_CURVE ( 'NONE', #248, #282, #193, .T. ) ;
#120 = DIRECTION ( 'NONE',  ( 1.000000000000000000, 0.0000000000000000000, 0.0000000000000000000 ) ) ;
#121 = AXIS2_PLACEMENT_3D ( 'NONE', #238, #243, #36 ) ;
#122 = AXIS2_PLACEMENT_3D ( 'NONE', #5, #284, #90 ) ;
#123 = DIRECTION ( 'NONE',  ( 1.224646799147353700E-16, 0.0000000000000000000, 1.000000000000000000 ) ) ;
#124 = CARTESIAN_POINT ( 'NONE',  ( 0.0000000000000000000, 0.0000000000000000000, 1.500000000000000222 ) ) ;
#125 = PRODUCT_RELATED_PRODUCT_CATEGORY ( 'part', '', ( #104 ) ) ;
#126 = AXIS2_PLACEMENT_3D ( 'NONE', #190, #10, #164 ) ;
#127 = DIRECTION ( 'NONE',  ( 0.0000000000000000000, 0.0000000000000000000, -1.000000000000000000 ) ) ;
#128 = EDGE_CURVE ( 'NONE', #84, #202, #161, .T. ) ;
#129 = DIRECTION ( 'NONE',  ( 1.000000000000000000, 0.0000000000000000000, 0.0000000000000000000 ) ) ;
#130 = CIRCLE ( 'NONE', #266, 0.06250000000000002776 ) ;
#131 = CYLINDRICAL_SURFACE ( 'NONE', #92, 0.06250000000000002776 ) ;
#132 = CARTESIAN_POINT ( 'NONE',  ( 4.220444871214045189E-17, 0.0000000000000000000, 0.3446254768438118399 ) ) ;
#133 = ORIENTED_EDGE ( 'NONE', *, *, #32, .T. ) ;
#134 = ORIENTED_EDGE ( 'NONE', *, *, #159, .F. ) ;
#135 = CIRCLE ( 'NONE', #31, 0.04750000000000064587 ) ;
#136 = PRODUCT_CONTEXT ( 'NONE', #212, 'mechanical' ) ;
#137 = EDGE_LOOP ( 'NONE', ( #253, #115, #227, #182 ) ) ;
#138 = ADVANCED_FACE ( 'NONE', ( #283 ), #52, .T. ) ;
#139 = ORIENTED_EDGE ( 'NONE', *, *, #229, .F. ) ;
#140 = DIRECTION ( 'NONE',  ( 1.000000000000000000, 0.0000000000000000000, 0.0000000000000000000 ) ) ;
#141 = PRODUCT_DEFINITION_FORMATION_WITH_SPECIFIED_SOURCE ( 'ANY', '', #104, .NOT_KNOWN. ) ;
#142 = DIRECTION ( 'NONE',  ( -1.224646799147353700E-16, -0.0000000000000000000, -1.000000000000000000 ) ) ;
#143 = CYLINDRICAL_SURFACE ( 'NONE', #126, 0.06250000000000002776 ) ;
#144 = ORIENTED_EDGE ( 'NONE', *, *, #101, .T. ) ;
#145 = CARTESIAN_POINT ( 'NONE',  ( -0.003496500000000001343, 0.0000000000000000000, 4.281977533218723780E-19 ) ) ;
#146 = AXIS2_PLACEMENT_3D ( 'NONE', #124, #196, #232 ) ;
#147 = DIRECTION ( 'NONE',  ( 1.000000000000000000, 0.0000000000000000000, -0.0000000000000000000 ) ) ;
#148 = ADVANCED_FACE ( 'NONE', ( #215 ), #217, .T. ) ;
#149 = FACE_OUTER_BOUND ( 'NONE', #226, .T. ) ;
#150 =( LENGTH_UNIT ( ) NAMED_UNIT ( * ) SI_UNIT ( $, .METRE. ) );
#151 = DIRECTION ( 'NONE',  ( -0.7071067811865462405, 0.0000000000000000000, -0.7071067811865486830 ) ) ;
#152 = LINE ( 'NONE', #221, #241 ) ;
#153 = DIMENSIONAL_EXPONENTS ( 1.000000000000000000, 0.0000000000000000000, 0.0000000000000000000, 0.0000000000000000000, 0.0000000000000000000, 0.0000000000000000000, 0.0000000000000000000 ) ;
#154 = DIRECTION ( 'NONE',  ( 0.0000000000000000000, 0.0000000000000000000, 1.000000000000000000 ) ) ;
#155 = DIRECTION ( 'NONE',  ( -1.224646799147353700E-16, -0.0000000000000000000, -1.000000000000000000 ) ) ;
#156 = ORIENTED_EDGE ( 'NONE', *, *, #128, .T. ) ;
#157 = VECTOR ( 'NONE', #273, 39.37007874015748143 ) ;
#158 = CONICAL_SURFACE ( 'NONE', #235, 0.003496499999999999175, 0.1745329251994338915 ) ;
#159 = EDGE_CURVE ( 'NONE', #40, #25, #135, .T. ) ;
#160 = ORIENTED_EDGE ( 'NONE', *, *, #62, .F. ) ;
#161 = CIRCLE ( 'NONE', #93, 0.003496500000000003511 ) ;
#162 = SURFACE_SIDE_STYLE ('',( #295 ) ) ;
#163 = ORIENTED_EDGE ( 'NONE', *, *, #263, .F. ) ;
#164 = DIRECTION ( 'NONE',  ( -1.000000000000000000, 0.0000000000000000000, 0.0000000000000000000 ) ) ;
#165 = CARTESIAN_POINT ( 'NONE',  ( 5.243910080077195101E-35, 0.0000000000000000000, 4.281977533218726669E-19 ) ) ;
#166 = COLOUR_RGB ( '',0.7921568627450980005, 0.8196078431372548767, 0.9333333333333333481 ) ;
#167 = CONICAL_SURFACE ( 'NONE', #122, 0.04750000000000064587, 0.7853981633974466137 ) ;
#168 = ADVANCED_FACE ( 'NONE', ( #255 ), #188, .T. ) ;
#169 = CARTESIAN_POINT ( 'NONE',  ( 0.0000000000000000000, 0.0000000000000000000, 0.0000000000000000000 ) ) ;
#170 = DIRECTION ( 'NONE',  ( -1.224646799147353700E-16, -0.0000000000000000000, -1.000000000000000000 ) ) ;
#171 = CARTESIAN_POINT ( 'NONE',  ( 1.224646799147353770E-18, 0.0000000000000000000, 0.01000000000000000021 ) ) ;
#172 = EDGE_CURVE ( 'NONE', #202, #84, #16, .T. ) ;
#173 =( CONVERSION_BASED_UNIT ( 'INCH', #12 ) LENGTH_UNIT ( ) NAMED_UNIT ( #153 ) );
#174 = DIMENSIONAL_EXPONENTS ( 1.000000000000000000, 0.0000000000000000000, 0.0000000000000000000, 0.0000000000000000000, 0.0000000000000000000, 0.0000000000000000000, 0.0000000000000000000 ) ;
#175 = CIRCLE ( 'NONE', #236, 0.06250000000000002776 ) ;
#176 = VECTOR ( 'NONE', #66, 39.37007874015748143 ) ;
#177 =( NAMED_UNIT ( * ) PLANE_ANGLE_UNIT ( ) SI_UNIT ( $, .RADIAN. ) );
#178 = LINE ( 'NONE', #17, #97 ) ;
#179 = EDGE_CURVE ( 'NONE', #282, #248, #214, .T. ) ;
#180 =( GEOMETRIC_REPRESENTATION_CONTEXT ( 3 ) GLOBAL_UNCERTAINTY_ASSIGNED_CONTEXT ( ( #290 ) ) GLOBAL_UNIT_ASSIGNED_CONTEXT ( ( #173, #35, #58 ) ) REPRESENTATION_CONTEXT ( 'NONE', 'WORKASPACE' ) );
#181 = FILL_AREA_STYLE_COLOUR ( '', #222 ) ;
#182 = ORIENTED_EDGE ( 'NONE', *, *, #101, .F. ) ;
#183 = SHAPE_DEFINITION_REPRESENTATION ( #63, #276 ) ;
#184 = CARTESIAN_POINT ( 'NONE',  ( 0.06250000000000002776, 7.654042494670959086E-18, 1.500000000000000222 ) ) ;
#185 = ORIENTED_EDGE ( 'NONE', *, *, #205, .F. ) ;
#186 = ORIENTED_EDGE ( 'NONE', *, *, #108, .F. ) ;
#187 = ORIENTED_EDGE ( 'NONE', *, *, #9, .F. ) ;
#188 = CONICAL_SURFACE ( 'NONE', #54, 0.003496499999999999175, 0.1745329251994338915 ) ;
#189 = CARTESIAN_POINT ( 'NONE',  ( 0.04750000000000064587, 6.735557395310483192E-18, 1.500000000000000222 ) ) ;
#190 = CARTESIAN_POINT ( 'NONE',  ( 0.0000000000000000000, 0.0000000000000000000, 1.500000000000000222 ) ) ;
#191 = FACE_OUTER_BOUND ( 'NONE', #69, .T. ) ;
#192 = CIRCLE ( 'NONE', #121, 0.04750000000000064587 ) ;
#193 = CIRCLE ( 'NONE', #59, 0.003496499999999999175 ) ;
#194 = CYLINDRICAL_SURFACE ( 'NONE', #293, 0.003496500000000001343 ) ;
#195 = ADVANCED_FACE ( 'NONE', ( #94 ), #53, .F. ) ;
#196 = DIRECTION ( 'NONE',  ( 0.0000000000000000000, 0.0000000000000000000, 1.000000000000000000 ) ) ;
#197 = DIRECTION ( 'NONE',  ( -1.224646799147353700E-16, -0.0000000000000000000, -1.000000000000000000 ) ) ;
#198 = SURFACE_STYLE_USAGE ( .BOTH. , #270 ) ;
#199 = UNCERTAINTY_MEASURE_WITH_UNIT (LENGTH_MEASURE( 1.000000000000000082E-05 ), #252, 'distance_accuracy_value', 'NONE');
#200 = VECTOR ( 'NONE', #47, 39.37007874015748143 ) ;
#201 = CARTESIAN_POINT ( 'NONE',  ( -0.06250000000000002776, 0.0000000000000000000, 1.485000000000000764 ) ) ;
#202 = VERTEX_POINT ( 'NONE', #91 ) ;
#203 = AXIS2_PLACEMENT_3D ( 'NONE', #70, #64, #275 ) ;
#204 = VERTEX_POINT ( 'NONE', #237 ) ;
#205 = EDGE_CURVE ( 'NONE', #282, #202, #33, .T. ) ;
#206 = VERTEX_POINT ( 'NONE', #288 ) ;
#207 = VERTEX_POINT ( 'NONE', #201 ) ;
#208 = ORIENTED_EDGE ( 'NONE', *, *, #289, .T. ) ;
#209 = CARTESIAN_POINT ( 'NONE',  ( -0.003496499999999998307, 4.281977533218719928E-19, 0.01000000000000000021 ) ) ;
#210 = ORIENTED_EDGE ( 'NONE', *, *, #179, .F. ) ;
#211 = CARTESIAN_POINT ( 'NONE',  ( 0.0000000000000000000, 0.0000000000000000000, 0.0000000000000000000 ) ) ;
#212 = APPLICATION_CONTEXT ( 'automotive_design' ) ;
#213 = DIRECTION ( 'NONE',  ( -1.000000000000000000, 0.0000000000000000000, 0.0000000000000000000 ) ) ;
#214 = CIRCLE ( 'NONE', #79, 0.003496499999999999175 ) ;
#215 = FACE_OUTER_BOUND ( 'NONE', #137, .T. ) ;
#216 = CARTESIAN_POINT ( 'NONE',  ( -0.003496500000000003511, 0.0000000000000000000, 8.563955066437453338E-19 ) ) ;
#217 = CYLINDRICAL_SURFACE ( 'NONE', #43, 0.003496500000000001343 ) ;
#218 =( LENGTH_UNIT ( ) NAMED_UNIT ( * ) SI_UNIT ( $, .METRE. ) );
#219 = AXIS2_PLACEMENT_3D ( 'NONE', #45, #154, #20 ) ;
#220 = CARTESIAN_POINT ( 'NONE',  ( 0.0000000000000000000, 0.0000000000000000000, 1.500000000000000222 ) ) ;
#221 = CARTESIAN_POINT ( 'NONE',  ( -0.04750000000000064587, 0.0000000000000000000, 1.500000000000000222 ) ) ;
#222 = COLOUR_RGB ( '',0.7921568627450980005, 0.8196078431372548767, 0.9333333333333333481 ) ;
#223 = DIRECTION ( 'NONE',  ( -1.000000000000000000, 0.0000000000000000000, 0.0000000000000000000 ) ) ;
#224 = ORIENTED_EDGE ( 'NONE', *, *, #88, .F. ) ;
#225 = ORIENTED_EDGE ( 'NONE', *, *, #19, .F. ) ;
#226 = EDGE_LOOP ( 'NONE', ( #160, #113, #249, #42 ) ) ;
#227 = ORIENTED_EDGE ( 'NONE', *, *, #128, .F. ) ;
#228 = ORIENTED_EDGE ( 'NONE', *, *, #19, .T. ) ;
#229 = EDGE_CURVE ( 'NONE', #204, #207, #130, .T. ) ;
#230 = DIRECTION ( 'NONE',  ( -1.224646799147353700E-16, -0.0000000000000000000, -1.000000000000000000 ) ) ;
#231 = CARTESIAN_POINT ( 'NONE',  ( 5.243910080077195101E-35, 0.0000000000000000000, 4.281977533218726669E-19 ) ) ;
#232 = DIRECTION ( 'NONE',  ( 1.000000000000000000, 0.0000000000000000000, -0.0000000000000000000 ) ) ;
#233 = PRODUCT_DEFINITION ( 'UNKNOWN', '', #141, #239 ) ;
#234 = FACE_OUTER_BOUND ( 'NONE', #72, .T. ) ;
#235 = AXIS2_PLACEMENT_3D ( 'NONE', #99, #57, #129 ) ;
#236 = AXIS2_PLACEMENT_3D ( 'NONE', #132, #155, #107 ) ;
#237 = CARTESIAN_POINT ( 'NONE',  ( 0.06250000000000002776, 7.654042494670959086E-18, 1.485000000000000764 ) ) ;
#238 = CARTESIAN_POINT ( 'NONE',  ( 0.0000000000000000000, 0.0000000000000000000, 1.500000000000000222 ) ) ;
#239 = PRODUCT_DEFINITION_CONTEXT ( 'detailed design', #240, 'design' ) ;
#240 = APPLICATION_CONTEXT ( 'automotive_design' ) ;
#241 = VECTOR ( 'NONE', #151, 39.37007874015748854 ) ;
#242 = FACE_OUTER_BOUND ( 'NONE', #251, .T. ) ;
#243 = DIRECTION ( 'NONE',  ( 0.0000000000000000000, 0.0000000000000000000, 1.000000000000000000 ) ) ;
#244 = ADVANCED_FACE ( 'NONE', ( #242 ), #158, .T. ) ;
#245 =( GEOMETRIC_REPRESENTATION_CONTEXT ( 3 ) GLOBAL_UNCERTAINTY_ASSIGNED_CONTEXT ( ( #199 ) ) GLOBAL_UNIT_ASSIGNED_CONTEXT ( ( #252, #83, #1 ) ) REPRESENTATION_CONTEXT ( 'NONE', 'WORKASPACE' ) );
#246 = PRESENTATION_STYLE_ASSIGNMENT (( #250 ) ) ;
#247 = ORIENTED_EDGE ( 'NONE', *, *, #108, .T. ) ;
#248 = VERTEX_POINT ( 'NONE', #60 ) ;
#249 = ORIENTED_EDGE ( 'NONE', *, *, #88, .T. ) ;
#250 = SURFACE_STYLE_USAGE ( .BOTH. , #162 ) ;
#251 = EDGE_LOOP ( 'NONE', ( #187, #210, #228, #116 ) ) ;
#252 =( CONVERSION_BASED_UNIT ( 'INCH', #112 ) LENGTH_UNIT ( ) NAMED_UNIT ( #294 ) );
#253 = ORIENTED_EDGE ( 'NONE', *, *, #119, .T. ) ;
#254 = EDGE_CURVE ( 'NONE', #40, #207, #152, .T. ) ;
#255 = FACE_OUTER_BOUND ( 'NONE', #105, .T. ) ;
#256 = DIRECTION ( 'NONE',  ( -1.224646799147353700E-16, -0.0000000000000000000, -1.000000000000000000 ) ) ;
#257 = VECTOR ( 'NONE', #8, 39.37007874015748143 ) ;
#258 = CARTESIAN_POINT ( 'NONE',  ( 1.224646799147353770E-18, 0.0000000000000000000, 0.01000000000000000021 ) ) ;
#259 = LINE ( 'NONE', #145, #200 ) ;
#260 = ORIENTED_EDGE ( 'NONE', *, *, #254, .F. ) ;
#261 = CARTESIAN_POINT ( 'NONE',  ( 0.0000000000000000000, 0.0000000000000000000, 0.0000000000000000000 ) ) ;
#262 = LENGTH_MEASURE_WITH_UNIT ( LENGTH_MEASURE( 0.02539999999999999897 ), #150 );
#263 = EDGE_CURVE ( 'NONE', #25, #40, #192, .T. ) ;
#264 = DIRECTION ( 'NONE',  ( 0.0000000000000000000, 0.0000000000000000000, -1.000000000000000000 ) ) ;
#265 = AXIS2_PLACEMENT_3D ( 'NONE', #231, #51, #28 ) ;
#266 = AXIS2_PLACEMENT_3D ( 'NONE', #268, #264, #15 ) ;
#267 = ADVANCED_FACE ( 'NONE', ( #291 ), #297, .T. ) ;
#268 = CARTESIAN_POINT ( 'NONE',  ( 0.0000000000000000000, 0.0000000000000000000, 1.485000000000000764 ) ) ;
#269 = EDGE_LOOP ( 'NONE', ( #156, #87 ) ) ;
#270 = SURFACE_SIDE_STYLE ('',( #100 ) ) ;
#271 = AXIS2_PLACEMENT_3D ( 'NONE', #220, #127, #37 ) ;
#272 = CIRCLE ( 'NONE', #203, 0.06250000000000002776 ) ;
#273 = DIRECTION ( 'NONE',  ( 0.1736481776669313859, 0.0000000000000000000, 0.9848077530122077983 ) ) ;
#274 = MANIFOLD_SOLID_BREP ( 'Cut-Revolve1', #13 ) ;
#275 = DIRECTION ( 'NONE',  ( 1.000000000000000000, 0.0000000000000000000, 0.0000000000000000000 ) ) ;
#276 = ADVANCED_BREP_SHAPE_REPRESENTATION ( 'Micro_SME-007-2', ( #274, #219 ), #180 ) ;
#277 = ORIENTED_EDGE ( 'NONE', *, *, #263, .T. ) ;
#278 =( GEOMETRIC_REPRESENTATION_CONTEXT ( 3 ) GLOBAL_UNCERTAINTY_ASSIGNED_CONTEXT ( ( #56 ) ) GLOBAL_UNIT_ASSIGNED_CONTEXT ( ( #61, #177, #14 ) ) REPRESENTATION_CONTEXT ( 'NONE', 'WORKASPACE' ) );
#279 = VECTOR ( 'NONE', #281, 39.37007874015747433 ) ;
#280 = ADVANCED_FACE ( 'NONE', ( #149 ), #131, .T. ) ;
#281 = DIRECTION ( 'NONE',  ( -0.1736481776669311916, 2.126576849575783316E-17, 0.9848077530122080203 ) ) ;
#282 = VERTEX_POINT ( 'NONE', #34 ) ;
#283 = FACE_OUTER_BOUND ( 'NONE', #299, .T. ) ;
#284 = DIRECTION ( 'NONE',  ( 0.0000000000000000000, 0.0000000000000000000, -1.000000000000000000 ) ) ;
#285 = ORIENTED_EDGE ( 'NONE', *, *, #119, .F. ) ;
#286 = DIRECTION ( 'NONE',  ( -1.000000000000000000, 0.0000000000000000000, 1.224646799147353700E-16 ) ) ;
#287 = LINE ( 'NONE', #27, #257 ) ;
#288 = CARTESIAN_POINT ( 'NONE',  ( -0.06249999999999997918, 0.0000000000000000000, 0.3446254768438118399 ) ) ;
#289 = EDGE_CURVE ( 'NONE', #25, #204, #178, .T. ) ;
#290 = UNCERTAINTY_MEASURE_WITH_UNIT (LENGTH_MEASURE( 1.000000000000000082E-05 ), #173, 'distance_accuracy_value', 'NONE');
#291 = FACE_OUTER_BOUND ( 'NONE', #86, .T. ) ;
#292 = MECHANICAL_DESIGN_GEOMETRIC_PRESENTATION_REPRESENTATION (  '', ( #26 ), #245 ) ;
#293 = AXIS2_PLACEMENT_3D ( 'NONE', #169, #170, #286 ) ;
#294 = DIMENSIONAL_EXPONENTS ( 1.000000000000000000, 0.0000000000000000000, 0.0000000000000000000, 0.0000000000000000000, 0.0000000000000000000, 0.0000000000000000000, 0.0000000000000000000 ) ;
#295 = SURFACE_STYLE_FILL_AREA ( #65 ) ;
#296 = ORIENTED_EDGE ( 'NONE', *, *, #159, .T. ) ;
#297 = CONICAL_SURFACE ( 'NONE', #271, 0.04750000000000064587, 0.7853981633974466137 ) ;
#298 = CARTESIAN_POINT ( 'NONE',  ( -0.04750000000000064587, 0.0000000000000000000, 1.500000000000000222 ) ) ;
#299 = EDGE_LOOP ( 'NONE', ( #296, #277 ) ) ;
ENDSEC;
END-ISO-10303-21;
