ISO-10303-21;
HEADER;
FILE_DESCRIPTION (( 'STEP AP214' ),
    '1' );
FILE_NAME ('59263.STEP',
    '2023-06-22T22:28:05',
    ( '' ),
    ( '' ),
    'SwSTEP 2.0',
    'SolidWorks 2023',
    '' );
FILE_SCHEMA (( 'AUTOMOTIVE_DESIGN' ));
ENDSEC;

DATA;
#1 = FACE_OUTER_BOUND ( 'NONE', #202, .T. ) ;
#2 = VECTOR ( 'NONE', #170, 39.37007874015748143 ) ;
#3 = DIRECTION ( 'NONE',  ( -3.061616997868386099E-17, 1.000000000000000000, 0.000000000000000000 ) ) ;
#4 = EDGE_CURVE ( 'NONE', #177, #265, #69, .T. ) ;
#5 = CARTESIAN_POINT ( 'NONE',  ( 7.582401355855259480E-33, 1.000000000000000000, 0.000000000000000000 ) ) ;
#6 = AXIS2_PLACEMENT_3D ( 'NONE', #190, #163, #269 ) ;
#7 = CYLINDRICAL_SURFACE ( 'NONE', #289, 0.2500000000000000555 ) ;
#8 = COLOUR_RGB ( '',0.7921568627450980005, 0.8196078431372548767, 0.9333333333333333481 ) ;
#9 = FACE_OUTER_BOUND ( 'NONE', #49, .T. ) ;
#10 = DIRECTION ( 'NONE',  ( -0.000000000000000000, -1.000000000000000000, -0.000000000000000000 ) ) ;
#11 = DIRECTION ( 'NONE',  ( -3.061616997868386099E-17, 1.000000000000000000, -0.000000000000000000 ) ) ;
#12 = DIRECTION ( 'NONE',  ( -0.000000000000000000, -1.000000000000000000, -0.000000000000000000 ) ) ;
#13 = FACE_OUTER_BOUND ( 'NONE', #62, .T. ) ;
#14 = PLANE ( 'NONE',  #130 ) ;
#15 = SURFACE_STYLE_USAGE ( .BOTH. , #104 ) ;
#16 = DIRECTION ( 'NONE',  ( 1.000000000000000000, 0.000000000000000000, 0.000000000000000000 ) ) ;
#17 = CARTESIAN_POINT ( 'NONE',  ( 0.000000000000000000, 1.000000000000000000, 0.000000000000000000 ) ) ;
#18 = EDGE_LOOP ( 'NONE', ( #152, #281 ) ) ;
#19 = VERTEX_POINT ( 'NONE', #165 ) ;
#20 = PRODUCT ( '59263', '59263', '', ( #145 ) ) ;
#21 = AXIS2_PLACEMENT_3D ( 'NONE', #247, #3, #272 ) ;
#22 = DIRECTION ( 'NONE',  ( 0.000000000000000000, 0.000000000000000000, -1.000000000000000000 ) ) ;
#23 = AXIS2_PLACEMENT_3D ( 'NONE', #53, #120, #71 ) ;
#24 = CARTESIAN_POINT ( 'NONE',  ( 0.000000000000000000, 0.000000000000000000, 0.000000000000000000 ) ) ;
#25 = FILL_AREA_STYLE ('',( #74 ) ) ;
#26 = DIRECTION ( 'NONE',  ( -3.061616997868386099E-17, 1.000000000000000000, -0.000000000000000000 ) ) ;
#27 =( LENGTH_UNIT ( ) NAMED_UNIT ( * ) SI_UNIT ( $, .METRE. ) );
#28 = CARTESIAN_POINT ( 'NONE',  ( 0.2500000000000000555, 1.000000000000000000, 3.061616997868384251E-17 ) ) ;
#29 = CIRCLE ( 'NONE', #271, 0.2500000000000000555 ) ;
#30 = UNCERTAINTY_MEASURE_WITH_UNIT (LENGTH_MEASURE( 1.000000000000000082E-05 ), #168, 'distance_accuracy_value', 'NONE');
#31 = FILL_AREA_STYLE_COLOUR ( '', #57 ) ;
#32 = DIRECTION ( 'NONE',  ( -1.000000000000000000, 0.000000000000000000, 0.000000000000000000 ) ) ;
#33 = FACE_OUTER_BOUND ( 'NONE', #37, .T. ) ;
#34 = AXIS2_PLACEMENT_3D ( 'NONE', #94, #142, #32 ) ;
#35 = VERTEX_POINT ( 'NONE', #144 ) ;
#36 = DIRECTION ( 'NONE',  ( 0.000000000000000000, -0.000000000000000000, 1.000000000000000000 ) ) ;
#37 = EDGE_LOOP ( 'NONE', ( #64, #80 ) ) ;
#38 = CARTESIAN_POINT ( 'NONE',  ( 0.000000000000000000, 0.000000000000000000, 0.000000000000000000 ) ) ;
#39 = LENGTH_MEASURE_WITH_UNIT ( LENGTH_MEASURE( 0.02539999999999999897 ), #61 );
#40 = ORIENTED_EDGE ( 'NONE', *, *, #72, .T. ) ;
#41 =( GEOMETRIC_REPRESENTATION_CONTEXT ( 3 ) GLOBAL_UNCERTAINTY_ASSIGNED_CONTEXT ( ( #67 ) ) GLOBAL_UNIT_ASSIGNED_CONTEXT ( ( #266, #218, #51 ) ) REPRESENTATION_CONTEXT ( 'NONE', 'WORKASPACE' ) );
#42 = ADVANCED_FACE ( 'NONE', ( #296 ), #7, .T. ) ;
#43 =( CONVERSION_BASED_UNIT ( 'INCH', #173 ) LENGTH_UNIT ( ) NAMED_UNIT ( #99 ) );
#44 = PRODUCT_DEFINITION_FORMATION_WITH_SPECIFIED_SOURCE ( 'ANY', '', #20, .NOT_KNOWN. ) ;
#45 = LENGTH_MEASURE_WITH_UNIT ( LENGTH_MEASURE( 0.02539999999999999897 ), #255 );
#46 = ORIENTED_EDGE ( 'NONE', *, *, #125, .F. ) ;
#47 = LENGTH_MEASURE_WITH_UNIT ( LENGTH_MEASURE( 0.02539999999999999897 ), #92 );
#48 = MECHANICAL_DESIGN_GEOMETRIC_PRESENTATION_REPRESENTATION (  '', ( #260 ), #285 ) ;
#49 = EDGE_LOOP ( 'NONE', ( #258, #56, #200, #60 ) ) ;
#50 =( NAMED_UNIT ( * ) PLANE_ANGLE_UNIT ( ) SI_UNIT ( $, .RADIAN. ) );
#51 =( NAMED_UNIT ( * ) SI_UNIT ( $, .STERADIAN. ) SOLID_ANGLE_UNIT ( ) );
#52 = DIMENSIONAL_EXPONENTS ( 1.000000000000000000, 0.000000000000000000, 0.000000000000000000, 0.000000000000000000, 0.000000000000000000, 0.000000000000000000, 0.000000000000000000 ) ;
#53 = CARTESIAN_POINT ( 'NONE',  ( -6.123233995736772199E-17, 3.000000000000000444, 0.000000000000000000 ) ) ;
#54 = PLANE ( 'NONE',  #208 ) ;
#55 =( NAMED_UNIT ( * ) PLANE_ANGLE_UNIT ( ) SI_UNIT ( $, .RADIAN. ) );
#56 = ORIENTED_EDGE ( 'NONE', *, *, #147, .T. ) ;
#57 = COLOUR_RGB ( '',0.7921568627450980005, 0.8196078431372548767, 0.9333333333333333481 ) ;
#58 = CARTESIAN_POINT ( 'NONE',  ( -0.2500000000000000555, 1.000000000000000000, 0.000000000000000000 ) ) ;
#59 = CARTESIAN_POINT ( 'NONE',  ( 0.2500000000000000555, 3.000000000000000444, 0.000000000000000000 ) ) ;
#60 = ORIENTED_EDGE ( 'NONE', *, *, #178, .F. ) ;
#61 =( LENGTH_UNIT ( ) NAMED_UNIT ( * ) SI_UNIT ( $, .METRE. ) );
#62 = EDGE_LOOP ( 'NONE', ( #46, #254 ) ) ;
#63 =( NAMED_UNIT ( * ) PLANE_ANGLE_UNIT ( ) SI_UNIT ( $, .RADIAN. ) );
#64 = ORIENTED_EDGE ( 'NONE', *, *, #4, .T. ) ;
#65 = AXIS2_PLACEMENT_3D ( 'NONE', #59, #199, #303 ) ;
#66 = COLOUR_RGB ( '',1.000000000000000000, 0.000000000000000000, 0.000000000000000000 ) ;
#67 = UNCERTAINTY_MEASURE_WITH_UNIT (LENGTH_MEASURE( 1.000000000000000082E-05 ), #266, 'distance_accuracy_value', 'NONE');
#68 =( LENGTH_UNIT ( ) NAMED_UNIT ( * ) SI_UNIT ( $, .METRE. ) );
#69 = CIRCLE ( 'NONE', #270, 0.2500000000000000000 ) ;
#70 = PRESENTATION_LAYER_ASSIGNMENT (  '', '', ( #122 ) ) ;
#71 = DIRECTION ( 'NONE',  ( -1.000000000000000000, 0.000000000000000000, 0.000000000000000000 ) ) ;
#72 = EDGE_CURVE ( 'NONE', #124, #304, #128, .T. ) ;
#73 = CARTESIAN_POINT ( 'NONE',  ( 0.2500000000000000555, 3.000000000000000444, 3.061616997868384251E-17 ) ) ;
#74 = FILL_AREA_STYLE_COLOUR ( '', #75 ) ;
#75 = COLOUR_RGB ( '',1.000000000000000000, 0.000000000000000000, 0.000000000000000000 ) ;
#76 = PRESENTATION_LAYER_ASSIGNMENT (  '', '', ( #222 ) ) ;
#77 =( NAMED_UNIT ( * ) SI_UNIT ( $, .STERADIAN. ) SOLID_ANGLE_UNIT ( ) );
#78 = LINE ( 'NONE', #246, #2 ) ;
#79 = LINE ( 'NONE', #278, #307 ) ;
#80 = ORIENTED_EDGE ( 'NONE', *, *, #238, .T. ) ;
#81 = FILL_AREA_STYLE_COLOUR ( '', #261 ) ;
#82 = AXIS2_PLACEMENT_3D ( 'NONE', #195, #11, #118 ) ;
#83 = PRESENTATION_STYLE_ASSIGNMENT (( #149 ) ) ;
#84 = FILL_AREA_STYLE_COLOUR ( '', #8 ) ;
#85 = EDGE_LOOP ( 'NONE', ( #282, #40, #108, #228 ) ) ;
#86 = CARTESIAN_POINT ( 'NONE',  ( 0.000000000000000000, 1.000000000000000000, 0.000000000000000000 ) ) ;
#87 = MECHANICAL_DESIGN_GEOMETRIC_PRESENTATION_REPRESENTATION (  '', ( #204 ), #231 ) ;
#88 =( GEOMETRIC_REPRESENTATION_CONTEXT ( 3 ) GLOBAL_UNCERTAINTY_ASSIGNED_CONTEXT ( ( #100 ) ) GLOBAL_UNIT_ASSIGNED_CONTEXT ( ( #43, #226, #77 ) ) REPRESENTATION_CONTEXT ( 'NONE', 'WORKASPACE' ) );
#89 = CYLINDRICAL_SURFACE ( 'NONE', #298, 0.2500000000000000000 ) ;
#90 = CLOSED_SHELL ( 'NONE', ( #193, #154, #297, #184 ) ) ;
#91 = STYLED_ITEM ( 'NONE', ( #245 ), #297 ) ;
#92 =( LENGTH_UNIT ( ) NAMED_UNIT ( * ) SI_UNIT ( $, .METRE. ) );
#93 = ORIENTED_EDGE ( 'NONE', *, *, #301, .F. ) ;
#94 = CARTESIAN_POINT ( 'NONE',  ( -6.123233995736772199E-17, 3.000000000000000444, 0.000000000000000000 ) ) ;
#95 = UNCERTAINTY_MEASURE_WITH_UNIT (LENGTH_MEASURE( 1.000000000000000082E-05 ), #201, 'distance_accuracy_value', 'NONE');
#96 = PRODUCT_RELATED_PRODUCT_CATEGORY ( 'part', '', ( #20 ) ) ;
#97 = SURFACE_STYLE_FILL_AREA ( #214 ) ;
#98 = LINE ( 'NONE', #194, #209 ) ;
#99 = DIMENSIONAL_EXPONENTS ( 1.000000000000000000, 0.000000000000000000, 0.000000000000000000, 0.000000000000000000, 0.000000000000000000, 0.000000000000000000, 0.000000000000000000 ) ;
#100 = UNCERTAINTY_MEASURE_WITH_UNIT (LENGTH_MEASURE( 1.000000000000000082E-05 ), #43, 'distance_accuracy_value', 'NONE');
#101 = CARTESIAN_POINT ( 'NONE',  ( 3.061616997868383018E-17, 0.000000000000000000, 0.2500000000000000000 ) ) ;
#102 = MECHANICAL_DESIGN_GEOMETRIC_PRESENTATION_REPRESENTATION (  '', ( #222 ), #153 ) ;
#103 = EDGE_CURVE ( 'NONE', #19, #177, #78, .T. ) ;
#104 = SURFACE_SIDE_STYLE ('',( #172 ) ) ;
#105 =( CONVERSION_BASED_UNIT ( 'INCH', #45 ) LENGTH_UNIT ( ) NAMED_UNIT ( #287 ) );
#106 = APPLICATION_PROTOCOL_DEFINITION ( 'draft international standard', 'automotive_design', 1998, #257 ) ;
#107 = CLOSED_SHELL ( 'NONE', ( #213, #243, #42, #171 ) ) ;
#108 = ORIENTED_EDGE ( 'NONE', *, *, #178, .T. ) ;
#109 = PRESENTATION_LAYER_ASSIGNMENT (  '', '', ( #91 ) ) ;
#110 = PLANE ( 'NONE',  #65 ) ;
#111 = EDGE_LOOP ( 'NONE', ( #93, #235, #306, #205 ) ) ;
#112 = CARTESIAN_POINT ( 'NONE',  ( 0.000000000000000000, 0.000000000000000000, -0.2500000000000000000 ) ) ;
#113 = CIRCLE ( 'NONE', #186, 0.2500000000000000555 ) ;
#114 = DIRECTION ( 'NONE',  ( -3.061616997868386099E-17, 1.000000000000000000, -0.000000000000000000 ) ) ;
#115 = FACE_OUTER_BOUND ( 'NONE', #111, .T. ) ;
#116 = CARTESIAN_POINT ( 'NONE',  ( 0.000000000000000000, 0.000000000000000000, 0.000000000000000000 ) ) ;
#117 = CARTESIAN_POINT ( 'NONE',  ( 0.000000000000000000, 1.000000000000000000, 0.000000000000000000 ) ) ;
#118 = DIRECTION ( 'NONE',  ( -1.000000000000000000, 0.000000000000000000, 0.000000000000000000 ) ) ;
#119 =( LENGTH_UNIT ( ) NAMED_UNIT ( * ) SI_UNIT ( $, .METRE. ) );
#120 = DIRECTION ( 'NONE',  ( -3.061616997868386099E-17, 1.000000000000000000, -0.000000000000000000 ) ) ;
#121 = DIRECTION ( 'NONE',  ( -0.000000000000000000, -1.000000000000000000, -0.000000000000000000 ) ) ;
#122 = STYLED_ITEM ( 'NONE', ( #239 ), #193 ) ;
#123 = DIRECTION ( 'NONE',  ( 0.000000000000000000, 1.000000000000000000, 0.000000000000000000 ) ) ;
#124 = VERTEX_POINT ( 'NONE', #28 ) ;
#125 = EDGE_CURVE ( 'NONE', #19, #35, #113, .T. ) ;
#126 = CARTESIAN_POINT ( 'NONE',  ( 0.000000000000000000, 0.000000000000000000, 0.000000000000000000 ) ) ;
#127 = SURFACE_STYLE_FILL_AREA ( #224 ) ;
#128 = CIRCLE ( 'NONE', #6, 0.2500000000000000555 ) ;
#129 = ORIENTED_EDGE ( 'NONE', *, *, #103, .F. ) ;
#130 = AXIS2_PLACEMENT_3D ( 'NONE', #308, #134, #22 ) ;
#131 = ORIENTED_EDGE ( 'NONE', *, *, #225, .T. ) ;
#132 = MECHANICAL_DESIGN_GEOMETRIC_PRESENTATION_REPRESENTATION (  '', ( #237 ), #41 ) ;
#133 =( NAMED_UNIT ( * ) SI_UNIT ( $, .STERADIAN. ) SOLID_ANGLE_UNIT ( ) );
#134 = DIRECTION ( 'NONE',  ( 0.000000000000000000, -1.000000000000000000, -0.000000000000000000 ) ) ;
#135 = SURFACE_STYLE_FILL_AREA ( #159 ) ;
#136 = DIRECTION ( 'NONE',  ( 0.000000000000000000, 0.000000000000000000, -1.000000000000000000 ) ) ;
#137 = UNCERTAINTY_MEASURE_WITH_UNIT (LENGTH_MEASURE( 1.000000000000000082E-05 ), #183, 'distance_accuracy_value', 'NONE');
#138 = SURFACE_STYLE_USAGE ( .BOTH. , #268 ) ;
#139 = DIRECTION ( 'NONE',  ( -1.000000000000000000, 0.000000000000000000, 0.000000000000000000 ) ) ;
#140 = PLANE ( 'NONE',  #21 ) ;
#141 = MECHANICAL_DESIGN_GEOMETRIC_PRESENTATION_REPRESENTATION (  '', ( #91 ), #291 ) ;
#142 = DIRECTION ( 'NONE',  ( -3.061616997868386099E-17, 1.000000000000000000, -0.000000000000000000 ) ) ;
#143 = DIRECTION ( 'NONE',  ( -0.000000000000000000, -1.000000000000000000, -0.000000000000000000 ) ) ;
#144 = CARTESIAN_POINT ( 'NONE',  ( 3.061616997868383634E-17, 1.000000000000000000, 0.2500000000000000555 ) ) ;
#145 = PRODUCT_CONTEXT ( 'NONE', #257, 'mechanical' ) ;
#146 = AXIS2_PLACEMENT_3D ( 'NONE', #24, #220, #240 ) ;
#147 = EDGE_CURVE ( 'NONE', #124, #236, #98, .T. ) ;
#148 = DIRECTION ( 'NONE',  ( 0.000000000000000000, 0.000000000000000000, 1.000000000000000000 ) ) ;
#149 = SURFACE_STYLE_USAGE ( .BOTH. , #174 ) ;
#150 = EDGE_LOOP ( 'NONE', ( #276, #131 ) ) ;
#151 = LINE ( 'NONE', #252, #263 ) ;
#152 = ORIENTED_EDGE ( 'NONE', *, *, #279, .F. ) ;
#153 =( GEOMETRIC_REPRESENTATION_CONTEXT ( 3 ) GLOBAL_UNCERTAINTY_ASSIGNED_CONTEXT ( ( #137 ) ) GLOBAL_UNIT_ASSIGNED_CONTEXT ( ( #183, #50, #207 ) ) REPRESENTATION_CONTEXT ( 'NONE', 'WORKASPACE' ) );
#154 = ADVANCED_FACE ( 'NONE', ( #13 ), #54, .T. ) ;
#155 =( NAMED_UNIT ( * ) PLANE_ANGLE_UNIT ( ) SI_UNIT ( $, .RADIAN. ) );
#156 = FILL_AREA_STYLE_COLOUR ( '', #198 ) ;
#157 = EDGE_CURVE ( 'NONE', #35, #19, #29, .T. ) ;
#158 = PRESENTATION_LAYER_ASSIGNMENT (  '', '', ( #260 ) ) ;
#159 = FILL_AREA_STYLE ('',( #156 ) ) ;
#160 =( GEOMETRIC_REPRESENTATION_CONTEXT ( 3 ) GLOBAL_UNCERTAINTY_ASSIGNED_CONTEXT ( ( #215 ) ) GLOBAL_UNIT_ASSIGNED_CONTEXT ( ( #211, #155, #133 ) ) REPRESENTATION_CONTEXT ( 'NONE', 'WORKASPACE' ) );
#161 = DIRECTION ( 'NONE',  ( -1.000000000000000000, 0.000000000000000000, 0.000000000000000000 ) ) ;
#162 = FILL_AREA_STYLE ('',( #292 ) ) ;
#163 = DIRECTION ( 'NONE',  ( -3.061616997868386099E-17, 1.000000000000000000, -0.000000000000000000 ) ) ;
#164 = SURFACE_STYLE_FILL_AREA ( #162 ) ;
#165 = CARTESIAN_POINT ( 'NONE',  ( 0.000000000000000000, 1.000000000000000000, -0.2500000000000000555 ) ) ;
#166 = PRODUCT_DEFINITION_CONTEXT ( 'detailed design', #275, 'design' ) ;
#167 = CIRCLE ( 'NONE', #23, 0.2500000000000001110 ) ;
#168 =( CONVERSION_BASED_UNIT ( 'INCH', #196 ) LENGTH_UNIT ( ) NAMED_UNIT ( #293 ) );
#169 = LENGTH_MEASURE_WITH_UNIT ( LENGTH_MEASURE( 0.02539999999999999897 ), #27 );
#170 = DIRECTION ( 'NONE',  ( -0.000000000000000000, -1.000000000000000000, -0.000000000000000000 ) ) ;
#171 = ADVANCED_FACE ( 'NONE', ( #300 ), #110, .F. ) ;
#172 = SURFACE_STYLE_FILL_AREA ( #179 ) ;
#173 = LENGTH_MEASURE_WITH_UNIT ( LENGTH_MEASURE( 0.02539999999999999897 ), #274 );
#174 = SURFACE_SIDE_STYLE ('',( #127 ) ) ;
#175 = MANIFOLD_SOLID_BREP ( 'Revolve - Cutting Edge', #90 ) ;
#176 = PRESENTATION_STYLE_ASSIGNMENT (( #15 ) ) ;
#177 = VERTEX_POINT ( 'NONE', #112 ) ;
#178 = EDGE_CURVE ( 'NONE', #304, #229, #79, .T. ) ;
#179 = FILL_AREA_STYLE ('',( #84 ) ) ;
#180 = MECHANICAL_DESIGN_GEOMETRIC_PRESENTATION_REPRESENTATION (  '', ( #122 ), #160 ) ;
#181 = SURFACE_STYLE_USAGE ( .BOTH. , #288 ) ;
#182 = CARTESIAN_POINT ( 'NONE',  ( 0.000000000000000000, 0.000000000000000000, 0.000000000000000000 ) ) ;
#183 =( CONVERSION_BASED_UNIT ( 'INCH', #39 ) LENGTH_UNIT ( ) NAMED_UNIT ( #283 ) );
#184 = ADVANCED_FACE ( 'NONE', ( #33 ), #14, .T. ) ;
#185 = SURFACE_STYLE_USAGE ( .BOTH. , #189 ) ;
#186 = AXIS2_PLACEMENT_3D ( 'NONE', #117, #10, #221 ) ;
#187 = AXIS2_PLACEMENT_3D ( 'NONE', #5, #114, #161 ) ;
#188 = AXIS2_PLACEMENT_3D ( 'NONE', #38, #143, #223 ) ;
#189 = SURFACE_SIDE_STYLE ('',( #97 ) ) ;
#190 = CARTESIAN_POINT ( 'NONE',  ( 7.582401355855259480E-33, 1.000000000000000000, 0.000000000000000000 ) ) ;
#191 = DIMENSIONAL_EXPONENTS ( 1.000000000000000000, 0.000000000000000000, 0.000000000000000000, 0.000000000000000000, 0.000000000000000000, 0.000000000000000000, 0.000000000000000000 ) ;
#192 = CARTESIAN_POINT ( 'NONE',  ( -0.2500000000000001665, 3.000000000000000444, 0.000000000000000000 ) ) ;
#193 = ADVANCED_FACE ( 'NONE', ( #1 ), #89, .T. ) ;
#194 = CARTESIAN_POINT ( 'NONE',  ( 0.2500000000000000000, 3.000000000000000444, 3.061616997868383634E-17 ) ) ;
#195 = CARTESIAN_POINT ( 'NONE',  ( -6.123233995736772199E-17, 3.000000000000000444, 0.000000000000000000 ) ) ;
#196 = LENGTH_MEASURE_WITH_UNIT ( LENGTH_MEASURE( 0.02539999999999999897 ), #119 );
#197 = PRESENTATION_STYLE_ASSIGNMENT (( #185 ) ) ;
#198 = COLOUR_RGB ( '',1.000000000000000000, 0.000000000000000000, 0.000000000000000000 ) ;
#199 = DIRECTION ( 'NONE',  ( 3.061616997868386099E-17, -1.000000000000000000, 0.000000000000000000 ) ) ;
#200 = ORIENTED_EDGE ( 'NONE', *, *, #286, .F. ) ;
#201 =( CONVERSION_BASED_UNIT ( 'INCH', #169 ) LENGTH_UNIT ( ) NAMED_UNIT ( #191 ) );
#202 = EDGE_LOOP ( 'NONE', ( #264, #232, #280, #129 ) ) ;
#203 = APPLICATION_PROTOCOL_DEFINITION ( 'draft international standard', 'automotive_design', 1998, #275 ) ;
#204 = STYLED_ITEM ( 'NONE', ( #176 ), #175 ) ;
#205 = ORIENTED_EDGE ( 'NONE', *, *, #238, .F. ) ;
#206 = DIRECTION ( 'NONE',  ( -0.000000000000000000, -1.000000000000000000, -0.000000000000000000 ) ) ;
#207 =( NAMED_UNIT ( * ) SI_UNIT ( $, .STERADIAN. ) SOLID_ANGLE_UNIT ( ) );
#208 = AXIS2_PLACEMENT_3D ( 'NONE', #86, #123, #36 ) ;
#209 = VECTOR ( 'NONE', #295, 39.37007874015748143 ) ;
#210 = CIRCLE ( 'NONE', #187, 0.2500000000000000555 ) ;
#211 =( CONVERSION_BASED_UNIT ( 'INCH', #47 ) LENGTH_UNIT ( ) NAMED_UNIT ( #52 ) );
#212 = ADVANCED_BREP_SHAPE_REPRESENTATION ( '59263', ( #175, #284, #253 ), #88 ) ;
#213 = ADVANCED_FACE ( 'NONE', ( #9 ), #294, .T. ) ;
#214 = FILL_AREA_STYLE ('',( #31 ) ) ;
#215 = UNCERTAINTY_MEASURE_WITH_UNIT (LENGTH_MEASURE( 1.000000000000000082E-05 ), #211, 'distance_accuracy_value', 'NONE');
#216 = CYLINDRICAL_SURFACE ( 'NONE', #188, 0.2500000000000000000 ) ;
#217 = CIRCLE ( 'NONE', #82, 0.2500000000000001110 ) ;
#218 =( NAMED_UNIT ( * ) PLANE_ANGLE_UNIT ( ) SI_UNIT ( $, .RADIAN. ) );
#219 = SURFACE_STYLE_FILL_AREA ( #25 ) ;
#220 = DIRECTION ( 'NONE',  ( -0.000000000000000000, -1.000000000000000000, -0.000000000000000000 ) ) ;
#221 = DIRECTION ( 'NONE',  ( 0.000000000000000000, 0.000000000000000000, -1.000000000000000000 ) ) ;
#222 = STYLED_ITEM ( 'NONE', ( #83 ), #184 ) ;
#223 = DIRECTION ( 'NONE',  ( 0.000000000000000000, 0.000000000000000000, -1.000000000000000000 ) ) ;
#224 = FILL_AREA_STYLE ('',( #81 ) ) ;
#225 = EDGE_CURVE ( 'NONE', #236, #229, #167, .T. ) ;
#226 =( NAMED_UNIT ( * ) PLANE_ANGLE_UNIT ( ) SI_UNIT ( $, .RADIAN. ) );
#227 = DIRECTION ( 'NONE',  ( 0.000000000000000000, 0.000000000000000000, -1.000000000000000000 ) ) ;
#228 = ORIENTED_EDGE ( 'NONE', *, *, #225, .F. ) ;
#229 = VERTEX_POINT ( 'NONE', #192 ) ;
#230 = PRODUCT_DEFINITION ( 'UNKNOWN', '', #44, #166 ) ;
#231 =( GEOMETRIC_REPRESENTATION_CONTEXT ( 3 ) GLOBAL_UNCERTAINTY_ASSIGNED_CONTEXT ( ( #244 ) ) GLOBAL_UNIT_ASSIGNED_CONTEXT ( ( #105, #55, #234 ) ) REPRESENTATION_CONTEXT ( 'NONE', 'WORKASPACE' ) );
#232 = ORIENTED_EDGE ( 'NONE', *, *, #301, .T. ) ;
#233 = DIMENSIONAL_EXPONENTS ( 1.000000000000000000, 0.000000000000000000, 0.000000000000000000, 0.000000000000000000, 0.000000000000000000, 0.000000000000000000, 0.000000000000000000 ) ;
#234 =( NAMED_UNIT ( * ) SI_UNIT ( $, .STERADIAN. ) SOLID_ANGLE_UNIT ( ) );
#235 = ORIENTED_EDGE ( 'NONE', *, *, #157, .T. ) ;
#236 = VERTEX_POINT ( 'NONE', #73 ) ;
#237 = STYLED_ITEM ( 'NONE', ( #197 ), #284 ) ;
#238 = EDGE_CURVE ( 'NONE', #265, #177, #290, .T. ) ;
#239 = PRESENTATION_STYLE_ASSIGNMENT (( #181 ) ) ;
#240 = DIRECTION ( 'NONE',  ( 0.000000000000000000, 0.000000000000000000, -1.000000000000000000 ) ) ;
#241 = LENGTH_MEASURE_WITH_UNIT ( LENGTH_MEASURE( 0.02539999999999999897 ), #68 );
#242 = CARTESIAN_POINT ( 'NONE',  ( -6.123233995736772199E-17, 3.000000000000000444, 0.000000000000000000 ) ) ;
#243 = ADVANCED_FACE ( 'NONE', ( #249 ), #140, .F. ) ;
#244 = UNCERTAINTY_MEASURE_WITH_UNIT (LENGTH_MEASURE( 1.000000000000000082E-05 ), #105, 'distance_accuracy_value', 'NONE');
#245 = PRESENTATION_STYLE_ASSIGNMENT (( #138 ) ) ;
#246 = CARTESIAN_POINT ( 'NONE',  ( 0.000000000000000000, 0.000000000000000000, -0.2500000000000000000 ) ) ;
#247 = CARTESIAN_POINT ( 'NONE',  ( 1.171687330204578822E-34, 1.000000000000000000, 0.000000000000000000 ) ) ;
#248 = PRESENTATION_STYLE_ASSIGNMENT (( #299 ) ) ;
#249 = FACE_OUTER_BOUND ( 'NONE', #18, .T. ) ;
#250 = DIRECTION ( 'NONE',  ( -3.061616997868386099E-17, 1.000000000000000000, -0.000000000000000000 ) ) ;
#251 = PRESENTATION_LAYER_ASSIGNMENT (  '', '', ( #204 ) ) ;
#252 = CARTESIAN_POINT ( 'NONE',  ( 3.061616997868383018E-17, 0.000000000000000000, 0.2500000000000000000 ) ) ;
#253 = AXIS2_PLACEMENT_3D ( 'NONE', #126, #148, #16 ) ;
#254 = ORIENTED_EDGE ( 'NONE', *, *, #157, .F. ) ;
#255 =( LENGTH_UNIT ( ) NAMED_UNIT ( * ) SI_UNIT ( $, .METRE. ) );
#256 = DIRECTION ( 'NONE',  ( -0.000000000000000000, -1.000000000000000000, -0.000000000000000000 ) ) ;
#257 = APPLICATION_CONTEXT ( 'automotive_design' ) ;
#258 = ORIENTED_EDGE ( 'NONE', *, *, #279, .T. ) ;
#259 =( NAMED_UNIT ( * ) SI_UNIT ( $, .STERADIAN. ) SOLID_ANGLE_UNIT ( ) );
#260 = STYLED_ITEM ( 'NONE', ( #248 ), #154 ) ;
#261 = COLOUR_RGB ( '',1.000000000000000000, 0.000000000000000000, 0.000000000000000000 ) ;
#262 =( NAMED_UNIT ( * ) SI_UNIT ( $, .STERADIAN. ) SOLID_ANGLE_UNIT ( ) );
#263 = VECTOR ( 'NONE', #256, 39.37007874015748143 ) ;
#264 = ORIENTED_EDGE ( 'NONE', *, *, #125, .T. ) ;
#265 = VERTEX_POINT ( 'NONE', #101 ) ;
#266 =( CONVERSION_BASED_UNIT ( 'INCH', #241 ) LENGTH_UNIT ( ) NAMED_UNIT ( #233 ) );
#267 = DIRECTION ( 'NONE',  ( 0.000000000000000000, 0.000000000000000000, -1.000000000000000000 ) ) ;
#268 = SURFACE_SIDE_STYLE ('',( #164 ) ) ;
#269 = DIRECTION ( 'NONE',  ( -1.000000000000000000, 0.000000000000000000, 0.000000000000000000 ) ) ;
#270 = AXIS2_PLACEMENT_3D ( 'NONE', #182, #121, #267 ) ;
#271 = AXIS2_PLACEMENT_3D ( 'NONE', #17, #206, #227 ) ;
#272 = DIRECTION ( 'NONE',  ( -1.000000000000000000, -3.061616997868386099E-17, 0.000000000000000000 ) ) ;
#273 = SURFACE_SIDE_STYLE ('',( #219 ) ) ;
#274 =( LENGTH_UNIT ( ) NAMED_UNIT ( * ) SI_UNIT ( $, .METRE. ) );
#275 = APPLICATION_CONTEXT ( 'automotive_design' ) ;
#276 = ORIENTED_EDGE ( 'NONE', *, *, #286, .T. ) ;
#277 = PRESENTATION_LAYER_ASSIGNMENT (  '', '', ( #237 ) ) ;
#278 = CARTESIAN_POINT ( 'NONE',  ( -0.2500000000000001110, 3.000000000000000444, 0.000000000000000000 ) ) ;
#279 = EDGE_CURVE ( 'NONE', #304, #124, #210, .T. ) ;
#280 = ORIENTED_EDGE ( 'NONE', *, *, #4, .F. ) ;
#281 = ORIENTED_EDGE ( 'NONE', *, *, #72, .F. ) ;
#282 = ORIENTED_EDGE ( 'NONE', *, *, #147, .F. ) ;
#283 = DIMENSIONAL_EXPONENTS ( 1.000000000000000000, 0.000000000000000000, 0.000000000000000000, 0.000000000000000000, 0.000000000000000000, 0.000000000000000000, 0.000000000000000000 ) ;
#284 = MANIFOLD_SOLID_BREP ( 'Revolve - Tool Body (Straight Shanked)', #107 ) ;
#285 =( GEOMETRIC_REPRESENTATION_CONTEXT ( 3 ) GLOBAL_UNCERTAINTY_ASSIGNED_CONTEXT ( ( #30 ) ) GLOBAL_UNIT_ASSIGNED_CONTEXT ( ( #168, #305, #262 ) ) REPRESENTATION_CONTEXT ( 'NONE', 'WORKASPACE' ) );
#286 = EDGE_CURVE ( 'NONE', #229, #236, #217, .T. ) ;
#287 = DIMENSIONAL_EXPONENTS ( 1.000000000000000000, 0.000000000000000000, 0.000000000000000000, 0.000000000000000000, 0.000000000000000000, 0.000000000000000000, 0.000000000000000000 ) ;
#288 = SURFACE_SIDE_STYLE ('',( #135 ) ) ;
#289 = AXIS2_PLACEMENT_3D ( 'NONE', #242, #26, #139 ) ;
#290 = CIRCLE ( 'NONE', #146, 0.2500000000000000000 ) ;
#291 =( GEOMETRIC_REPRESENTATION_CONTEXT ( 3 ) GLOBAL_UNCERTAINTY_ASSIGNED_CONTEXT ( ( #95 ) ) GLOBAL_UNIT_ASSIGNED_CONTEXT ( ( #201, #63, #259 ) ) REPRESENTATION_CONTEXT ( 'NONE', 'WORKASPACE' ) );
#292 = FILL_AREA_STYLE_COLOUR ( '', #66 ) ;
#293 = DIMENSIONAL_EXPONENTS ( 1.000000000000000000, 0.000000000000000000, 0.000000000000000000, 0.000000000000000000, 0.000000000000000000, 0.000000000000000000, 0.000000000000000000 ) ;
#294 = CYLINDRICAL_SURFACE ( 'NONE', #34, 0.2500000000000000555 ) ;
#295 = DIRECTION ( 'NONE',  ( -3.061616997868386099E-17, 1.000000000000000000, -0.000000000000000000 ) ) ;
#296 = FACE_OUTER_BOUND ( 'NONE', #85, .T. ) ;
#297 = ADVANCED_FACE ( 'NONE', ( #115 ), #216, .T. ) ;
#298 = AXIS2_PLACEMENT_3D ( 'NONE', #116, #12, #136 ) ;
#299 = SURFACE_STYLE_USAGE ( .BOTH. , #273 ) ;
#300 = FACE_OUTER_BOUND ( 'NONE', #150, .T. ) ;
#301 = EDGE_CURVE ( 'NONE', #35, #265, #151, .T. ) ;
#302 = SHAPE_DEFINITION_REPRESENTATION ( #309, #212 ) ;
#303 = DIRECTION ( 'NONE',  ( 1.000000000000000000, 3.061616997868386099E-17, 0.000000000000000000 ) ) ;
#304 = VERTEX_POINT ( 'NONE', #58 ) ;
#305 =( NAMED_UNIT ( * ) PLANE_ANGLE_UNIT ( ) SI_UNIT ( $, .RADIAN. ) );
#306 = ORIENTED_EDGE ( 'NONE', *, *, #103, .T. ) ;
#307 = VECTOR ( 'NONE', #250, 39.37007874015748143 ) ;
#308 = CARTESIAN_POINT ( 'NONE',  ( 0.000000000000000000, 0.000000000000000000, 0.000000000000000000 ) ) ;
#309 = PRODUCT_DEFINITION_SHAPE ( 'NONE', 'NONE',  #230 ) ;
ENDSEC;
END-ISO-10303-21;
