ISO-10303-21;
HEADER;
FILE_DESCRIPTION (( 'STEP AP214' ),
    '1' );
FILE_NAME ('82265.STEP',
    '2023-06-23T04:45:02',
    ( '' ),
    ( '' ),
    'SwSTEP 2.0',
    'SolidWorks 2023',
    '' );
FILE_SCHEMA (( 'AUTOMOTIVE_DESIGN' ));
ENDSEC;

DATA;
#1 = DIRECTION ( 'NONE',  ( 0.000000000000000000, 0.000000000000000000, 1.000000000000000000 ) ) ;
#2 = DIRECTION ( 'NONE',  ( 0.000000000000000000, 0.000000000000000000, -1.000000000000000000 ) ) ;
#3 =( GEOMETRIC_REPRESENTATION_CONTEXT ( 3 ) GLOBAL_UNCERTAINTY_ASSIGNED_CONTEXT ( ( #126 ) ) GLOBAL_UNIT_ASSIGNED_CONTEXT ( ( #31, #58, #82 ) ) REPRESENTATION_CONTEXT ( 'NONE', 'WORKASPACE' ) );
#4 = CARTESIAN_POINT ( 'NONE',  ( 7.582401355855259480E-33, 1.000000000000000000, 0.000000000000000000 ) ) ;
#5 = LINE ( 'NONE', #8, #272 ) ;
#6 = CARTESIAN_POINT ( 'NONE',  ( 0.000000000000000000, 0.000000000000000000, -0.1250000000000000000 ) ) ;
#7 = APPLICATION_PROTOCOL_DEFINITION ( 'draft international standard', 'automotive_design', 1998, #131 ) ;
#8 = CARTESIAN_POINT ( 'NONE',  ( -0.1250000000000001110, 3.000000000000000444, 0.000000000000000000 ) ) ;
#9 = VECTOR ( 'NONE', #261, 39.37007874015748143 ) ;
#10 =( NAMED_UNIT ( * ) PLANE_ANGLE_UNIT ( ) SI_UNIT ( $, .RADIAN. ) );
#11 = FACE_OUTER_BOUND ( 'NONE', #258, .T. ) ;
#12 = MECHANICAL_DESIGN_GEOMETRIC_PRESENTATION_REPRESENTATION (  '', ( #210 ), #257 ) ;
#13 = SURFACE_STYLE_USAGE ( .BOTH. , #90 ) ;
#14 = ORIENTED_EDGE ( 'NONE', *, *, #253, .F. ) ;
#15 = CYLINDRICAL_SURFACE ( 'NONE', #247, 0.1250000000000000000 ) ;
#16 = ORIENTED_EDGE ( 'NONE', *, *, #298, .T. ) ;
#17 = STYLED_ITEM ( 'NONE', ( #186 ), #23 ) ;
#18 = CIRCLE ( 'NONE', #197, 0.1250000000000000000 ) ;
#19 = PRESENTATION_STYLE_ASSIGNMENT (( #256 ) ) ;
#20 = UNCERTAINTY_MEASURE_WITH_UNIT (LENGTH_MEASURE( 1.000000000000000082E-05 ), #25, 'distance_accuracy_value', 'NONE');
#21 = PRESENTATION_LAYER_ASSIGNMENT (  '', '', ( #153 ) ) ;
#22 = ORIENTED_EDGE ( 'NONE', *, *, #273, .T. ) ;
#23 = ADVANCED_FACE ( 'NONE', ( #275 ), #166, .T. ) ;
#24 = DIRECTION ( 'NONE',  ( -0.000000000000000000, -1.000000000000000000, -0.000000000000000000 ) ) ;
#25 =( CONVERSION_BASED_UNIT ( 'INCH', #49 ) LENGTH_UNIT ( ) NAMED_UNIT ( #92 ) );
#26 = APPLICATION_CONTEXT ( 'automotive_design' ) ;
#27 = AXIS2_PLACEMENT_3D ( 'NONE', #111, #85, #305 ) ;
#28 = FILL_AREA_STYLE_COLOUR ( '', #147 ) ;
#29 =( CONVERSION_BASED_UNIT ( 'INCH', #32 ) LENGTH_UNIT ( ) NAMED_UNIT ( #211 ) );
#30 =( NAMED_UNIT ( * ) PLANE_ANGLE_UNIT ( ) SI_UNIT ( $, .RADIAN. ) );
#31 =( CONVERSION_BASED_UNIT ( 'INCH', #182 ) LENGTH_UNIT ( ) NAMED_UNIT ( #204 ) );
#32 = LENGTH_MEASURE_WITH_UNIT ( LENGTH_MEASURE( 0.02539999999999999897 ), #245 );
#33 = PRESENTATION_LAYER_ASSIGNMENT (  '', '', ( #17 ) ) ;
#34 = STYLED_ITEM ( 'NONE', ( #154 ), #59 ) ;
#35 = EDGE_CURVE ( 'NONE', #212, #39, #167, .T. ) ;
#36 = EDGE_CURVE ( 'NONE', #193, #232, #176, .T. ) ;
#37 = ORIENTED_EDGE ( 'NONE', *, *, #298, .F. ) ;
#38 = SURFACE_SIDE_STYLE ('',( #252 ) ) ;
#39 = VERTEX_POINT ( 'NONE', #146 ) ;
#40 =( NAMED_UNIT ( * ) SI_UNIT ( $, .STERADIAN. ) SOLID_ANGLE_UNIT ( ) );
#41 = ORIENTED_EDGE ( 'NONE', *, *, #36, .T. ) ;
#42 = DIRECTION ( 'NONE',  ( -1.000000000000000000, 0.000000000000000000, 0.000000000000000000 ) ) ;
#43 = ORIENTED_EDGE ( 'NONE', *, *, #81, .F. ) ;
#44 = MECHANICAL_DESIGN_GEOMETRIC_PRESENTATION_REPRESENTATION (  '', ( #127 ), #306 ) ;
#45 = FILL_AREA_STYLE_COLOUR ( '', #175 ) ;
#46 = LINE ( 'NONE', #292, #295 ) ;
#47 =( NAMED_UNIT ( * ) SI_UNIT ( $, .STERADIAN. ) SOLID_ANGLE_UNIT ( ) );
#48 = CARTESIAN_POINT ( 'NONE',  ( -6.123233995736772199E-17, 3.000000000000000444, 0.000000000000000000 ) ) ;
#49 = LENGTH_MEASURE_WITH_UNIT ( LENGTH_MEASURE( 0.02539999999999999897 ), #99 );
#50 = DIRECTION ( 'NONE',  ( 0.000000000000000000, -0.000000000000000000, 1.000000000000000000 ) ) ;
#51 = MANIFOLD_SOLID_BREP ( 'Revolve - Cutting Edge', #119 ) ;
#52 = MANIFOLD_SOLID_BREP ( 'Revolve - Tool Body (Straight Shanked)', #304 ) ;
#53 = SURFACE_STYLE_FILL_AREA ( #262 ) ;
#54 = MECHANICAL_DESIGN_GEOMETRIC_PRESENTATION_REPRESENTATION (  '', ( #34 ), #223 ) ;
#55 = CARTESIAN_POINT ( 'NONE',  ( 0.000000000000000000, 0.000000000000000000, 0.000000000000000000 ) ) ;
#56 = UNCERTAINTY_MEASURE_WITH_UNIT (LENGTH_MEASURE( 1.000000000000000082E-05 ), #216, 'distance_accuracy_value', 'NONE');
#57 = DIRECTION ( 'NONE',  ( 0.000000000000000000, 0.000000000000000000, -1.000000000000000000 ) ) ;
#58 =( NAMED_UNIT ( * ) PLANE_ANGLE_UNIT ( ) SI_UNIT ( $, .RADIAN. ) );
#59 = ADVANCED_FACE ( 'NONE', ( #246 ), #123, .T. ) ;
#60 = CARTESIAN_POINT ( 'NONE',  ( 0.1250000000000000278, 3.000000000000000444, 1.530808498934192125E-17 ) ) ;
#61 = CARTESIAN_POINT ( 'NONE',  ( 1.530808498934191509E-17, 1.000000000000000000, 0.1250000000000000000 ) ) ;
#62 = PRESENTATION_LAYER_ASSIGNMENT (  '', '', ( #210 ) ) ;
#63 =( NAMED_UNIT ( * ) PLANE_ANGLE_UNIT ( ) SI_UNIT ( $, .RADIAN. ) );
#64 = VERTEX_POINT ( 'NONE', #301 ) ;
#65 = DIRECTION ( 'NONE',  ( -0.000000000000000000, -1.000000000000000000, -0.000000000000000000 ) ) ;
#66 = EDGE_LOOP ( 'NONE', ( #37, #112 ) ) ;
#67 = PRODUCT ( '82265', '82265', '', ( #234 ) ) ;
#68 = DIMENSIONAL_EXPONENTS ( 1.000000000000000000, 0.000000000000000000, 0.000000000000000000, 0.000000000000000000, 0.000000000000000000, 0.000000000000000000, 0.000000000000000000 ) ;
#69 =( CONVERSION_BASED_UNIT ( 'INCH', #188 ) LENGTH_UNIT ( ) NAMED_UNIT ( #162 ) );
#70 = ORIENTED_EDGE ( 'NONE', *, *, #134, .T. ) ;
#71 = AXIS2_PLACEMENT_3D ( 'NONE', #224, #274, #42 ) ;
#72 = DIRECTION ( 'NONE',  ( -3.061616997868386099E-17, 1.000000000000000000, -0.000000000000000000 ) ) ;
#73 = CARTESIAN_POINT ( 'NONE',  ( 0.000000000000000000, 1.000000000000000000, -0.1250000000000000000 ) ) ;
#74 = APPLICATION_PROTOCOL_DEFINITION ( 'draft international standard', 'automotive_design', 1998, #26 ) ;
#75 =( LENGTH_UNIT ( ) NAMED_UNIT ( * ) SI_UNIT ( $, .METRE. ) );
#76 = PRESENTATION_LAYER_ASSIGNMENT (  '', '', ( #34 ) ) ;
#77 = DIRECTION ( 'NONE',  ( -3.061616997868386099E-17, 1.000000000000000000, -0.000000000000000000 ) ) ;
#78 = ADVANCED_FACE ( 'NONE', ( #308 ), #203, .F. ) ;
#79 = DIRECTION ( 'NONE',  ( -0.000000000000000000, -1.000000000000000000, -0.000000000000000000 ) ) ;
#80 = AXIS2_PLACEMENT_3D ( 'NONE', #259, #96, #121 ) ;
#81 = EDGE_CURVE ( 'NONE', #189, #113, #240, .T. ) ;
#82 =( NAMED_UNIT ( * ) SI_UNIT ( $, .STERADIAN. ) SOLID_ANGLE_UNIT ( ) );
#83 = PRESENTATION_STYLE_ASSIGNMENT (( #297 ) ) ;
#84 = SURFACE_STYLE_USAGE ( .BOTH. , #106 ) ;
#85 = DIRECTION ( 'NONE',  ( -3.061616997868386099E-17, 1.000000000000000000, -0.000000000000000000 ) ) ;
#86 = UNCERTAINTY_MEASURE_WITH_UNIT (LENGTH_MEASURE( 1.000000000000000082E-05 ), #108, 'distance_accuracy_value', 'NONE');
#87 = ORIENTED_EDGE ( 'NONE', *, *, #289, .T. ) ;
#88 = CIRCLE ( 'NONE', #71, 0.1250000000000000555 ) ;
#89 = AXIS2_PLACEMENT_3D ( 'NONE', #183, #105, #270 ) ;
#90 = SURFACE_SIDE_STYLE ('',( #136 ) ) ;
#91 = EDGE_LOOP ( 'NONE', ( #251, #70, #137, #231 ) ) ;
#92 = DIMENSIONAL_EXPONENTS ( 1.000000000000000000, 0.000000000000000000, 0.000000000000000000, 0.000000000000000000, 0.000000000000000000, 0.000000000000000000, 0.000000000000000000 ) ;
#93 = CARTESIAN_POINT ( 'NONE',  ( 0.000000000000000000, 0.000000000000000000, 0.000000000000000000 ) ) ;
#94 = PRODUCT_DEFINITION_FORMATION_WITH_SPECIFIED_SOURCE ( 'ANY', '', #67, .NOT_KNOWN. ) ;
#95 = DIRECTION ( 'NONE',  ( -1.000000000000000000, 0.000000000000000000, 0.000000000000000000 ) ) ;
#96 = DIRECTION ( 'NONE',  ( -3.061616997868386099E-17, 1.000000000000000000, -0.000000000000000000 ) ) ;
#97 = MECHANICAL_DESIGN_GEOMETRIC_PRESENTATION_REPRESENTATION (  '', ( #153 ), #214 ) ;
#98 = AXIS2_PLACEMENT_3D ( 'NONE', #48, #143, #239 ) ;
#99 =( LENGTH_UNIT ( ) NAMED_UNIT ( * ) SI_UNIT ( $, .METRE. ) );
#100 = EDGE_CURVE ( 'NONE', #113, #189, #88, .T. ) ;
#101 =( LENGTH_UNIT ( ) NAMED_UNIT ( * ) SI_UNIT ( $, .METRE. ) );
#102 = CARTESIAN_POINT ( 'NONE',  ( 7.582401355855259480E-33, 1.000000000000000000, 0.000000000000000000 ) ) ;
#103 = PLANE ( 'NONE',  #89 ) ;
#104 = MECHANICAL_DESIGN_GEOMETRIC_PRESENTATION_REPRESENTATION (  '', ( #160 ), #3 ) ;
#105 = DIRECTION ( 'NONE',  ( -3.061616997868386099E-17, 1.000000000000000000, 0.000000000000000000 ) ) ;
#106 = SURFACE_SIDE_STYLE ('',( #249 ) ) ;
#107 = PLANE ( 'NONE',  #152 ) ;
#108 =( CONVERSION_BASED_UNIT ( 'INCH', #225 ) LENGTH_UNIT ( ) NAMED_UNIT ( #110 ) );
#109 = ORIENTED_EDGE ( 'NONE', *, *, #273, .F. ) ;
#110 = DIMENSIONAL_EXPONENTS ( 1.000000000000000000, 0.000000000000000000, 0.000000000000000000, 0.000000000000000000, 0.000000000000000000, 0.000000000000000000, 0.000000000000000000 ) ;
#111 = CARTESIAN_POINT ( 'NONE',  ( -6.123233995736772199E-17, 3.000000000000000444, 0.000000000000000000 ) ) ;
#112 = ORIENTED_EDGE ( 'NONE', *, *, #35, .F. ) ;
#113 = VERTEX_POINT ( 'NONE', #60 ) ;
#114 = PRESENTATION_LAYER_ASSIGNMENT (  '', '', ( #127 ) ) ;
#115 = DIRECTION ( 'NONE',  ( 0.000000000000000000, 0.000000000000000000, -1.000000000000000000 ) ) ;
#116 = SURFACE_SIDE_STYLE ('',( #233 ) ) ;
#117 = SHAPE_DEFINITION_REPRESENTATION ( #276, #179 ) ;
#118 = DIRECTION ( 'NONE',  ( 0.000000000000000000, 0.000000000000000000, -1.000000000000000000 ) ) ;
#119 = CLOSED_SHELL ( 'NONE', ( #59, #159, #122, #23 ) ) ;
#120 = AXIS2_PLACEMENT_3D ( 'NONE', #288, #241, #264 ) ;
#121 = DIRECTION ( 'NONE',  ( -1.000000000000000000, 0.000000000000000000, 0.000000000000000000 ) ) ;
#122 = ADVANCED_FACE ( 'NONE', ( #254 ), #15, .T. ) ;
#123 = CYLINDRICAL_SURFACE ( 'NONE', #200, 0.1250000000000000000 ) ;
#124 = CIRCLE ( 'NONE', #291, 0.1250000000000000000 ) ;
#125 = SURFACE_SIDE_STYLE ('',( #53 ) ) ;
#126 = UNCERTAINTY_MEASURE_WITH_UNIT (LENGTH_MEASURE( 1.000000000000000082E-05 ), #31, 'distance_accuracy_value', 'NONE');
#127 = STYLED_ITEM ( 'NONE', ( #129 ), #122 ) ;
#128 = FILL_AREA_STYLE_COLOUR ( '', #218 ) ;
#129 = PRESENTATION_STYLE_ASSIGNMENT (( #13 ) ) ;
#130 = ORIENTED_EDGE ( 'NONE', *, *, #237, .F. ) ;
#131 = APPLICATION_CONTEXT ( 'automotive_design' ) ;
#132 =( LENGTH_UNIT ( ) NAMED_UNIT ( * ) SI_UNIT ( $, .METRE. ) );
#133 = UNCERTAINTY_MEASURE_WITH_UNIT (LENGTH_MEASURE( 1.000000000000000082E-05 ), #178, 'distance_accuracy_value', 'NONE');
#134 = EDGE_CURVE ( 'NONE', #157, #64, #229, .T. ) ;
#135 = EDGE_LOOP ( 'NONE', ( #191, #22, #41, #14 ) ) ;
#136 = SURFACE_STYLE_FILL_AREA ( #230 ) ;
#137 = ORIENTED_EDGE ( 'NONE', *, *, #289, .F. ) ;
#138 = CIRCLE ( 'NONE', #168, 0.1250000000000000000 ) ;
#139 = CARTESIAN_POINT ( 'NONE',  ( 0.000000000000000000, 0.000000000000000000, 0.000000000000000000 ) ) ;
#140 = FILL_AREA_STYLE ('',( #45 ) ) ;
#141 = CARTESIAN_POINT ( 'NONE',  ( 0.000000000000000000, 1.000000000000000000, 0.000000000000000000 ) ) ;
#142 =( NAMED_UNIT ( * ) PLANE_ANGLE_UNIT ( ) SI_UNIT ( $, .RADIAN. ) );
#143 = DIRECTION ( 'NONE',  ( -3.061616997868386099E-17, 1.000000000000000000, -0.000000000000000000 ) ) ;
#144 = CIRCLE ( 'NONE', #244, 0.1250000000000000000 ) ;
#145 = CARTESIAN_POINT ( 'NONE',  ( 0.000000000000000000, 0.000000000000000000, -0.1250000000000000000 ) ) ;
#146 = CARTESIAN_POINT ( 'NONE',  ( -0.1250000000000000000, 1.000000000000000000, 0.000000000000000000 ) ) ;
#147 = COLOUR_RGB ( '',0.7921568627450980005, 0.8196078431372548767, 0.9333333333333333481 ) ;
#148 = AXIS2_PLACEMENT_3D ( 'NONE', #55, #265, #180 ) ;
#149 = FILL_AREA_STYLE ('',( #199 ) ) ;
#150 = DIRECTION ( 'NONE',  ( -0.000000000000000000, -1.000000000000000000, -0.000000000000000000 ) ) ;
#151 = DIRECTION ( 'NONE',  ( -1.000000000000000000, 0.000000000000000000, 0.000000000000000000 ) ) ;
#152 = AXIS2_PLACEMENT_3D ( 'NONE', #217, #169, #50 ) ;
#153 = STYLED_ITEM ( 'NONE', ( #19 ), #159 ) ;
#154 = PRESENTATION_STYLE_ASSIGNMENT (( #84 ) ) ;
#155 =( LENGTH_UNIT ( ) NAMED_UNIT ( * ) SI_UNIT ( $, .METRE. ) );
#156 = UNCERTAINTY_MEASURE_WITH_UNIT (LENGTH_MEASURE( 1.000000000000000082E-05 ), #69, 'distance_accuracy_value', 'NONE');
#157 = VERTEX_POINT ( 'NONE', #61 ) ;
#158 = FILL_AREA_STYLE ('',( #192 ) ) ;
#159 = ADVANCED_FACE ( 'NONE', ( #11 ), #107, .T. ) ;
#160 = STYLED_ITEM ( 'NONE', ( #83 ), #52 ) ;
#161 = AXIS2_PLACEMENT_3D ( 'NONE', #93, #1, #238 ) ;
#162 = DIMENSIONAL_EXPONENTS ( 1.000000000000000000, 0.000000000000000000, 0.000000000000000000, 0.000000000000000000, 0.000000000000000000, 0.000000000000000000, 0.000000000000000000 ) ;
#163 = CARTESIAN_POINT ( 'NONE',  ( 0.000000000000000000, 0.000000000000000000, 0.000000000000000000 ) ) ;
#164 = DIRECTION ( 'NONE',  ( 1.000000000000000000, 3.061616997868386099E-17, 0.000000000000000000 ) ) ;
#165 = EDGE_LOOP ( 'NONE', ( #87, #303 ) ) ;
#166 = PLANE ( 'NONE',  #120 ) ;
#167 = CIRCLE ( 'NONE', #185, 0.1250000000000000000 ) ;
#168 = AXIS2_PLACEMENT_3D ( 'NONE', #141, #24, #118 ) ;
#169 = DIRECTION ( 'NONE',  ( 0.000000000000000000, 1.000000000000000000, 0.000000000000000000 ) ) ;
#170 = LENGTH_MEASURE_WITH_UNIT ( LENGTH_MEASURE( 0.02539999999999999897 ), #75 );
#171 = CYLINDRICAL_SURFACE ( 'NONE', #98, 0.1250000000000000278 ) ;
#172 = SURFACE_STYLE_USAGE ( .BOTH. , #125 ) ;
#173 = CARTESIAN_POINT ( 'NONE',  ( 0.1250000000000000278, 1.000000000000000000, 1.530808498934192125E-17 ) ) ;
#174 = EDGE_CURVE ( 'NONE', #39, #189, #5, .T. ) ;
#175 = COLOUR_RGB ( '',1.000000000000000000, 0.000000000000000000, 0.000000000000000000 ) ;
#176 = LINE ( 'NONE', #145, #9 ) ;
#177 = DIRECTION ( 'NONE',  ( -3.061616997868386099E-17, 1.000000000000000000, -0.000000000000000000 ) ) ;
#178 =( CONVERSION_BASED_UNIT ( 'INCH', #269 ) LENGTH_UNIT ( ) NAMED_UNIT ( #207 ) );
#179 = ADVANCED_BREP_SHAPE_REPRESENTATION ( '82265', ( #51, #52, #161 ), #299 ) ;
#180 = DIRECTION ( 'NONE',  ( 0.000000000000000000, 0.000000000000000000, -1.000000000000000000 ) ) ;
#181 = COLOUR_RGB ( '',1.000000000000000000, 0.000000000000000000, 0.000000000000000000 ) ;
#182 = LENGTH_MEASURE_WITH_UNIT ( LENGTH_MEASURE( 0.02539999999999999897 ), #184 );
#183 = CARTESIAN_POINT ( 'NONE',  ( 5.858436651022893041E-35, 1.000000000000000000, 0.000000000000000000 ) ) ;
#184 =( LENGTH_UNIT ( ) NAMED_UNIT ( * ) SI_UNIT ( $, .METRE. ) );
#185 = AXIS2_PLACEMENT_3D ( 'NONE', #4, #77, #95 ) ;
#186 = PRESENTATION_STYLE_ASSIGNMENT (( #213 ) ) ;
#187 = CARTESIAN_POINT ( 'NONE',  ( 1.530808498934191509E-17, 0.000000000000000000, 0.1250000000000000000 ) ) ;
#188 = LENGTH_MEASURE_WITH_UNIT ( LENGTH_MEASURE( 0.02539999999999999897 ), #132 );
#189 = VERTEX_POINT ( 'NONE', #287 ) ;
#190 = COLOUR_RGB ( '',0.7921568627450980005, 0.8196078431372548767, 0.9333333333333333481 ) ;
#191 = ORIENTED_EDGE ( 'NONE', *, *, #134, .F. ) ;
#192 = FILL_AREA_STYLE_COLOUR ( '', #243 ) ;
#193 = VERTEX_POINT ( 'NONE', #73 ) ;
#194 =( NAMED_UNIT ( * ) SI_UNIT ( $, .STERADIAN. ) SOLID_ANGLE_UNIT ( ) );
#195 =( NAMED_UNIT ( * ) SI_UNIT ( $, .STERADIAN. ) SOLID_ANGLE_UNIT ( ) );
#196 = DIRECTION ( 'NONE',  ( -0.000000000000000000, -1.000000000000000000, -0.000000000000000000 ) ) ;
#197 = AXIS2_PLACEMENT_3D ( 'NONE', #139, #196, #2 ) ;
#198 =( NAMED_UNIT ( * ) PLANE_ANGLE_UNIT ( ) SI_UNIT ( $, .RADIAN. ) );
#199 = FILL_AREA_STYLE_COLOUR ( '', #190 ) ;
#200 = AXIS2_PLACEMENT_3D ( 'NONE', #293, #79, #266 ) ;
#201 = FACE_OUTER_BOUND ( 'NONE', #66, .T. ) ;
#202 = PRODUCT_DEFINITION ( 'UNKNOWN', '', #94, #226 ) ;
#203 = PLANE ( 'NONE',  #227 ) ;
#204 = DIMENSIONAL_EXPONENTS ( 1.000000000000000000, 0.000000000000000000, 0.000000000000000000, 0.000000000000000000, 0.000000000000000000, 0.000000000000000000, 0.000000000000000000 ) ;
#205 =( NAMED_UNIT ( * ) PLANE_ANGLE_UNIT ( ) SI_UNIT ( $, .RADIAN. ) );
#206 = ORIENTED_EDGE ( 'NONE', *, *, #237, .T. ) ;
#207 = DIMENSIONAL_EXPONENTS ( 1.000000000000000000, 0.000000000000000000, 0.000000000000000000, 0.000000000000000000, 0.000000000000000000, 0.000000000000000000, 0.000000000000000000 ) ;
#208 = MECHANICAL_DESIGN_GEOMETRIC_PRESENTATION_REPRESENTATION (  '', ( #17 ), #279 ) ;
#209 = ORIENTED_EDGE ( 'NONE', *, *, #100, .T. ) ;
#210 = STYLED_ITEM ( 'NONE', ( #236 ), #51 ) ;
#211 = DIMENSIONAL_EXPONENTS ( 1.000000000000000000, 0.000000000000000000, 0.000000000000000000, 0.000000000000000000, 0.000000000000000000, 0.000000000000000000, 0.000000000000000000 ) ;
#212 = VERTEX_POINT ( 'NONE', #173 ) ;
#213 = SURFACE_STYLE_USAGE ( .BOTH. , #116 ) ;
#214 =( GEOMETRIC_REPRESENTATION_CONTEXT ( 3 ) GLOBAL_UNCERTAINTY_ASSIGNED_CONTEXT ( ( #156 ) ) GLOBAL_UNIT_ASSIGNED_CONTEXT ( ( #69, #63, #194 ) ) REPRESENTATION_CONTEXT ( 'NONE', 'WORKASPACE' ) );
#215 = PRODUCT_RELATED_PRODUCT_CATEGORY ( 'part', '', ( #67 ) ) ;
#216 =( CONVERSION_BASED_UNIT ( 'INCH', #170 ) LENGTH_UNIT ( ) NAMED_UNIT ( #68 ) );
#217 = CARTESIAN_POINT ( 'NONE',  ( 0.000000000000000000, 1.000000000000000000, 0.000000000000000000 ) ) ;
#218 = COLOUR_RGB ( '',1.000000000000000000, 0.000000000000000000, 0.000000000000000000 ) ;
#219 = FILL_AREA_STYLE ('',( #285 ) ) ;
#220 = CARTESIAN_POINT ( 'NONE',  ( 0.000000000000000000, 1.000000000000000000, 0.000000000000000000 ) ) ;
#221 = SURFACE_SIDE_STYLE ('',( #294 ) ) ;
#222 = ADVANCED_FACE ( 'NONE', ( #235 ), #260, .T. ) ;
#223 =( GEOMETRIC_REPRESENTATION_CONTEXT ( 3 ) GLOBAL_UNCERTAINTY_ASSIGNED_CONTEXT ( ( #133 ) ) GLOBAL_UNIT_ASSIGNED_CONTEXT ( ( #178, #10, #250 ) ) REPRESENTATION_CONTEXT ( 'NONE', 'WORKASPACE' ) );
#224 = CARTESIAN_POINT ( 'NONE',  ( -6.123233995736772199E-17, 3.000000000000000444, 0.000000000000000000 ) ) ;
#225 = LENGTH_MEASURE_WITH_UNIT ( LENGTH_MEASURE( 0.02539999999999999897 ), #155 );
#226 = PRODUCT_DEFINITION_CONTEXT ( 'detailed design', #131, 'design' ) ;
#227 = AXIS2_PLACEMENT_3D ( 'NONE', #300, #277, #164 ) ;
#228 = EDGE_LOOP ( 'NONE', ( #16, #206, #43, #309 ) ) ;
#229 = LINE ( 'NONE', #187, #290 ) ;
#230 = FILL_AREA_STYLE ('',( #128 ) ) ;
#231 = ORIENTED_EDGE ( 'NONE', *, *, #36, .F. ) ;
#232 = VERTEX_POINT ( 'NONE', #6 ) ;
#233 = SURFACE_STYLE_FILL_AREA ( #140 ) ;
#234 = PRODUCT_CONTEXT ( 'NONE', #26, 'mechanical' ) ;
#235 = FACE_OUTER_BOUND ( 'NONE', #283, .T. ) ;
#236 = PRESENTATION_STYLE_ASSIGNMENT (( #172 ) ) ;
#237 = EDGE_CURVE ( 'NONE', #212, #113, #46, .T. ) ;
#238 = DIRECTION ( 'NONE',  ( 1.000000000000000000, 0.000000000000000000, 0.000000000000000000 ) ) ;
#239 = DIRECTION ( 'NONE',  ( -1.000000000000000000, 0.000000000000000000, 0.000000000000000000 ) ) ;
#240 = CIRCLE ( 'NONE', #27, 0.1250000000000000555 ) ;
#241 = DIRECTION ( 'NONE',  ( 0.000000000000000000, -1.000000000000000000, -0.000000000000000000 ) ) ;
#242 = DIRECTION ( 'NONE',  ( -3.061616997868386099E-17, 1.000000000000000000, -0.000000000000000000 ) ) ;
#243 = COLOUR_RGB ( '',1.000000000000000000, 0.000000000000000000, 0.000000000000000000 ) ;
#244 = AXIS2_PLACEMENT_3D ( 'NONE', #220, #150, #57 ) ;
#245 =( LENGTH_UNIT ( ) NAMED_UNIT ( * ) SI_UNIT ( $, .METRE. ) );
#246 = FACE_OUTER_BOUND ( 'NONE', #91, .T. ) ;
#247 = AXIS2_PLACEMENT_3D ( 'NONE', #163, #282, #115 ) ;
#248 = CIRCLE ( 'NONE', #148, 0.1250000000000000000 ) ;
#249 = SURFACE_STYLE_FILL_AREA ( #219 ) ;
#250 =( NAMED_UNIT ( * ) SI_UNIT ( $, .STERADIAN. ) SOLID_ANGLE_UNIT ( ) );
#251 = ORIENTED_EDGE ( 'NONE', *, *, #263, .T. ) ;
#252 = SURFACE_STYLE_FILL_AREA ( #158 ) ;
#253 = EDGE_CURVE ( 'NONE', #64, #232, #18, .T. ) ;
#254 = FACE_OUTER_BOUND ( 'NONE', #135, .T. ) ;
#255 = ORIENTED_EDGE ( 'NONE', *, *, #263, .F. ) ;
#256 = SURFACE_STYLE_USAGE ( .BOTH. , #38 ) ;
#257 =( GEOMETRIC_REPRESENTATION_CONTEXT ( 3 ) GLOBAL_UNCERTAINTY_ASSIGNED_CONTEXT ( ( #20 ) ) GLOBAL_UNIT_ASSIGNED_CONTEXT ( ( #25, #30, #47 ) ) REPRESENTATION_CONTEXT ( 'NONE', 'WORKASPACE' ) );
#258 = EDGE_LOOP ( 'NONE', ( #255, #109 ) ) ;
#259 = CARTESIAN_POINT ( 'NONE',  ( -6.123233995736772199E-17, 3.000000000000000444, 0.000000000000000000 ) ) ;
#260 = CYLINDRICAL_SURFACE ( 'NONE', #80, 0.1250000000000000278 ) ;
#261 = DIRECTION ( 'NONE',  ( -0.000000000000000000, -1.000000000000000000, -0.000000000000000000 ) ) ;
#262 = FILL_AREA_STYLE ('',( #28 ) ) ;
#263 = EDGE_CURVE ( 'NONE', #193, #157, #138, .T. ) ;
#264 = DIRECTION ( 'NONE',  ( 0.000000000000000000, 0.000000000000000000, -1.000000000000000000 ) ) ;
#265 = DIRECTION ( 'NONE',  ( -0.000000000000000000, -1.000000000000000000, -0.000000000000000000 ) ) ;
#266 = DIRECTION ( 'NONE',  ( 0.000000000000000000, 0.000000000000000000, -1.000000000000000000 ) ) ;
#267 = PRESENTATION_LAYER_ASSIGNMENT (  '', '', ( #160 ) ) ;
#268 = ADVANCED_FACE ( 'NONE', ( #286 ), #171, .T. ) ;
#269 = LENGTH_MEASURE_WITH_UNIT ( LENGTH_MEASURE( 0.02539999999999999897 ), #101 );
#270 = DIRECTION ( 'NONE',  ( -1.000000000000000000, -3.061616997868386099E-17, 0.000000000000000000 ) ) ;
#271 = UNCERTAINTY_MEASURE_WITH_UNIT (LENGTH_MEASURE( 1.000000000000000082E-05 ), #29, 'distance_accuracy_value', 'NONE');
#272 = VECTOR ( 'NONE', #72, 39.37007874015748143 ) ;
#273 = EDGE_CURVE ( 'NONE', #157, #193, #144, .T. ) ;
#274 = DIRECTION ( 'NONE',  ( -3.061616997868386099E-17, 1.000000000000000000, -0.000000000000000000 ) ) ;
#275 = FACE_OUTER_BOUND ( 'NONE', #165, .T. ) ;
#276 = PRODUCT_DEFINITION_SHAPE ( 'NONE', 'NONE',  #202 ) ;
#277 = DIRECTION ( 'NONE',  ( 3.061616997868386099E-17, -1.000000000000000000, 0.000000000000000000 ) ) ;
#278 = ORIENTED_EDGE ( 'NONE', *, *, #174, .T. ) ;
#279 =( GEOMETRIC_REPRESENTATION_CONTEXT ( 3 ) GLOBAL_UNCERTAINTY_ASSIGNED_CONTEXT ( ( #56 ) ) GLOBAL_UNIT_ASSIGNED_CONTEXT ( ( #216, #142, #195 ) ) REPRESENTATION_CONTEXT ( 'NONE', 'WORKASPACE' ) );
#280 = ADVANCED_FACE ( 'NONE', ( #201 ), #103, .F. ) ;
#281 = ORIENTED_EDGE ( 'NONE', *, *, #81, .T. ) ;
#282 = DIRECTION ( 'NONE',  ( -0.000000000000000000, -1.000000000000000000, -0.000000000000000000 ) ) ;
#283 = EDGE_LOOP ( 'NONE', ( #130, #307, #278, #302 ) ) ;
#284 = EDGE_LOOP ( 'NONE', ( #281, #209 ) ) ;
#285 = FILL_AREA_STYLE_COLOUR ( '', #181 ) ;
#286 = FACE_OUTER_BOUND ( 'NONE', #228, .T. ) ;
#287 = CARTESIAN_POINT ( 'NONE',  ( -0.1250000000000001388, 3.000000000000000444, 0.000000000000000000 ) ) ;
#288 = CARTESIAN_POINT ( 'NONE',  ( 0.000000000000000000, 0.000000000000000000, 0.000000000000000000 ) ) ;
#289 = EDGE_CURVE ( 'NONE', #232, #64, #248, .T. ) ;
#290 = VECTOR ( 'NONE', #65, 39.37007874015748143 ) ;
#291 = AXIS2_PLACEMENT_3D ( 'NONE', #102, #242, #151 ) ;
#292 = CARTESIAN_POINT ( 'NONE',  ( 0.1249999999999999584, 3.000000000000000444, 1.530808498934191817E-17 ) ) ;
#293 = CARTESIAN_POINT ( 'NONE',  ( 0.000000000000000000, 0.000000000000000000, 0.000000000000000000 ) ) ;
#294 = SURFACE_STYLE_FILL_AREA ( #149 ) ;
#295 = VECTOR ( 'NONE', #177, 39.37007874015748143 ) ;
#296 =( NAMED_UNIT ( * ) SI_UNIT ( $, .STERADIAN. ) SOLID_ANGLE_UNIT ( ) );
#297 = SURFACE_STYLE_USAGE ( .BOTH. , #221 ) ;
#298 = EDGE_CURVE ( 'NONE', #39, #212, #124, .T. ) ;
#299 =( GEOMETRIC_REPRESENTATION_CONTEXT ( 3 ) GLOBAL_UNCERTAINTY_ASSIGNED_CONTEXT ( ( #271 ) ) GLOBAL_UNIT_ASSIGNED_CONTEXT ( ( #29, #198, #296 ) ) REPRESENTATION_CONTEXT ( 'NONE', 'WORKASPACE' ) );
#300 = CARTESIAN_POINT ( 'NONE',  ( 0.1250000000000000000, 3.000000000000000444, 0.000000000000000000 ) ) ;
#301 = CARTESIAN_POINT ( 'NONE',  ( 1.530808498934191509E-17, 0.000000000000000000, 0.1250000000000000000 ) ) ;
#302 = ORIENTED_EDGE ( 'NONE', *, *, #100, .F. ) ;
#303 = ORIENTED_EDGE ( 'NONE', *, *, #253, .T. ) ;
#304 = CLOSED_SHELL ( 'NONE', ( #268, #280, #222, #78 ) ) ;
#305 = DIRECTION ( 'NONE',  ( -1.000000000000000000, 0.000000000000000000, 0.000000000000000000 ) ) ;
#306 =( GEOMETRIC_REPRESENTATION_CONTEXT ( 3 ) GLOBAL_UNCERTAINTY_ASSIGNED_CONTEXT ( ( #86 ) ) GLOBAL_UNIT_ASSIGNED_CONTEXT ( ( #108, #205, #40 ) ) REPRESENTATION_CONTEXT ( 'NONE', 'WORKASPACE' ) );
#307 = ORIENTED_EDGE ( 'NONE', *, *, #35, .T. ) ;
#308 = FACE_OUTER_BOUND ( 'NONE', #284, .T. ) ;
#309 = ORIENTED_EDGE ( 'NONE', *, *, #174, .F. ) ;
ENDSEC;
END-ISO-10303-21;
