ISO-10303-21;
HEADER;
FILE_DESCRIPTION (( 'STEP AP214' ),
    '1' );
FILE_NAME ('81701.STEP',
    '2023-06-23T02:32:51',
    ( '' ),
    ( '' ),
    'SwSTEP 2.0',
    'SolidWorks 2023',
    '' );
FILE_SCHEMA (( 'AUTOMOTIVE_DESIGN' ));
ENDSEC;

DATA;
#1 = DIRECTION ( 'NONE',  ( 0.000000000000000000, 0.000000000000000000, -1.000000000000000000 ) ) ;
#2 =( LENGTH_UNIT ( ) NAMED_UNIT ( * ) SI_UNIT ( $, .METRE. ) );
#3 = AXIS2_PLACEMENT_3D ( 'NONE', #106, #252, #245 ) ;
#4 = MANIFOLD_SOLID_BREP ( 'Revolve - Tool Body (Straight Shanked)', #25 ) ;
#5 = UNCERTAINTY_MEASURE_WITH_UNIT (LENGTH_MEASURE( 1.000000000000000082E-05 ), #273, 'distance_accuracy_value', 'NONE');
#6 = ADVANCED_FACE ( 'NONE', ( #38 ), #206, .T. ) ;
#7 = DIRECTION ( 'NONE',  ( 2.260886398425882692E-16, 1.000000000000000000, -0.000000000000000000 ) ) ;
#8 = COLOUR_RGB ( '',1.000000000000000000, 0.000000000000000000, 0.000000000000000000 ) ;
#9 = EDGE_LOOP ( 'NONE', ( #16, #200, #107, #102 ) ) ;
#10 = LENGTH_MEASURE_WITH_UNIT ( LENGTH_MEASURE( 0.02539999999999999897 ), #99 );
#11 = SURFACE_STYLE_FILL_AREA ( #277 ) ;
#12 = STYLED_ITEM ( 'NONE', ( #265 ), #158 ) ;
#13 = FILL_AREA_STYLE_COLOUR ( '', #281 ) ;
#14 = CARTESIAN_POINT ( 'NONE',  ( 3.673940397442059375E-16, 2.000000000000000000, 0.000000000000000000 ) ) ;
#15 = VERTEX_POINT ( 'NONE', #39 ) ;
#16 = ORIENTED_EDGE ( 'NONE', *, *, #179, .F. ) ;
#17 = DIRECTION ( 'NONE',  ( -1.000000000000000000, 2.260886398425882692E-16, 0.000000000000000000 ) ) ;
#18 = LENGTH_MEASURE_WITH_UNIT ( LENGTH_MEASURE( 0.02539999999999999897 ), #2 );
#19 = STYLED_ITEM ( 'NONE', ( #85 ), #215 ) ;
#20 = APPLICATION_PROTOCOL_DEFINITION ( 'draft international standard', 'automotive_design', 1998, #108 ) ;
#21 = AXIS2_PLACEMENT_3D ( 'NONE', #65, #186, #61 ) ;
#22 = DIRECTION ( 'NONE',  ( 0.000000000000000000, 0.000000000000000000, 1.000000000000000000 ) ) ;
#23 = CARTESIAN_POINT ( 'NONE',  ( 0.000000000000000000, 0.3749999999999999445, -0.06250000000000001388 ) ) ;
#24 = FILL_AREA_STYLE ('',( #205 ) ) ;
#25 = CLOSED_SHELL ( 'NONE', ( #140, #121, #6, #109 ) ) ;
#26 = EDGE_LOOP ( 'NONE', ( #181, #293 ) ) ;
#27 = EDGE_CURVE ( 'NONE', #129, #15, #296, .T. ) ;
#28 = EDGE_LOOP ( 'NONE', ( #274, #51 ) ) ;
#29 =( NAMED_UNIT ( * ) SI_UNIT ( $, .STERADIAN. ) SOLID_ANGLE_UNIT ( ) );
#30 = EDGE_LOOP ( 'NONE', ( #76, #53, #251, #84 ) ) ;
#31 =( GEOMETRIC_REPRESENTATION_CONTEXT ( 3 ) GLOBAL_UNCERTAINTY_ASSIGNED_CONTEXT ( ( #49 ) ) GLOBAL_UNIT_ASSIGNED_CONTEXT ( ( #96, #218, #271 ) ) REPRESENTATION_CONTEXT ( 'NONE', 'WORKASPACE' ) );
#32 =( GEOMETRIC_REPRESENTATION_CONTEXT ( 3 ) GLOBAL_UNCERTAINTY_ASSIGNED_CONTEXT ( ( #263 ) ) GLOBAL_UNIT_ASSIGNED_CONTEXT ( ( #37, #258, #113 ) ) REPRESENTATION_CONTEXT ( 'NONE', 'WORKASPACE' ) );
#33 = ORIENTED_EDGE ( 'NONE', *, *, #175, .T. ) ;
#34 = EDGE_CURVE ( 'NONE', #298, #226, #220, .T. ) ;
#35 = DIRECTION ( 'NONE',  ( -0.000000000000000000, -1.000000000000000000, -0.000000000000000000 ) ) ;
#36 = CARTESIAN_POINT ( 'NONE',  ( 1.597377283308487800E-33, 0.3749999999999999445, 0.000000000000000000 ) ) ;
#37 =( CONVERSION_BASED_UNIT ( 'INCH', #303 ) LENGTH_UNIT ( ) NAMED_UNIT ( #64 ) );
#38 = FACE_OUTER_BOUND ( 'NONE', #30, .T. ) ;
#39 = CARTESIAN_POINT ( 'NONE',  ( 7.654042494670959086E-18, 0.000000000000000000, 0.06250000000000001388 ) ) ;
#40 =( GEOMETRIC_REPRESENTATION_CONTEXT ( 3 ) GLOBAL_UNCERTAINTY_ASSIGNED_CONTEXT ( ( #91 ) ) GLOBAL_UNIT_ASSIGNED_CONTEXT ( ( #136, #184, #110 ) ) REPRESENTATION_CONTEXT ( 'NONE', 'WORKASPACE' ) );
#41 = SURFACE_SIDE_STYLE ('',( #146 ) ) ;
#42 = PRODUCT_RELATED_PRODUCT_CATEGORY ( 'part', '', ( #203 ) ) ;
#43 = COLOUR_RGB ( '',1.000000000000000000, 0.000000000000000000, 0.000000000000000000 ) ;
#44 = FILL_AREA_STYLE ('',( #285 ) ) ;
#45 = VECTOR ( 'NONE', #283, 39.37007874015748143 ) ;
#46 = CIRCLE ( 'NONE', #80, 0.06249999999999964612 ) ;
#47 = FILL_AREA_STYLE ('',( #74 ) ) ;
#48 = CARTESIAN_POINT ( 'NONE',  ( 0.000000000000000000, 0.3749999999999999445, 0.000000000000000000 ) ) ;
#49 = UNCERTAINTY_MEASURE_WITH_UNIT (LENGTH_MEASURE( 1.000000000000000082E-05 ), #96, 'distance_accuracy_value', 'NONE');
#50 = PRESENTATION_LAYER_ASSIGNMENT (  '', '', ( #12 ) ) ;
#51 = ORIENTED_EDGE ( 'NONE', *, *, #192, .T. ) ;
#52 = DIRECTION ( 'NONE',  ( 0.000000000000000000, -1.000000000000000000, -0.000000000000000000 ) ) ;
#53 = ORIENTED_EDGE ( 'NONE', *, *, #183, .T. ) ;
#54 = DIRECTION ( 'NONE',  ( -0.000000000000000000, -1.000000000000000000, -0.000000000000000000 ) ) ;
#55 =( GEOMETRIC_REPRESENTATION_CONTEXT ( 3 ) GLOBAL_UNCERTAINTY_ASSIGNED_CONTEXT ( ( #5 ) ) GLOBAL_UNIT_ASSIGNED_CONTEXT ( ( #273, #83, #29 ) ) REPRESENTATION_CONTEXT ( 'NONE', 'WORKASPACE' ) );
#56 = ORIENTED_EDGE ( 'NONE', *, *, #235, .T. ) ;
#57 = DIRECTION ( 'NONE',  ( 2.260886398425882692E-16, 1.000000000000000000, -0.000000000000000000 ) ) ;
#58 = SURFACE_SIDE_STYLE ('',( #11 ) ) ;
#59 = CIRCLE ( 'NONE', #152, 0.06250000000000001388 ) ;
#60 = DIRECTION ( 'NONE',  ( -0.000000000000000000, -1.000000000000000000, -0.000000000000000000 ) ) ;
#61 = DIRECTION ( 'NONE',  ( 0.000000000000000000, 0.000000000000000000, -1.000000000000000000 ) ) ;
#62 = CARTESIAN_POINT ( 'NONE',  ( 0.000000000000000000, 0.000000000000000000, -0.06250000000000001388 ) ) ;
#63 = DIRECTION ( 'NONE',  ( -0.000000000000000000, -1.000000000000000000, -0.000000000000000000 ) ) ;
#64 = DIMENSIONAL_EXPONENTS ( 1.000000000000000000, 0.000000000000000000, 0.000000000000000000, 0.000000000000000000, 0.000000000000000000, 0.000000000000000000, 0.000000000000000000 ) ;
#65 = CARTESIAN_POINT ( 'NONE',  ( 0.000000000000000000, 0.3749999999999999445, 0.000000000000000000 ) ) ;
#66 = STYLED_ITEM ( 'NONE', ( #132 ), #130 ) ;
#67 = PLANE ( 'NONE',  #147 ) ;
#68 = CARTESIAN_POINT ( 'NONE',  ( -0.06249999999999945877, 2.000000000000000000, 0.000000000000000000 ) ) ;
#69 =( NAMED_UNIT ( * ) PLANE_ANGLE_UNIT ( ) SI_UNIT ( $, .RADIAN. ) );
#70 = CIRCLE ( 'NONE', #94, 0.06249999999999964612 ) ;
#71 = SURFACE_STYLE_USAGE ( .BOTH. , #151 ) ;
#72 = AXIS2_PLACEMENT_3D ( 'NONE', #48, #230, #178 ) ;
#73 = FACE_OUTER_BOUND ( 'NONE', #207, .T. ) ;
#74 = FILL_AREA_STYLE_COLOUR ( '', #222 ) ;
#75 =( NAMED_UNIT ( * ) PLANE_ANGLE_UNIT ( ) SI_UNIT ( $, .RADIAN. ) );
#76 = ORIENTED_EDGE ( 'NONE', *, *, #240, .F. ) ;
#77 = CARTESIAN_POINT ( 'NONE',  ( -0.06250000000000001388, 0.3749999999999999445, 0.000000000000000000 ) ) ;
#78 =( LENGTH_UNIT ( ) NAMED_UNIT ( * ) SI_UNIT ( $, .METRE. ) );
#79 = CARTESIAN_POINT ( 'NONE',  ( 7.654042494670959086E-18, 0.3749999999999999445, 0.06250000000000001388 ) ) ;
#80 = AXIS2_PLACEMENT_3D ( 'NONE', #14, #7, #153 ) ;
#81 = VERTEX_POINT ( 'NONE', #262 ) ;
#82 = PRESENTATION_LAYER_ASSIGNMENT (  '', '', ( #66 ) ) ;
#83 =( NAMED_UNIT ( * ) PLANE_ANGLE_UNIT ( ) SI_UNIT ( $, .RADIAN. ) );
#84 = ORIENTED_EDGE ( 'NONE', *, *, #192, .F. ) ;
#85 = PRESENTATION_STYLE_ASSIGNMENT (( #253 ) ) ;
#86 = EDGE_LOOP ( 'NONE', ( #33, #294, #103, #224 ) ) ;
#87 = CYLINDRICAL_SURFACE ( 'NONE', #190, 0.06250000000000001388 ) ;
#88 = LENGTH_MEASURE_WITH_UNIT ( LENGTH_MEASURE( 0.02539999999999999897 ), #78 );
#89 = FACE_OUTER_BOUND ( 'NONE', #105, .T. ) ;
#90 = CARTESIAN_POINT ( 'NONE',  ( 3.673940397442059375E-16, 2.000000000000000000, 0.000000000000000000 ) ) ;
#91 = UNCERTAINTY_MEASURE_WITH_UNIT (LENGTH_MEASURE( 1.000000000000000082E-05 ), #136, 'distance_accuracy_value', 'NONE');
#92 = DIRECTION ( 'NONE',  ( 0.000000000000000000, 0.000000000000000000, -1.000000000000000000 ) ) ;
#93 =( LENGTH_UNIT ( ) NAMED_UNIT ( * ) SI_UNIT ( $, .METRE. ) );
#94 = AXIS2_PLACEMENT_3D ( 'NONE', #223, #202, #295 ) ;
#95 = DIRECTION ( 'NONE',  ( 2.260886398425882692E-16, 1.000000000000000000, -0.000000000000000000 ) ) ;
#96 =( CONVERSION_BASED_UNIT ( 'INCH', #98 ) LENGTH_UNIT ( ) NAMED_UNIT ( #168 ) );
#97 = DIRECTION ( 'NONE',  ( 0.000000000000000000, -0.000000000000000000, 1.000000000000000000 ) ) ;
#98 = LENGTH_MEASURE_WITH_UNIT ( LENGTH_MEASURE( 0.02539999999999999897 ), #242 );
#99 =( LENGTH_UNIT ( ) NAMED_UNIT ( * ) SI_UNIT ( $, .METRE. ) );
#100 = ORIENTED_EDGE ( 'NONE', *, *, #27, .T. ) ;
#101 = DIRECTION ( 'NONE',  ( 0.000000000000000000, 1.000000000000000000, 0.000000000000000000 ) ) ;
#102 = ORIENTED_EDGE ( 'NONE', *, *, #235, .F. ) ;
#103 = ORIENTED_EDGE ( 'NONE', *, *, #225, .F. ) ;
#104 = CIRCLE ( 'NONE', #165, 0.06250000000000001388 ) ;
#105 = EDGE_LOOP ( 'NONE', ( #231, #154, #126, #228 ) ) ;
#106 = CARTESIAN_POINT ( 'NONE',  ( 0.000000000000000000, 0.3749999999999999445, 0.000000000000000000 ) ) ;
#107 = ORIENTED_EDGE ( 'NONE', *, *, #280, .T. ) ;
#108 = APPLICATION_CONTEXT ( 'automotive_design' ) ;
#109 = ADVANCED_FACE ( 'NONE', ( #160 ), #67, .F. ) ;
#110 =( NAMED_UNIT ( * ) SI_UNIT ( $, .STERADIAN. ) SOLID_ANGLE_UNIT ( ) );
#111 = VECTOR ( 'NONE', #57, 39.37007874015748143 ) ;
#112 = DIRECTION ( 'NONE',  ( -0.000000000000000000, -1.000000000000000000, -0.000000000000000000 ) ) ;
#113 =( NAMED_UNIT ( * ) SI_UNIT ( $, .STERADIAN. ) SOLID_ANGLE_UNIT ( ) );
#114 = DIMENSIONAL_EXPONENTS ( 1.000000000000000000, 0.000000000000000000, 0.000000000000000000, 0.000000000000000000, 0.000000000000000000, 0.000000000000000000, 0.000000000000000000 ) ;
#115 = DIRECTION ( 'NONE',  ( 2.260886398425882692E-16, 1.000000000000000000, -0.000000000000000000 ) ) ;
#116 = SURFACE_STYLE_FILL_AREA ( #161 ) ;
#117 = EDGE_CURVE ( 'NONE', #302, #156, #305, .T. ) ;
#118 = CARTESIAN_POINT ( 'NONE',  ( 0.000000000000000000, 0.000000000000000000, 0.000000000000000000 ) ) ;
#119 = MECHANICAL_DESIGN_GEOMETRIC_PRESENTATION_REPRESENTATION (  '', ( #12 ), #55 ) ;
#120 = AXIS2_PLACEMENT_3D ( 'NONE', #123, #101, #97 ) ;
#121 = ADVANCED_FACE ( 'NONE', ( #138 ), #279, .F. ) ;
#122 =( LENGTH_UNIT ( ) NAMED_UNIT ( * ) SI_UNIT ( $, .METRE. ) );
#123 = CARTESIAN_POINT ( 'NONE',  ( 0.000000000000000000, 0.3749999999999999445, 0.000000000000000000 ) ) ;
#124 =( NAMED_UNIT ( * ) SI_UNIT ( $, .STERADIAN. ) SOLID_ANGLE_UNIT ( ) );
#125 = ORIENTED_EDGE ( 'NONE', *, *, #248, .F. ) ;
#126 = ORIENTED_EDGE ( 'NONE', *, *, #27, .F. ) ;
#127 = VERTEX_POINT ( 'NONE', #193 ) ;
#128 = LINE ( 'NONE', #149, #137 ) ;
#129 = VERTEX_POINT ( 'NONE', #62 ) ;
#130 = ADVANCED_FACE ( 'NONE', ( #139 ), #166, .T. ) ;
#131 =( CONVERSION_BASED_UNIT ( 'INCH', #18 ) LENGTH_UNIT ( ) NAMED_UNIT ( #212 ) );
#132 = PRESENTATION_STYLE_ASSIGNMENT (( #134 ) ) ;
#133 = FACE_OUTER_BOUND ( 'NONE', #300, .T. ) ;
#134 = SURFACE_STYLE_USAGE ( .BOTH. , #237 ) ;
#135 = MECHANICAL_DESIGN_GEOMETRIC_PRESENTATION_REPRESENTATION (  '', ( #272 ), #40 ) ;
#136 =( CONVERSION_BASED_UNIT ( 'INCH', #88 ) LENGTH_UNIT ( ) NAMED_UNIT ( #211 ) );
#137 = VECTOR ( 'NONE', #54, 39.37007874015748143 ) ;
#138 = FACE_OUTER_BOUND ( 'NONE', #26, .T. ) ;
#139 = FACE_OUTER_BOUND ( 'NONE', #9, .T. ) ;
#140 = ADVANCED_FACE ( 'NONE', ( #141 ), #144, .T. ) ;
#141 = FACE_OUTER_BOUND ( 'NONE', #86, .T. ) ;
#142 = COLOUR_RGB ( '',0.7921568627450980005, 0.8196078431372548767, 0.9333333333333333481 ) ;
#143 = FILL_AREA_STYLE ('',( #259 ) ) ;
#144 = CYLINDRICAL_SURFACE ( 'NONE', #167, 0.06249999999999982653 ) ;
#145 = DIRECTION ( 'NONE',  ( 1.000000000000000000, 0.000000000000000000, 0.000000000000000000 ) ) ;
#146 = SURFACE_STYLE_FILL_AREA ( #44 ) ;
#147 = AXIS2_PLACEMENT_3D ( 'NONE', #257, #307, #210 ) ;
#148 = AXIS2_PLACEMENT_3D ( 'NONE', #176, #22, #145 ) ;
#149 = CARTESIAN_POINT ( 'NONE',  ( 7.654042494670959086E-18, 0.000000000000000000, 0.06250000000000001388 ) ) ;
#150 = ORIENTED_EDGE ( 'NONE', *, *, #34, .F. ) ;
#151 = SURFACE_SIDE_STYLE ('',( #196 ) ) ;
#152 = AXIS2_PLACEMENT_3D ( 'NONE', #182, #60, #159 ) ;
#153 = DIRECTION ( 'NONE',  ( -1.000000000000000000, 0.000000000000000000, 0.000000000000000000 ) ) ;
#154 = ORIENTED_EDGE ( 'NONE', *, *, #179, .T. ) ;
#155 = CARTESIAN_POINT ( 'NONE',  ( 0.000000000000000000, 0.000000000000000000, 0.000000000000000000 ) ) ;
#156 = VERTEX_POINT ( 'NONE', #172 ) ;
#157 = SURFACE_SIDE_STYLE ('',( #299 ) ) ;
#158 = ADVANCED_FACE ( 'NONE', ( #73 ), #171, .T. ) ;
#159 = DIRECTION ( 'NONE',  ( 0.000000000000000000, 0.000000000000000000, -1.000000000000000000 ) ) ;
#160 = FACE_OUTER_BOUND ( 'NONE', #28, .T. ) ;
#161 = FILL_AREA_STYLE ('',( #170 ) ) ;
#162 = AXIS2_PLACEMENT_3D ( 'NONE', #260, #234, #284 ) ;
#163 = LINE ( 'NONE', #256, #247 ) ;
#164 = COLOUR_RGB ( '',1.000000000000000000, 0.000000000000000000, 0.000000000000000000 ) ;
#165 = AXIS2_PLACEMENT_3D ( 'NONE', #255, #112, #276 ) ;
#166 = CYLINDRICAL_SURFACE ( 'NONE', #243, 0.06250000000000001388 ) ;
#167 = AXIS2_PLACEMENT_3D ( 'NONE', #239, #95, #194 ) ;
#168 = DIMENSIONAL_EXPONENTS ( 1.000000000000000000, 0.000000000000000000, 0.000000000000000000, 0.000000000000000000, 0.000000000000000000, 0.000000000000000000, 0.000000000000000000 ) ;
#169 = AXIS2_PLACEMENT_3D ( 'NONE', #155, #52, #227 ) ;
#170 = FILL_AREA_STYLE_COLOUR ( '', #164 ) ;
#171 = PLANE ( 'NONE',  #169 ) ;
#172 = CARTESIAN_POINT ( 'NONE',  ( -0.06249999999999928529, 2.000000000000000000, 0.000000000000000000 ) ) ;
#173 = SURFACE_STYLE_USAGE ( .BOTH. , #41 ) ;
#174 = SHAPE_DEFINITION_REPRESENTATION ( #219, #291 ) ;
#175 = EDGE_CURVE ( 'NONE', #302, #127, #180, .T. ) ;
#176 = CARTESIAN_POINT ( 'NONE',  ( 0.000000000000000000, 0.000000000000000000, 0.000000000000000000 ) ) ;
#177 = PRESENTATION_LAYER_ASSIGNMENT (  '', '', ( #264 ) ) ;
#178 = DIRECTION ( 'NONE',  ( -1.000000000000000000, 0.000000000000000000, 0.000000000000000000 ) ) ;
#179 = EDGE_CURVE ( 'NONE', #226, #15, #128, .T. ) ;
#180 = CIRCLE ( 'NONE', #72, 0.06250000000000001388 ) ;
#181 = ORIENTED_EDGE ( 'NONE', *, *, #175, .F. ) ;
#182 = CARTESIAN_POINT ( 'NONE',  ( 0.000000000000000000, 0.3749999999999999445, 0.000000000000000000 ) ) ;
#183 = EDGE_CURVE ( 'NONE', #127, #302, #216, .T. ) ;
#184 =( NAMED_UNIT ( * ) PLANE_ANGLE_UNIT ( ) SI_UNIT ( $, .RADIAN. ) );
#185 = CARTESIAN_POINT ( 'NONE',  ( 0.06250000000000019429, 2.000000000000000000, 7.654042494670935974E-18 ) ) ;
#186 = DIRECTION ( 'NONE',  ( -0.000000000000000000, -1.000000000000000000, -0.000000000000000000 ) ) ;
#187 = UNCERTAINTY_MEASURE_WITH_UNIT (LENGTH_MEASURE( 1.000000000000000082E-05 ), #131, 'distance_accuracy_value', 'NONE');
#188 = AXIS2_PLACEMENT_3D ( 'NONE', #90, #115, #191 ) ;
#189 = DIMENSIONAL_EXPONENTS ( 1.000000000000000000, 0.000000000000000000, 0.000000000000000000, 0.000000000000000000, 0.000000000000000000, 0.000000000000000000, 0.000000000000000000 ) ;
#190 = AXIS2_PLACEMENT_3D ( 'NONE', #214, #63, #92 ) ;
#191 = DIRECTION ( 'NONE',  ( -1.000000000000000000, 0.000000000000000000, 0.000000000000000000 ) ) ;
#192 = EDGE_CURVE ( 'NONE', #81, #156, #46, .T. ) ;
#193 = CARTESIAN_POINT ( 'NONE',  ( 0.06250000000000001388, 0.3749999999999999445, 7.654042494670948300E-18 ) ) ;
#194 = DIRECTION ( 'NONE',  ( -1.000000000000000000, 0.000000000000000000, 0.000000000000000000 ) ) ;
#195 = STYLED_ITEM ( 'NONE', ( #246 ), #289 ) ;
#196 = SURFACE_STYLE_FILL_AREA ( #47 ) ;
#197 = PRODUCT_CONTEXT ( 'NONE', #198, 'mechanical' ) ;
#198 = APPLICATION_CONTEXT ( 'automotive_design' ) ;
#199 =( GEOMETRIC_REPRESENTATION_CONTEXT ( 3 ) GLOBAL_UNCERTAINTY_ASSIGNED_CONTEXT ( ( #292 ) ) GLOBAL_UNIT_ASSIGNED_CONTEXT ( ( #250, #75, #124 ) ) REPRESENTATION_CONTEXT ( 'NONE', 'WORKASPACE' ) );
#200 = ORIENTED_EDGE ( 'NONE', *, *, #248, .T. ) ;
#201 =( NAMED_UNIT ( * ) PLANE_ANGLE_UNIT ( ) SI_UNIT ( $, .RADIAN. ) );
#202 = DIRECTION ( 'NONE',  ( 2.260886398425882692E-16, 1.000000000000000000, -0.000000000000000000 ) ) ;
#203 = PRODUCT ( '81701', '81701', '', ( #197 ) ) ;
#204 = PRESENTATION_STYLE_ASSIGNMENT (( #221 ) ) ;
#205 = FILL_AREA_STYLE_COLOUR ( '', #142 ) ;
#206 = CYLINDRICAL_SURFACE ( 'NONE', #188, 0.06249999999999982653 ) ;
#207 = EDGE_LOOP ( 'NONE', ( #100, #56 ) ) ;
#208 = SURFACE_STYLE_FILL_AREA ( #143 ) ;
#209 = PLANE ( 'NONE',  #120 ) ;
#210 = DIRECTION ( 'NONE',  ( 1.000000000000000000, -2.260886398425882692E-16, 0.000000000000000000 ) ) ;
#211 = DIMENSIONAL_EXPONENTS ( 1.000000000000000000, 0.000000000000000000, 0.000000000000000000, 0.000000000000000000, 0.000000000000000000, 0.000000000000000000, 0.000000000000000000 ) ;
#212 = DIMENSIONAL_EXPONENTS ( 1.000000000000000000, 0.000000000000000000, 0.000000000000000000, 0.000000000000000000, 0.000000000000000000, 0.000000000000000000, 0.000000000000000000 ) ;
#213 = MECHANICAL_DESIGN_GEOMETRIC_PRESENTATION_REPRESENTATION (  '', ( #195 ), #31 ) ;
#214 = CARTESIAN_POINT ( 'NONE',  ( 0.000000000000000000, 0.000000000000000000, 0.000000000000000000 ) ) ;
#215 = MANIFOLD_SOLID_BREP ( 'Revolve - Cutting Edge', #290 ) ;
#216 = CIRCLE ( 'NONE', #3, 0.06250000000000001388 ) ;
#217 =( GEOMETRIC_REPRESENTATION_CONTEXT ( 3 ) GLOBAL_UNCERTAINTY_ASSIGNED_CONTEXT ( ( #187 ) ) GLOBAL_UNIT_ASSIGNED_CONTEXT ( ( #131, #69, #266 ) ) REPRESENTATION_CONTEXT ( 'NONE', 'WORKASPACE' ) );
#218 =( NAMED_UNIT ( * ) PLANE_ANGLE_UNIT ( ) SI_UNIT ( $, .RADIAN. ) );
#219 = PRODUCT_DEFINITION_SHAPE ( 'NONE', 'NONE',  #268 ) ;
#220 = CIRCLE ( 'NONE', #21, 0.06250000000000001388 ) ;
#221 = SURFACE_STYLE_USAGE ( .BOTH. , #58 ) ;
#222 = COLOUR_RGB ( '',1.000000000000000000, 0.000000000000000000, 0.000000000000000000 ) ;
#223 = CARTESIAN_POINT ( 'NONE',  ( 3.673940397442059375E-16, 2.000000000000000000, 0.000000000000000000 ) ) ;
#224 = ORIENTED_EDGE ( 'NONE', *, *, #117, .F. ) ;
#225 = EDGE_CURVE ( 'NONE', #156, #81, #70, .T. ) ;
#226 = VERTEX_POINT ( 'NONE', #79 ) ;
#227 = DIRECTION ( 'NONE',  ( 0.000000000000000000, 0.000000000000000000, -1.000000000000000000 ) ) ;
#228 = ORIENTED_EDGE ( 'NONE', *, *, #280, .F. ) ;
#229 = MECHANICAL_DESIGN_GEOMETRIC_PRESENTATION_REPRESENTATION (  '', ( #264 ), #217 ) ;
#230 = DIRECTION ( 'NONE',  ( 2.260886398425882692E-16, 1.000000000000000000, -0.000000000000000000 ) ) ;
#231 = ORIENTED_EDGE ( 'NONE', *, *, #34, .T. ) ;
#232 = ADVANCED_FACE ( 'NONE', ( #89 ), #87, .T. ) ;
#233 = PRESENTATION_STYLE_ASSIGNMENT (( #241 ) ) ;
#234 = DIRECTION ( 'NONE',  ( -0.000000000000000000, -1.000000000000000000, -0.000000000000000000 ) ) ;
#235 = EDGE_CURVE ( 'NONE', #15, #129, #104, .T. ) ;
#236 = DIRECTION ( 'NONE',  ( 2.260886398425882692E-16, 1.000000000000000000, -0.000000000000000000 ) ) ;
#237 = SURFACE_SIDE_STYLE ('',( #116 ) ) ;
#238 = PRESENTATION_LAYER_ASSIGNMENT (  '', '', ( #272 ) ) ;
#239 = CARTESIAN_POINT ( 'NONE',  ( 3.673940397442059375E-16, 2.000000000000000000, 0.000000000000000000 ) ) ;
#240 = EDGE_CURVE ( 'NONE', #127, #81, #306, .T. ) ;
#241 = SURFACE_STYLE_USAGE ( .BOTH. , #278 ) ;
#242 =( LENGTH_UNIT ( ) NAMED_UNIT ( * ) SI_UNIT ( $, .METRE. ) );
#243 = AXIS2_PLACEMENT_3D ( 'NONE', #118, #267, #1 ) ;
#244 =( CONVERSION_BASED_UNIT ( 'INCH', #287 ) LENGTH_UNIT ( ) NAMED_UNIT ( #261 ) );
#245 = DIRECTION ( 'NONE',  ( -1.000000000000000000, 0.000000000000000000, 0.000000000000000000 ) ) ;
#246 = PRESENTATION_STYLE_ASSIGNMENT (( #71 ) ) ;
#247 = VECTOR ( 'NONE', #35, 39.37007874015748143 ) ;
#248 = EDGE_CURVE ( 'NONE', #226, #298, #59, .T. ) ;
#249 = MECHANICAL_DESIGN_GEOMETRIC_PRESENTATION_REPRESENTATION (  '', ( #66 ), #32 ) ;
#250 =( CONVERSION_BASED_UNIT ( 'INCH', #10 ) LENGTH_UNIT ( ) NAMED_UNIT ( #114 ) );
#251 = ORIENTED_EDGE ( 'NONE', *, *, #117, .T. ) ;
#252 = DIRECTION ( 'NONE',  ( 2.260886398425882692E-16, 1.000000000000000000, -0.000000000000000000 ) ) ;
#253 = SURFACE_STYLE_USAGE ( .BOTH. , #157 ) ;
#254 = PRODUCT_DEFINITION_FORMATION_WITH_SPECIFIED_SOURCE ( 'ANY', '', #203, .NOT_KNOWN. ) ;
#255 = CARTESIAN_POINT ( 'NONE',  ( 0.000000000000000000, 0.000000000000000000, 0.000000000000000000 ) ) ;
#256 = CARTESIAN_POINT ( 'NONE',  ( 0.000000000000000000, 0.000000000000000000, -0.06250000000000001388 ) ) ;
#257 = CARTESIAN_POINT ( 'NONE',  ( 0.06250000000000001388, 2.000000000000000000, 0.000000000000000000 ) ) ;
#258 =( NAMED_UNIT ( * ) PLANE_ANGLE_UNIT ( ) SI_UNIT ( $, .RADIAN. ) );
#259 = FILL_AREA_STYLE_COLOUR ( '', #8 ) ;
#260 = CARTESIAN_POINT ( 'NONE',  ( 0.000000000000000000, 0.000000000000000000, 0.000000000000000000 ) ) ;
#261 = DIMENSIONAL_EXPONENTS ( 1.000000000000000000, 0.000000000000000000, 0.000000000000000000, 0.000000000000000000, 0.000000000000000000, 0.000000000000000000, 0.000000000000000000 ) ;
#262 = CARTESIAN_POINT ( 'NONE',  ( 0.06250000000000001388, 2.000000000000000000, 7.654042494670948300E-18 ) ) ;
#263 = UNCERTAINTY_MEASURE_WITH_UNIT (LENGTH_MEASURE( 1.000000000000000082E-05 ), #37, 'distance_accuracy_value', 'NONE');
#264 = STYLED_ITEM ( 'NONE', ( #233 ), #232 ) ;
#265 = PRESENTATION_STYLE_ASSIGNMENT (( #173 ) ) ;
#266 =( NAMED_UNIT ( * ) SI_UNIT ( $, .STERADIAN. ) SOLID_ANGLE_UNIT ( ) );
#267 = DIRECTION ( 'NONE',  ( -0.000000000000000000, -1.000000000000000000, -0.000000000000000000 ) ) ;
#268 = PRODUCT_DEFINITION ( 'UNKNOWN', '', #254, #286 ) ;
#269 =( LENGTH_UNIT ( ) NAMED_UNIT ( * ) SI_UNIT ( $, .METRE. ) );
#270 = MECHANICAL_DESIGN_GEOMETRIC_PRESENTATION_REPRESENTATION (  '', ( #19 ), #199 ) ;
#271 =( NAMED_UNIT ( * ) SI_UNIT ( $, .STERADIAN. ) SOLID_ANGLE_UNIT ( ) );
#272 = STYLED_ITEM ( 'NONE', ( #204 ), #4 ) ;
#273 =( CONVERSION_BASED_UNIT ( 'INCH', #301 ) LENGTH_UNIT ( ) NAMED_UNIT ( #189 ) );
#274 = ORIENTED_EDGE ( 'NONE', *, *, #225, .T. ) ;
#275 =( NAMED_UNIT ( * ) SI_UNIT ( $, .STERADIAN. ) SOLID_ANGLE_UNIT ( ) );
#276 = DIRECTION ( 'NONE',  ( 0.000000000000000000, 0.000000000000000000, -1.000000000000000000 ) ) ;
#277 = FILL_AREA_STYLE ('',( #13 ) ) ;
#278 = SURFACE_SIDE_STYLE ('',( #208 ) ) ;
#279 = PLANE ( 'NONE',  #297 ) ;
#280 = EDGE_CURVE ( 'NONE', #298, #129, #163, .T. ) ;
#281 = COLOUR_RGB ( '',0.7921568627450980005, 0.8196078431372548767, 0.9333333333333333481 ) ;
#282 = PRESENTATION_LAYER_ASSIGNMENT (  '', '', ( #195 ) ) ;
#283 = DIRECTION ( 'NONE',  ( 2.260886398425882692E-16, 1.000000000000000000, -0.000000000000000000 ) ) ;
#284 = DIRECTION ( 'NONE',  ( 0.000000000000000000, 0.000000000000000000, -1.000000000000000000 ) ) ;
#285 = FILL_AREA_STYLE_COLOUR ( '', #43 ) ;
#286 = PRODUCT_DEFINITION_CONTEXT ( 'detailed design', #108, 'design' ) ;
#287 = LENGTH_MEASURE_WITH_UNIT ( LENGTH_MEASURE( 0.02539999999999999897 ), #122 );
#288 = APPLICATION_PROTOCOL_DEFINITION ( 'draft international standard', 'automotive_design', 1998, #198 ) ;
#289 = ADVANCED_FACE ( 'NONE', ( #133 ), #209, .T. ) ;
#290 = CLOSED_SHELL ( 'NONE', ( #232, #289, #130, #158 ) ) ;
#291 = ADVANCED_BREP_SHAPE_REPRESENTATION ( '81701', ( #215, #4, #148 ), #304 ) ;
#292 = UNCERTAINTY_MEASURE_WITH_UNIT (LENGTH_MEASURE( 1.000000000000000082E-05 ), #250, 'distance_accuracy_value', 'NONE');
#293 = ORIENTED_EDGE ( 'NONE', *, *, #183, .F. ) ;
#294 = ORIENTED_EDGE ( 'NONE', *, *, #240, .T. ) ;
#295 = DIRECTION ( 'NONE',  ( -1.000000000000000000, 0.000000000000000000, 0.000000000000000000 ) ) ;
#296 = CIRCLE ( 'NONE', #162, 0.06250000000000001388 ) ;
#297 = AXIS2_PLACEMENT_3D ( 'NONE', #36, #236, #17 ) ;
#298 = VERTEX_POINT ( 'NONE', #23 ) ;
#299 = SURFACE_STYLE_FILL_AREA ( #24 ) ;
#300 = EDGE_LOOP ( 'NONE', ( #150, #125 ) ) ;
#301 = LENGTH_MEASURE_WITH_UNIT ( LENGTH_MEASURE( 0.02539999999999999897 ), #269 );
#302 = VERTEX_POINT ( 'NONE', #77 ) ;
#303 = LENGTH_MEASURE_WITH_UNIT ( LENGTH_MEASURE( 0.02539999999999999897 ), #93 );
#304 =( GEOMETRIC_REPRESENTATION_CONTEXT ( 3 ) GLOBAL_UNCERTAINTY_ASSIGNED_CONTEXT ( ( #309 ) ) GLOBAL_UNIT_ASSIGNED_CONTEXT ( ( #244, #201, #275 ) ) REPRESENTATION_CONTEXT ( 'NONE', 'WORKASPACE' ) );
#305 = LINE ( 'NONE', #68, #45 ) ;
#306 = LINE ( 'NONE', #185, #111 ) ;
#307 = DIRECTION ( 'NONE',  ( -2.260886398425882692E-16, -1.000000000000000000, 0.000000000000000000 ) ) ;
#308 = PRESENTATION_LAYER_ASSIGNMENT (  '', '', ( #19 ) ) ;
#309 = UNCERTAINTY_MEASURE_WITH_UNIT (LENGTH_MEASURE( 1.000000000000000082E-05 ), #244, 'distance_accuracy_value', 'NONE');
ENDSEC;
END-ISO-10303-21;
