ISO-10303-21;
HEADER;
FILE_DESCRIPTION (( 'STEP AP214' ),
    '1' );
FILE_NAME ('Micro_GEMM-040-4X.STEP',
    '2021-09-01T21:34:32',
    ( '' ),
    ( '' ),
    'SwSTEP 2.0',
    'SolidWorks 2020',
    '' );
FILE_SCHEMA (( 'AUTOMOTIVE_DESIGN' ));
ENDSEC;

DATA;
#1 = DIRECTION ( 'NONE',  ( -1.000000000000000000, 0.0000000000000000000, 1.224646799147353207E-16 ) ) ;
#2 = LENGTH_MEASURE_WITH_UNIT ( LENGTH_MEASURE( 0.02539999999999999897 ), #168 );
#3 = EDGE_CURVE ( 'NONE', #263, #54, #259, .T. ) ;
#4 = VECTOR ( 'NONE', #67, 39.37007874015748143 ) ;
#5 = SURFACE_STYLE_FILL_AREA ( #119 ) ;
#6 =( NAMED_UNIT ( * ) SI_UNIT ( $, .STERADIAN. ) SOLID_ANGLE_UNIT ( ) );
#7 = ORIENTED_EDGE ( 'NONE', *, *, #135, .F. ) ;
#8 =( CONVERSION_BASED_UNIT ( 'INCH', #2 ) LENGTH_UNIT ( ) NAMED_UNIT ( #157 ) );
#9 = ORIENTED_EDGE ( 'NONE', *, *, #273, .T. ) ;
#10 = DIRECTION ( 'NONE',  ( 0.0000000000000000000, 0.0000000000000000000, -1.000000000000000000 ) ) ;
#11 = VECTOR ( 'NONE', #262, 39.37007874015748143 ) ;
#12 = EDGE_LOOP ( 'NONE', ( #9, #252, #34, #133 ) ) ;
#13 = ADVANCED_FACE ( 'NONE', ( #172 ), #266, .T. ) ;
#14 = CARTESIAN_POINT ( 'NONE',  ( 0.0000000000000000000, 0.0000000000000000000, 1.968503999999999809 ) ) ;
#15 = CARTESIAN_POINT ( 'NONE',  ( 0.07874000000000004607, 9.642868896486264672E-18, 0.4335175567304767053 ) ) ;
#16 = EDGE_LOOP ( 'NONE', ( #7, #75, #219, #102 ) ) ;
#17 = FACE_OUTER_BOUND ( 'NONE', #50, .T. ) ;
#18 = CIRCLE ( 'NONE', #90, 0.07866126000000001062 ) ;
#19 = DIRECTION ( 'NONE',  ( -1.224646799147353207E-16, -0.0000000000000000000, -1.000000000000000000 ) ) ;
#20 = FACE_OUTER_BOUND ( 'NONE', #16, .T. ) ;
#21 = COLOUR_RGB ( '',0.7921568627450980005, 0.8196078431372548767, 0.9333333333333333481 ) ;
#22 = AXIS2_PLACEMENT_3D ( 'NONE', #107, #202, #296 ) ;
#23 = EDGE_CURVE ( 'NONE', #284, #195, #229, .T. ) ;
#24 = EDGE_CURVE ( 'NONE', #27, #195, #167, .T. ) ;
#25 = VERTEX_POINT ( 'NONE', #241 ) ;
#26 = DIRECTION ( 'NONE',  ( -0.0000000000000000000, -0.0000000000000000000, -1.000000000000000000 ) ) ;
#27 = VERTEX_POINT ( 'NONE', #163 ) ;
#28 = PRESENTATION_STYLE_ASSIGNMENT (( #148 ) ) ;
#29 = CARTESIAN_POINT ( 'NONE',  ( 0.0000000000000000000, 0.0000000000000000000, 0.0000000000000000000 ) ) ;
#30 = AXIS2_PLACEMENT_3D ( 'NONE', #114, #150, #136 ) ;
#31 = ORIENTED_EDGE ( 'NONE', *, *, #24, .F. ) ;
#32 = PLANE ( 'NONE',  #249 ) ;
#33 = ORIENTED_EDGE ( 'NONE', *, *, #135, .T. ) ;
#34 = ORIENTED_EDGE ( 'NONE', *, *, #182, .F. ) ;
#35 = EDGE_CURVE ( 'NONE', #166, #284, #246, .T. ) ;
#36 = CARTESIAN_POINT ( 'NONE',  ( 0.07866126000000001062, 9.633226027589773945E-18, 0.0000000000000000000 ) ) ;
#37 = AXIS2_PLACEMENT_3D ( 'NONE', #74, #10, #234 ) ;
#38 = CONICAL_SURFACE ( 'NONE', #243, 0.07866125999999999674, 0.1745329251994337250 ) ;
#39 = FACE_OUTER_BOUND ( 'NONE', #289, .T. ) ;
#40 = DIRECTION ( 'NONE',  ( 1.000000000000000000, 0.0000000000000000000, 0.0000000000000000000 ) ) ;
#41 = CIRCLE ( 'NONE', #72, 0.07874000000000000443 ) ;
#42 = CYLINDRICAL_SURFACE ( 'NONE', #61, 0.07874000000000000443 ) ;
#43 = DIRECTION ( 'NONE',  ( 1.000000000000000000, 0.0000000000000000000, 0.0000000000000000000 ) ) ;
#44 = AXIS2_PLACEMENT_3D ( 'NONE', #48, #49, #129 ) ;
#45 = FILL_AREA_STYLE_COLOUR ( '', #236 ) ;
#46 = DIRECTION ( 'NONE',  ( 0.0000000000000000000, 0.0000000000000000000, 1.000000000000000000 ) ) ;
#47 =( GEOMETRIC_REPRESENTATION_CONTEXT ( 3 ) GLOBAL_UNCERTAINTY_ASSIGNED_CONTEXT ( ( #189 ) ) GLOBAL_UNIT_ASSIGNED_CONTEXT ( ( #183, #68, #188 ) ) REPRESENTATION_CONTEXT ( 'NONE', 'WORKASPACE' ) );
#48 = CARTESIAN_POINT ( 'NONE',  ( 0.0000000000000000000, 0.0000000000000000000, 1.968503999999999809 ) ) ;
#49 = DIRECTION ( 'NONE',  ( 0.0000000000000000000, 0.0000000000000000000, 1.000000000000000000 ) ) ;
#50 = EDGE_LOOP ( 'NONE', ( #98, #240, #299, #201 ) ) ;
#51 = FACE_OUTER_BOUND ( 'NONE', #56, .T. ) ;
#52 = ADVANCED_FACE ( 'NONE', ( #77 ), #165, .T. ) ;
#53 = EDGE_CURVE ( 'NONE', #170, #287, #146, .T. ) ;
#54 = VERTEX_POINT ( 'NONE', #212 ) ;
#55 = DIRECTION ( 'NONE',  ( -1.000000000000000000, 0.0000000000000000000, 1.224646799147353207E-16 ) ) ;
#56 = EDGE_LOOP ( 'NONE', ( #237, #149 ) ) ;
#57 = CLOSED_SHELL ( 'NONE', ( #143, #196, #233, #13, #276, #52, #260, #295, #171, #103 ) ) ;
#58 = DIRECTION ( 'NONE',  ( -1.000000000000000000, 0.0000000000000000000, 0.0000000000000000000 ) ) ;
#59 = FACE_OUTER_BOUND ( 'NONE', #175, .T. ) ;
#60 = CARTESIAN_POINT ( 'NONE',  ( 0.0000000000000000000, 0.0000000000000000000, 1.968503999999999809 ) ) ;
#61 = AXIS2_PLACEMENT_3D ( 'NONE', #60, #223, #58 ) ;
#62 = DIRECTION ( 'NONE',  ( -1.000000000000000000, 0.0000000000000000000, 0.0000000000000000000 ) ) ;
#63 = LENGTH_MEASURE_WITH_UNIT ( LENGTH_MEASURE( 0.02539999999999999897 ), #92 );
#64 = EDGE_CURVE ( 'NONE', #284, #166, #116, .T. ) ;
#65 = PRODUCT_DEFINITION_CONTEXT ( 'detailed design', #162, 'design' ) ;
#66 = SHAPE_DEFINITION_REPRESENTATION ( #96, #286 ) ;
#67 = DIRECTION ( 'NONE',  ( 0.1736481776669312194, 0.0000000000000000000, 0.9848077530122077983 ) ) ;
#68 =( NAMED_UNIT ( * ) PLANE_ANGLE_UNIT ( ) SI_UNIT ( $, .RADIAN. ) );
#69 = CARTESIAN_POINT ( 'NONE',  ( -0.07866126000000001062, 0.0000000000000000000, 9.633226027589773945E-18 ) ) ;
#70 = ORIENTED_EDGE ( 'NONE', *, *, #3, .F. ) ;
#71 = CARTESIAN_POINT ( 'NONE',  ( 0.07874000000000000443, 9.642868896486258509E-18, 1.968503999999999809 ) ) ;
#72 = AXIS2_PLACEMENT_3D ( 'NONE', #267, #283, #210 ) ;
#73 = AXIS2_PLACEMENT_3D ( 'NONE', #253, #205, #227 ) ;
#74 = CARTESIAN_POINT ( 'NONE',  ( 0.0000000000000000000, 0.0000000000000000000, 1.953504000000000129 ) ) ;
#75 = ORIENTED_EDGE ( 'NONE', *, *, #24, .T. ) ;
#76 = DIRECTION ( 'NONE',  ( -1.000000000000000000, 0.0000000000000000000, 1.224646799147353207E-16 ) ) ;
#77 = FACE_OUTER_BOUND ( 'NONE', #169, .T. ) ;
#78 = ORIENTED_EDGE ( 'NONE', *, *, #111, .T. ) ;
#79 = CARTESIAN_POINT ( 'NONE',  ( 5.303590139535433909E-17, 0.0000000000000000000, 0.4330709999999999837 ) ) ;
#80 = ORIENTED_EDGE ( 'NONE', *, *, #35, .F. ) ;
#81 = STYLED_ITEM ( 'NONE', ( #28 ), #109 ) ;
#82 = VECTOR ( 'NONE', #278, 39.37007874015748854 ) ;
#83 = ORIENTED_EDGE ( 'NONE', *, *, #35, .T. ) ;
#84 = AXIS2_PLACEMENT_3D ( 'NONE', #203, #270, #55 ) ;
#85 = AXIS2_PLACEMENT_3D ( 'NONE', #113, #153, #40 ) ;
#86 = LENGTH_MEASURE_WITH_UNIT ( LENGTH_MEASURE( 0.02539999999999999897 ), #110 );
#87 = EDGE_CURVE ( 'NONE', #195, #27, #41, .T. ) ;
#88 = CARTESIAN_POINT ( 'NONE',  ( -0.06374000000000018540, 0.0000000000000000000, 1.968503999999999809 ) ) ;
#89 = DIRECTION ( 'NONE',  ( -1.000000000000000000, 0.0000000000000000000, 0.0000000000000000000 ) ) ;
#90 = AXIS2_PLACEMENT_3D ( 'NONE', #228, #274, #1 ) ;
#91 = APPLICATION_CONTEXT ( 'automotive_design' ) ;
#92 =( LENGTH_UNIT ( ) NAMED_UNIT ( * ) SI_UNIT ( $, .METRE. ) );
#93 = AXIS2_PLACEMENT_3D ( 'NONE', #214, #100, #76 ) ;
#94 = PRODUCT ( 'Micro_GEMM-040-4X', 'Micro_GEMM-040-4X', '', ( #231 ) ) ;
#95 = CONICAL_SURFACE ( 'NONE', #186, 0.06374000000000018540, 0.7853981633974522758 ) ;
#96 = PRODUCT_DEFINITION_SHAPE ( 'NONE', 'NONE',  #255 ) ;
#97 = ORIENTED_EDGE ( 'NONE', *, *, #187, .F. ) ;
#98 = ORIENTED_EDGE ( 'NONE', *, *, #242, .F. ) ;
#99 = CARTESIAN_POINT ( 'NONE',  ( 0.0000000000000000000, 0.0000000000000000000, 1.968503999999999809 ) ) ;
#100 = DIRECTION ( 'NONE',  ( -1.224646799147353207E-16, -0.0000000000000000000, -1.000000000000000000 ) ) ;
#101 = CARTESIAN_POINT ( 'NONE',  ( 0.07866126000000003837, 0.0000000000000000000, 0.4330709999999999837 ) ) ;
#102 = ORIENTED_EDGE ( 'NONE', *, *, #154, .F. ) ;
#103 = ADVANCED_FACE ( 'NONE', ( #51 ), #32, .F. ) ;
#104 = CARTESIAN_POINT ( 'NONE',  ( 0.07866126000000003837, 0.0000000000000000000, 0.4330709999999999837 ) ) ;
#105 = ORIENTED_EDGE ( 'NONE', *, *, #187, .T. ) ;
#106 = ORIENTED_EDGE ( 'NONE', *, *, #178, .T. ) ;
#107 = CARTESIAN_POINT ( 'NONE',  ( 5.303590139535433909E-17, 0.0000000000000000000, 0.4330709999999999837 ) ) ;
#108 = STYLED_ITEM ( 'NONE', ( #164 ), #286 ) ;
#109 = MANIFOLD_SOLID_BREP ( 'Cut-Revolve1', #57 ) ;
#110 =( LENGTH_UNIT ( ) NAMED_UNIT ( * ) SI_UNIT ( $, .METRE. ) );
#111 = EDGE_CURVE ( 'NONE', #25, #54, #261, .T. ) ;
#112 = EDGE_CURVE ( 'NONE', #195, #193, #264, .T. ) ;
#113 = CARTESIAN_POINT ( 'NONE',  ( 5.309058882241594791E-17, 0.0000000000000000000, 0.4335175567304767053 ) ) ;
#114 = CARTESIAN_POINT ( 'NONE',  ( 5.309058882241594791E-17, 0.0000000000000000000, 0.4335175567304767053 ) ) ;
#115 = DIRECTION ( 'NONE',  ( -0.7071067811865502373, 0.0000000000000000000, -0.7071067811865446862 ) ) ;
#116 = CIRCLE ( 'NONE', #130, 0.06374000000000018540 ) ;
#117 = APPLICATION_PROTOCOL_DEFINITION ( 'draft international standard', 'automotive_design', 1998, #162 ) ;
#118 = PRODUCT_RELATED_PRODUCT_CATEGORY ( 'part', '', ( #94 ) ) ;
#119 = FILL_AREA_STYLE ('',( #45 ) ) ;
#120 = UNCERTAINTY_MEASURE_WITH_UNIT (LENGTH_MEASURE( 1.000000000000000082E-05 ), #191, 'distance_accuracy_value', 'NONE');
#121 =( NAMED_UNIT ( * ) PLANE_ANGLE_UNIT ( ) SI_UNIT ( $, .RADIAN. ) );
#122 = CIRCLE ( 'NONE', #85, 0.07874000000000000443 ) ;
#123 = EDGE_LOOP ( 'NONE', ( #125, #33, #97, #271 ) ) ;
#124 = LINE ( 'NONE', #215, #220 ) ;
#125 = ORIENTED_EDGE ( 'NONE', *, *, #87, .T. ) ;
#126 = LINE ( 'NONE', #71, #11 ) ;
#127 = ORIENTED_EDGE ( 'NONE', *, *, #128, .F. ) ;
#128 = EDGE_CURVE ( 'NONE', #166, #27, #124, .T. ) ;
#129 = DIRECTION ( 'NONE',  ( 1.000000000000000000, 0.0000000000000000000, -0.0000000000000000000 ) ) ;
#130 = AXIS2_PLACEMENT_3D ( 'NONE', #99, #173, #192 ) ;
#131 = FACE_OUTER_BOUND ( 'NONE', #132, .T. ) ;
#132 = EDGE_LOOP ( 'NONE', ( #147, #244, #105, #224 ) ) ;
#133 = ORIENTED_EDGE ( 'NONE', *, *, #111, .F. ) ;
#134 = DIRECTION ( 'NONE',  ( 0.0000000000000000000, 0.0000000000000000000, -1.000000000000000000 ) ) ;
#135 = EDGE_CURVE ( 'NONE', #27, #287, #126, .T. ) ;
#136 = DIRECTION ( 'NONE',  ( 1.000000000000000000, 0.0000000000000000000, 0.0000000000000000000 ) ) ;
#137 = LINE ( 'NONE', #298, #208 ) ;
#138 = CIRCLE ( 'NONE', #294, 0.07866125999999999674 ) ;
#139 = DIRECTION ( 'NONE',  ( -1.224646799147353207E-16, -0.0000000000000000000, -1.000000000000000000 ) ) ;
#140 = CARTESIAN_POINT ( 'NONE',  ( 0.0000000000000000000, 0.0000000000000000000, 0.0000000000000000000 ) ) ;
#141 = VECTOR ( 'NONE', #26, 39.37007874015748143 ) ;
#142 = FILL_AREA_STYLE_COLOUR ( '', #21 ) ;
#143 = ADVANCED_FACE ( 'NONE', ( #217 ), #288, .T. ) ;
#144 = AXIS2_PLACEMENT_3D ( 'NONE', #140, #209, #43 ) ;
#145 = ORIENTED_EDGE ( 'NONE', *, *, #280, .F. ) ;
#146 = LINE ( 'NONE', #101, #4 ) ;
#147 = ORIENTED_EDGE ( 'NONE', *, *, #273, .F. ) ;
#148 = SURFACE_STYLE_USAGE ( .BOTH. , #290 ) ;
#149 = ORIENTED_EDGE ( 'NONE', *, *, #3, .T. ) ;
#150 = DIRECTION ( 'NONE',  ( -1.224646799147353207E-16, -0.0000000000000000000, -1.000000000000000000 ) ) ;
#151 = DIMENSIONAL_EXPONENTS ( 1.000000000000000000, 0.0000000000000000000, 0.0000000000000000000, 0.0000000000000000000, 0.0000000000000000000, 0.0000000000000000000, 0.0000000000000000000 ) ;
#152 = CYLINDRICAL_SURFACE ( 'NONE', #73, 0.07866126000000001062 ) ;
#153 = DIRECTION ( 'NONE',  ( -1.224646799147353207E-16, -0.0000000000000000000, -1.000000000000000000 ) ) ;
#154 = EDGE_CURVE ( 'NONE', #287, #193, #179, .T. ) ;
#155 = CARTESIAN_POINT ( 'NONE',  ( 0.06374000000000018540, 8.724383797125754882E-18, 1.968503999999999809 ) ) ;
#156 = AXIS2_PLACEMENT_3D ( 'NONE', #226, #134, #62 ) ;
#157 = DIMENSIONAL_EXPONENTS ( 1.000000000000000000, 0.0000000000000000000, 0.0000000000000000000, 0.0000000000000000000, 0.0000000000000000000, 0.0000000000000000000, 0.0000000000000000000 ) ;
#158 = LINE ( 'NONE', #185, #82 ) ;
#159 =( NAMED_UNIT ( * ) SI_UNIT ( $, .STERADIAN. ) SOLID_ANGLE_UNIT ( ) );
#160 = AXIS2_PLACEMENT_3D ( 'NONE', #206, #265, #190 ) ;
#161 = MECHANICAL_DESIGN_GEOMETRIC_PRESENTATION_REPRESENTATION (  '', ( #108 ), #222 ) ;
#162 = APPLICATION_CONTEXT ( 'automotive_design' ) ;
#163 = CARTESIAN_POINT ( 'NONE',  ( 0.07874000000000000443, 9.642868896486258509E-18, 1.953504000000000129 ) ) ;
#164 = PRESENTATION_STYLE_ASSIGNMENT (( #213 ) ) ;
#165 = PLANE ( 'NONE',  #44 ) ;
#166 = VERTEX_POINT ( 'NONE', #155 ) ;
#167 = CIRCLE ( 'NONE', #37, 0.07874000000000000443 ) ;
#168 =( LENGTH_UNIT ( ) NAMED_UNIT ( * ) SI_UNIT ( $, .METRE. ) );
#169 = EDGE_LOOP ( 'NONE', ( #177, #83 ) ) ;
#170 = VERTEX_POINT ( 'NONE', #104 ) ;
#171 = ADVANCED_FACE ( 'NONE', ( #39 ), #152, .T. ) ;
#172 = FACE_OUTER_BOUND ( 'NONE', #123, .T. ) ;
#173 = DIRECTION ( 'NONE',  ( 0.0000000000000000000, 0.0000000000000000000, 1.000000000000000000 ) ) ;
#174 = CARTESIAN_POINT ( 'NONE',  ( -0.07873999999999994892, 0.0000000000000000000, 0.4335175567304767053 ) ) ;
#175 = EDGE_LOOP ( 'NONE', ( #80, #197, #291, #199 ) ) ;
#176 = AXIS2_PLACEMENT_3D ( 'NONE', #79, #19, #89 ) ;
#177 = ORIENTED_EDGE ( 'NONE', *, *, #64, .T. ) ;
#178 = EDGE_CURVE ( 'NONE', #170, #25, #180, .T. ) ;
#179 = CIRCLE ( 'NONE', #30, 0.07874000000000000443 ) ;
#180 = CIRCLE ( 'NONE', #176, 0.07866125999999999674 ) ;
#181 = DIMENSIONAL_EXPONENTS ( 1.000000000000000000, 0.0000000000000000000, 0.0000000000000000000, 0.0000000000000000000, 0.0000000000000000000, 0.0000000000000000000, 0.0000000000000000000 ) ;
#182 = EDGE_CURVE ( 'NONE', #54, #263, #18, .T. ) ;
#183 =( CONVERSION_BASED_UNIT ( 'INCH', #86 ) LENGTH_UNIT ( ) NAMED_UNIT ( #181 ) );
#184 = DIRECTION ( 'NONE',  ( -1.000000000000000000, 0.0000000000000000000, 0.0000000000000000000 ) ) ;
#185 = CARTESIAN_POINT ( 'NONE',  ( -0.07866125999999994123, 9.633226027589770864E-18, 0.4330709999999999837 ) ) ;
#186 = AXIS2_PLACEMENT_3D ( 'NONE', #272, #292, #184 ) ;
#187 = EDGE_CURVE ( 'NONE', #193, #287, #122, .T. ) ;
#188 =( NAMED_UNIT ( * ) SI_UNIT ( $, .STERADIAN. ) SOLID_ANGLE_UNIT ( ) );
#189 = UNCERTAINTY_MEASURE_WITH_UNIT (LENGTH_MEASURE( 1.000000000000000082E-05 ), #183, 'distance_accuracy_value', 'NONE');
#190 = DIRECTION ( 'NONE',  ( -1.000000000000000000, 0.0000000000000000000, 0.0000000000000000000 ) ) ;
#191 =( CONVERSION_BASED_UNIT ( 'INCH', #63 ) LENGTH_UNIT ( ) NAMED_UNIT ( #151 ) );
#192 = DIRECTION ( 'NONE',  ( 1.000000000000000000, 0.0000000000000000000, 0.0000000000000000000 ) ) ;
#193 = VERTEX_POINT ( 'NONE', #174 ) ;
#194 = DIRECTION ( 'NONE',  ( 0.7071067811865502373, 8.659560562354966138E-17, -0.7071067811865446862 ) ) ;
#195 = VERTEX_POINT ( 'NONE', #200 ) ;
#196 = ADVANCED_FACE ( 'NONE', ( #131 ), #38, .T. ) ;
#197 = ORIENTED_EDGE ( 'NONE', *, *, #128, .T. ) ;
#198 = DIRECTION ( 'NONE',  ( 1.000000000000000000, 0.0000000000000000000, -0.0000000000000000000 ) ) ;
#199 = ORIENTED_EDGE ( 'NONE', *, *, #23, .F. ) ;
#200 = CARTESIAN_POINT ( 'NONE',  ( -0.07874000000000000443, 0.0000000000000000000, 1.953504000000000129 ) ) ;
#201 = ORIENTED_EDGE ( 'NONE', *, *, #154, .T. ) ;
#202 = DIRECTION ( 'NONE',  ( 1.224646799147353207E-16, 0.0000000000000000000, 1.000000000000000000 ) ) ;
#203 = CARTESIAN_POINT ( 'NONE',  ( 0.0000000000000000000, 0.0000000000000000000, 0.0000000000000000000 ) ) ;
#204 = DIRECTION ( 'NONE',  ( -1.000000000000000000, 0.0000000000000000000, 0.0000000000000000000 ) ) ;
#205 = DIRECTION ( 'NONE',  ( -1.224646799147353207E-16, -0.0000000000000000000, -1.000000000000000000 ) ) ;
#206 = CARTESIAN_POINT ( 'NONE',  ( 0.0000000000000000000, 0.0000000000000000000, 1.968503999999999809 ) ) ;
#207 = AXIS2_PLACEMENT_3D ( 'NONE', #14, #46, #258 ) ;
#208 = VECTOR ( 'NONE', #139, 39.37007874015748143 ) ;
#209 = DIRECTION ( 'NONE',  ( 0.0000000000000000000, 0.0000000000000000000, 1.000000000000000000 ) ) ;
#210 = DIRECTION ( 'NONE',  ( 1.000000000000000000, 0.0000000000000000000, 0.0000000000000000000 ) ) ;
#211 = MECHANICAL_DESIGN_GEOMETRIC_PRESENTATION_REPRESENTATION (  '', ( #81 ), #235 ) ;
#212 = CARTESIAN_POINT ( 'NONE',  ( -0.07866126000000001062, 0.0000000000000000000, 1.926645205517954789E-17 ) ) ;
#213 = SURFACE_STYLE_USAGE ( .BOTH. , #279 ) ;
#214 = CARTESIAN_POINT ( 'NONE',  ( 1.179729942015078919E-33, 0.0000000000000000000, 9.633226027589773945E-18 ) ) ;
#215 = CARTESIAN_POINT ( 'NONE',  ( 0.06374000000000018540, 7.805898697765251255E-18, 1.968503999999999809 ) ) ;
#216 = EDGE_LOOP ( 'NONE', ( #127, #218, #268, #31 ) ) ;
#217 = FACE_OUTER_BOUND ( 'NONE', #12, .T. ) ;
#218 = ORIENTED_EDGE ( 'NONE', *, *, #64, .F. ) ;
#219 = ORIENTED_EDGE ( 'NONE', *, *, #112, .T. ) ;
#220 = VECTOR ( 'NONE', #194, 39.37007874015748854 ) ;
#221 = DIRECTION ( 'NONE',  ( 0.0000000000000000000, 0.0000000000000000000, 1.000000000000000000 ) ) ;
#222 =( GEOMETRIC_REPRESENTATION_CONTEXT ( 3 ) GLOBAL_UNCERTAINTY_ASSIGNED_CONTEXT ( ( #120 ) ) GLOBAL_UNIT_ASSIGNED_CONTEXT ( ( #191, #232, #159 ) ) REPRESENTATION_CONTEXT ( 'NONE', 'WORKASPACE' ) );
#223 = DIRECTION ( 'NONE',  ( -0.0000000000000000000, -0.0000000000000000000, -1.000000000000000000 ) ) ;
#224 = ORIENTED_EDGE ( 'NONE', *, *, #53, .F. ) ;
#225 = CARTESIAN_POINT ( 'NONE',  ( 5.303590139535433909E-17, 0.0000000000000000000, 0.4330709999999999837 ) ) ;
#226 = CARTESIAN_POINT ( 'NONE',  ( 0.0000000000000000000, 0.0000000000000000000, 1.968503999999999809 ) ) ;
#227 = DIRECTION ( 'NONE',  ( -1.000000000000000000, 0.0000000000000000000, 1.224646799147353207E-16 ) ) ;
#228 = CARTESIAN_POINT ( 'NONE',  ( 1.179729942015078919E-33, 0.0000000000000000000, 9.633226027589773945E-18 ) ) ;
#229 = LINE ( 'NONE', #254, #269 ) ;
#230 = PRESENTATION_LAYER_ASSIGNMENT (  '', '', ( #81 ) ) ;
#231 = PRODUCT_CONTEXT ( 'NONE', #91, 'mechanical' ) ;
#232 =( NAMED_UNIT ( * ) PLANE_ANGLE_UNIT ( ) SI_UNIT ( $, .RADIAN. ) );
#233 = ADVANCED_FACE ( 'NONE', ( #59 ), #95, .T. ) ;
#234 = DIRECTION ( 'NONE',  ( 1.000000000000000000, 0.0000000000000000000, 0.0000000000000000000 ) ) ;
#235 =( GEOMETRIC_REPRESENTATION_CONTEXT ( 3 ) GLOBAL_UNCERTAINTY_ASSIGNED_CONTEXT ( ( #281 ) ) GLOBAL_UNIT_ASSIGNED_CONTEXT ( ( #8, #121, #6 ) ) REPRESENTATION_CONTEXT ( 'NONE', 'WORKASPACE' ) );
#236 = COLOUR_RGB ( '',0.7921568627450980005, 0.8196078431372548767, 0.9333333333333333481 ) ;
#237 = ORIENTED_EDGE ( 'NONE', *, *, #182, .T. ) ;
#238 = CARTESIAN_POINT ( 'NONE',  ( -0.07874000000000000443, 0.0000000000000000000, 1.968503999999999809 ) ) ;
#239 = SURFACE_STYLE_FILL_AREA ( #285 ) ;
#240 = ORIENTED_EDGE ( 'NONE', *, *, #178, .F. ) ;
#241 = CARTESIAN_POINT ( 'NONE',  ( -0.07866125999999994123, 9.638047462038014686E-18, 0.4330709999999999837 ) ) ;
#242 = EDGE_CURVE ( 'NONE', #25, #193, #158, .T. ) ;
#243 = AXIS2_PLACEMENT_3D ( 'NONE', #297, #245, #251 ) ;
#244 = ORIENTED_EDGE ( 'NONE', *, *, #242, .T. ) ;
#245 = DIRECTION ( 'NONE',  ( 1.224646799147353207E-16, 0.0000000000000000000, 1.000000000000000000 ) ) ;
#246 = CIRCLE ( 'NONE', #207, 0.06374000000000018540 ) ;
#247 = PRODUCT_DEFINITION_FORMATION_WITH_SPECIFIED_SOURCE ( 'ANY', '', #94, .NOT_KNOWN. ) ;
#248 = FACE_OUTER_BOUND ( 'NONE', #216, .T. ) ;
#249 = AXIS2_PLACEMENT_3D ( 'NONE', #29, #221, #198 ) ;
#250 = CONICAL_SURFACE ( 'NONE', #156, 0.06374000000000018540, 0.7853981633974522758 ) ;
#251 = DIRECTION ( 'NONE',  ( 1.000000000000000000, 0.0000000000000000000, 0.0000000000000000000 ) ) ;
#252 = ORIENTED_EDGE ( 'NONE', *, *, #280, .T. ) ;
#253 = CARTESIAN_POINT ( 'NONE',  ( 0.0000000000000000000, 0.0000000000000000000, 0.0000000000000000000 ) ) ;
#254 = CARTESIAN_POINT ( 'NONE',  ( -0.06374000000000018540, 0.0000000000000000000, 1.968503999999999809 ) ) ;
#255 = PRODUCT_DEFINITION ( 'UNKNOWN', '', #247, #65 ) ;
#256 = CONICAL_SURFACE ( 'NONE', #22, 0.07866125999999999674, 0.1745329251994337250 ) ;
#257 = APPLICATION_PROTOCOL_DEFINITION ( 'draft international standard', 'automotive_design', 1998, #91 ) ;
#258 = DIRECTION ( 'NONE',  ( 1.000000000000000000, 0.0000000000000000000, 0.0000000000000000000 ) ) ;
#259 = CIRCLE ( 'NONE', #93, 0.07866126000000001062 ) ;
#260 = ADVANCED_FACE ( 'NONE', ( #248 ), #250, .T. ) ;
#261 = LINE ( 'NONE', #69, #293 ) ;
#262 = DIRECTION ( 'NONE',  ( -0.0000000000000000000, -0.0000000000000000000, -1.000000000000000000 ) ) ;
#263 = VERTEX_POINT ( 'NONE', #36 ) ;
#264 = LINE ( 'NONE', #238, #141 ) ;
#265 = DIRECTION ( 'NONE',  ( -0.0000000000000000000, -0.0000000000000000000, -1.000000000000000000 ) ) ;
#266 = CYLINDRICAL_SURFACE ( 'NONE', #160, 0.07874000000000000443 ) ;
#267 = CARTESIAN_POINT ( 'NONE',  ( 0.0000000000000000000, 0.0000000000000000000, 1.953504000000000129 ) ) ;
#268 = ORIENTED_EDGE ( 'NONE', *, *, #23, .T. ) ;
#269 = VECTOR ( 'NONE', #115, 39.37007874015748854 ) ;
#270 = DIRECTION ( 'NONE',  ( -1.224646799147353207E-16, -0.0000000000000000000, -1.000000000000000000 ) ) ;
#271 = ORIENTED_EDGE ( 'NONE', *, *, #112, .F. ) ;
#272 = CARTESIAN_POINT ( 'NONE',  ( 0.0000000000000000000, 0.0000000000000000000, 1.968503999999999809 ) ) ;
#273 = EDGE_CURVE ( 'NONE', #25, #170, #138, .T. ) ;
#274 = DIRECTION ( 'NONE',  ( -1.224646799147353207E-16, -0.0000000000000000000, -1.000000000000000000 ) ) ;
#275 = DIRECTION ( 'NONE',  ( -1.224646799147353207E-16, -0.0000000000000000000, -1.000000000000000000 ) ) ;
#276 = ADVANCED_FACE ( 'NONE', ( #20 ), #42, .T. ) ;
#277 = PRESENTATION_LAYER_ASSIGNMENT (  '', '', ( #108 ) ) ;
#278 = DIRECTION ( 'NONE',  ( -0.1736481776669309973, 2.126576849575781159E-17, 0.9848077530122080203 ) ) ;
#279 = SURFACE_SIDE_STYLE ('',( #5 ) ) ;
#280 = EDGE_CURVE ( 'NONE', #170, #263, #137, .T. ) ;
#281 = UNCERTAINTY_MEASURE_WITH_UNIT (LENGTH_MEASURE( 1.000000000000000082E-05 ), #8, 'distance_accuracy_value', 'NONE');
#282 = DIRECTION ( 'NONE',  ( -1.224646799147353207E-16, -0.0000000000000000000, -1.000000000000000000 ) ) ;
#283 = DIRECTION ( 'NONE',  ( 0.0000000000000000000, 0.0000000000000000000, -1.000000000000000000 ) ) ;
#284 = VERTEX_POINT ( 'NONE', #88 ) ;
#285 = FILL_AREA_STYLE ('',( #142 ) ) ;
#286 = ADVANCED_BREP_SHAPE_REPRESENTATION ( 'Micro_GEMM-040-4X', ( #109, #144 ), #47 ) ;
#287 = VERTEX_POINT ( 'NONE', #15 ) ;
#288 = CYLINDRICAL_SURFACE ( 'NONE', #84, 0.07866126000000001062 ) ;
#289 = EDGE_LOOP ( 'NONE', ( #145, #106, #78, #70 ) ) ;
#290 = SURFACE_SIDE_STYLE ('',( #239 ) ) ;
#291 = ORIENTED_EDGE ( 'NONE', *, *, #87, .F. ) ;
#292 = DIRECTION ( 'NONE',  ( 0.0000000000000000000, 0.0000000000000000000, -1.000000000000000000 ) ) ;
#293 = VECTOR ( 'NONE', #282, 39.37007874015748143 ) ;
#294 = AXIS2_PLACEMENT_3D ( 'NONE', #225, #275, #204 ) ;
#295 = ADVANCED_FACE ( 'NONE', ( #17 ), #256, .T. ) ;
#296 = DIRECTION ( 'NONE',  ( 1.000000000000000000, 0.0000000000000000000, 0.0000000000000000000 ) ) ;
#297 = CARTESIAN_POINT ( 'NONE',  ( 5.303590139535433909E-17, 0.0000000000000000000, 0.4330709999999999837 ) ) ;
#298 = CARTESIAN_POINT ( 'NONE',  ( 0.07866126000000001062, 9.633226027589773945E-18, -9.633226027589773945E-18 ) ) ;
#299 = ORIENTED_EDGE ( 'NONE', *, *, #53, .T. ) ;
ENDSEC;
END-ISO-10303-21;
