ISO-10303-21;
HEADER;
FILE_DESCRIPTION (( 'STEP AP214' ),
    '1' );
FILE_NAME ('84627.STEP',
    '2023-06-23T14:00:10',
    ( '' ),
    ( '' ),
    'SwSTEP 2.0',
    'SolidWorks 2023',
    '' );
FILE_SCHEMA (( 'AUTOMOTIVE_DESIGN' ));
ENDSEC;

DATA;
#1 = DIRECTION ( 'NONE',  ( -1.000000000000000000, 0.000000000000000000, 0.000000000000000000 ) ) ;
#2 = CIRCLE ( 'NONE', #194, 0.09375000000000001388 ) ;
#3 = VECTOR ( 'NONE', #133, 39.37007874015748143 ) ;
#4 = CARTESIAN_POINT ( 'NONE',  ( 0.000000000000000000, 0.000000000000000000, 0.000000000000000000 ) ) ;
#5 = PLANE ( 'NONE',  #335 ) ;
#6 = CIRCLE ( 'NONE', #174, 0.07810000000000000275 ) ;
#7 = EDGE_LOOP ( 'NONE', ( #346, #39, #256, #148 ) ) ;
#8 =( NAMED_UNIT ( * ) PLANE_ANGLE_UNIT ( ) SI_UNIT ( $, .RADIAN. ) );
#9 = VERTEX_POINT ( 'NONE', #345 ) ;
#10 =( LENGTH_UNIT ( ) NAMED_UNIT ( * ) SI_UNIT ( $, .METRE. ) );
#11 = UNCERTAINTY_MEASURE_WITH_UNIT (LENGTH_MEASURE( 1.000000000000000082E-05 ), #252, 'distance_accuracy_value', 'NONE');
#12 = EDGE_CURVE ( 'NONE', #9, #37, #283, .T. ) ;
#13 = SURFACE_STYLE_USAGE ( .BOTH. , #255 ) ;
#14 =( CONVERSION_BASED_UNIT ( 'INCH', #258 ) LENGTH_UNIT ( ) NAMED_UNIT ( #336 ) );
#15 = ORIENTED_EDGE ( 'NONE', *, *, #97, .T. ) ;
#16 = MECHANICAL_DESIGN_GEOMETRIC_PRESENTATION_REPRESENTATION (  '', ( #278 ), #111 ) ;
#17 = DIRECTION ( 'NONE',  ( -0.000000000000000000, -1.000000000000000000, -0.000000000000000000 ) ) ;
#18 = SURFACE_STYLE_FILL_AREA ( #79 ) ;
#19 =( GEOMETRIC_REPRESENTATION_CONTEXT ( 3 ) GLOBAL_UNCERTAINTY_ASSIGNED_CONTEXT ( ( #11 ) ) GLOBAL_UNIT_ASSIGNED_CONTEXT ( ( #252, #166, #249 ) ) REPRESENTATION_CONTEXT ( 'NONE', 'WORKASPACE' ) );
#20 =( NAMED_UNIT ( * ) SI_UNIT ( $, .STERADIAN. ) SOLID_ANGLE_UNIT ( ) );
#21 = ADVANCED_FACE ( 'NONE', ( #143 ), #341, .T. ) ;
#22 = DIRECTION ( 'NONE',  ( -1.000000000000000000, 0.000000000000000000, 0.000000000000000000 ) ) ;
#23 = AXIS2_PLACEMENT_3D ( 'NONE', #214, #136, #1 ) ;
#24 = DIRECTION ( 'NONE',  ( -0.000000000000000000, -1.000000000000000000, -0.000000000000000000 ) ) ;
#25 = CARTESIAN_POINT ( 'NONE',  ( 6.123233995736766036E-17, 2.000000000000000000, 0.000000000000000000 ) ) ;
#26 = SURFACE_SIDE_STYLE ('',( #328 ) ) ;
#27 = CARTESIAN_POINT ( 'NONE',  ( 0.09375000000000006939, 2.000000000000000000, 1.148106374200644633E-17 ) ) ;
#28 = VECTOR ( 'NONE', #287, 39.37007874015748854 ) ;
#29 = SURFACE_SIDE_STYLE ('',( #306 ) ) ;
#30 = EDGE_LOOP ( 'NONE', ( #65, #237, #144, #32 ) ) ;
#31 = DIRECTION ( 'NONE',  ( 0.000000000000000000, 0.000000000000000000, -1.000000000000000000 ) ) ;
#32 = ORIENTED_EDGE ( 'NONE', *, *, #254, .F. ) ;
#33 = SURFACE_STYLE_USAGE ( .BOTH. , #170 ) ;
#34 = DIRECTION ( 'NONE',  ( -0.000000000000000000, -1.000000000000000000, -0.000000000000000000 ) ) ;
#35 = PRESENTATION_LAYER_ASSIGNMENT (  '', '', ( #188 ) ) ;
#36 = VECTOR ( 'NONE', #276, 39.37007874015748143 ) ;
#37 = VERTEX_POINT ( 'NONE', #186 ) ;
#38 = CARTESIAN_POINT ( 'NONE',  ( 1.560218949328083429E-18, 0.3554980216144648097, 0.000000000000000000 ) ) ;
#39 = ORIENTED_EDGE ( 'NONE', *, *, #46, .T. ) ;
#40 = ADVANCED_FACE ( 'NONE', ( #76 ), #98, .F. ) ;
#41 = LINE ( 'NONE', #308, #28 ) ;
#42 = FILL_AREA_STYLE_COLOUR ( '', #241 ) ;
#43 = AXIS2_PLACEMENT_3D ( 'NONE', #353, #326, #182 ) ;
#44 = PRODUCT_DEFINITION_FORMATION_WITH_SPECIFIED_SOURCE ( 'ANY', '', #348, .NOT_KNOWN. ) ;
#45 = ORIENTED_EDGE ( 'NONE', *, *, #269, .F. ) ;
#46 = EDGE_CURVE ( 'NONE', #310, #146, #219, .T. ) ;
#47 = CYLINDRICAL_SURFACE ( 'NONE', #205, 0.09375000000000005551 ) ;
#48 = DIRECTION ( 'NONE',  ( 1.000000000000000000, -3.628583108584750472E-17, 0.000000000000000000 ) ) ;
#49 = CIRCLE ( 'NONE', #87, 0.07810000000000000275 ) ;
#50 = APPLICATION_PROTOCOL_DEFINITION ( 'draft international standard', 'automotive_design', 1998, #213 ) ;
#51 = CARTESIAN_POINT ( 'NONE',  ( -0.07810000000000000275, 0.3125000000000000000, 0.000000000000000000 ) ) ;
#52 =( LENGTH_UNIT ( ) NAMED_UNIT ( * ) SI_UNIT ( $, .METRE. ) );
#53 = DIRECTION ( 'NONE',  ( 3.628583108584750472E-17, 1.000000000000000000, -0.000000000000000000 ) ) ;
#54 = SURFACE_SIDE_STYLE ('',( #18 ) ) ;
#55 = AXIS2_PLACEMENT_3D ( 'NONE', #358, #272, #22 ) ;
#56 = DIMENSIONAL_EXPONENTS ( 1.000000000000000000, 0.000000000000000000, 0.000000000000000000, 0.000000000000000000, 0.000000000000000000, 0.000000000000000000, 0.000000000000000000 ) ;
#57 = DIRECTION ( 'NONE',  ( 3.628583108584750472E-17, 1.000000000000000000, -0.000000000000000000 ) ) ;
#58 = EDGE_LOOP ( 'NONE', ( #88, #116, #150, #118 ) ) ;
#59 = DIRECTION ( 'NONE',  ( 0.000000000000000000, -1.000000000000000000, -0.000000000000000000 ) ) ;
#60 = FACE_OUTER_BOUND ( 'NONE', #285, .T. ) ;
#61 =( GEOMETRIC_REPRESENTATION_CONTEXT ( 3 ) GLOBAL_UNCERTAINTY_ASSIGNED_CONTEXT ( ( #110 ) ) GLOBAL_UNIT_ASSIGNED_CONTEXT ( ( #271, #350, #242 ) ) REPRESENTATION_CONTEXT ( 'NONE', 'WORKASPACE' ) );
#62 = EDGE_LOOP ( 'NONE', ( #45, #230, #292, #93 ) ) ;
#63 = ADVANCED_FACE ( 'NONE', ( #158 ), #74, .F. ) ;
#64 = CARTESIAN_POINT ( 'NONE',  ( 0.07810000000000000275, 0.3125000000000000000, 1.052277762167363810E-17 ) ) ;
#65 = ORIENTED_EDGE ( 'NONE', *, *, #163, .F. ) ;
#66 = AXIS2_PLACEMENT_3D ( 'NONE', #351, #352, #129 ) ;
#67 = MECHANICAL_DESIGN_GEOMETRIC_PRESENTATION_REPRESENTATION (  '', ( #108 ), #19 ) ;
#68 = APPLICATION_CONTEXT ( 'automotive_design' ) ;
#69 = PRODUCT_DEFINITION_SHAPE ( 'NONE', 'NONE',  #303 ) ;
#70 =( LENGTH_UNIT ( ) NAMED_UNIT ( * ) SI_UNIT ( $, .METRE. ) );
#71 =( NAMED_UNIT ( * ) SI_UNIT ( $, .STERADIAN. ) SOLID_ANGLE_UNIT ( ) );
#72 = CIRCLE ( 'NONE', #94, 0.09375000000000001388 ) ;
#73 = MECHANICAL_DESIGN_GEOMETRIC_PRESENTATION_REPRESENTATION (  '', ( #168 ), #132 ) ;
#74 = PLANE ( 'NONE',  #266 ) ;
#75 =( LENGTH_UNIT ( ) NAMED_UNIT ( * ) SI_UNIT ( $, .METRE. ) );
#76 = FACE_OUTER_BOUND ( 'NONE', #207, .T. ) ;
#77 = COLOUR_RGB ( '',0.7921568627450980005, 0.8196078431372548767, 0.9333333333333333481 ) ;
#78 = DIRECTION ( 'NONE',  ( 3.628583108584750472E-17, 1.000000000000000000, -0.000000000000000000 ) ) ;
#79 = FILL_AREA_STYLE ('',( #102 ) ) ;
#80 = CARTESIAN_POINT ( 'NONE',  ( 0.09375000000000012490, 2.000000000000000000, 1.148106374200644325E-17 ) ) ;
#81 = ADVANCED_FACE ( 'NONE', ( #293 ), #210, .T. ) ;
#82 = MECHANICAL_DESIGN_GEOMETRIC_PRESENTATION_REPRESENTATION (  '', ( #188 ), #172 ) ;
#83 = LENGTH_MEASURE_WITH_UNIT ( LENGTH_MEASURE( 0.02539999999999999897 ), #75 );
#84 = ORIENTED_EDGE ( 'NONE', *, *, #104, .F. ) ;
#85 = DIRECTION ( 'NONE',  ( -1.000000000000000000, 0.000000000000000000, 0.000000000000000000 ) ) ;
#86 = MECHANICAL_DESIGN_GEOMETRIC_PRESENTATION_REPRESENTATION (  '', ( #101 ), #131 ) ;
#87 = AXIS2_PLACEMENT_3D ( 'NONE', #267, #53, #240 ) ;
#88 = ORIENTED_EDGE ( 'NONE', *, *, #190, .T. ) ;
#89 = DIMENSIONAL_EXPONENTS ( 1.000000000000000000, 0.000000000000000000, 0.000000000000000000, 0.000000000000000000, 0.000000000000000000, 0.000000000000000000, 0.000000000000000000 ) ;
#90 = ORIENTED_EDGE ( 'NONE', *, *, #231, .T. ) ;
#91 = SURFACE_STYLE_USAGE ( .BOTH. , #343 ) ;
#92 = CARTESIAN_POINT ( 'NONE',  ( 0.000000000000000000, 0.3125000000000000000, 0.000000000000000000 ) ) ;
#93 = ORIENTED_EDGE ( 'NONE', *, *, #97, .F. ) ;
#94 = AXIS2_PLACEMENT_3D ( 'NONE', #25, #57, #85 ) ;
#95 = PRODUCT_RELATED_PRODUCT_CATEGORY ( 'part', '', ( #348 ) ) ;
#96 = DIRECTION ( 'NONE',  ( -1.000000000000000000, 0.000000000000000000, 0.000000000000000000 ) ) ;
#97 = EDGE_CURVE ( 'NONE', #201, #112, #2, .T. ) ;
#98 = PLANE ( 'NONE',  #323 ) ;
#99 = PRODUCT_CONTEXT ( 'NONE', #68, 'mechanical' ) ;
#100 = CARTESIAN_POINT ( 'NONE',  ( 0.000000000000000000, 0.3125000000000000000, 0.000000000000000000 ) ) ;
#101 = STYLED_ITEM ( 'NONE', ( #232 ), #274 ) ;
#102 = FILL_AREA_STYLE_COLOUR ( '', #247 ) ;
#103 = ADVANCED_BREP_SHAPE_REPRESENTATION ( '84627', ( #193, #316, #261 ), #61 ) ;
#104 = EDGE_CURVE ( 'NONE', #338, #9, #203, .T. ) ;
#105 = CARTESIAN_POINT ( 'NONE',  ( 0.000000000000000000, 0.000000000000000000, 0.000000000000000000 ) ) ;
#106 = FILL_AREA_STYLE ('',( #134 ) ) ;
#107 = DIMENSIONAL_EXPONENTS ( 1.000000000000000000, 0.000000000000000000, 0.000000000000000000, 0.000000000000000000, 0.000000000000000000, 0.000000000000000000, 0.000000000000000000 ) ;
#108 = STYLED_ITEM ( 'NONE', ( #124 ), #193 ) ;
#109 = DIRECTION ( 'NONE',  ( -0.000000000000000000, -1.000000000000000000, -0.000000000000000000 ) ) ;
#110 = UNCERTAINTY_MEASURE_WITH_UNIT (LENGTH_MEASURE( 1.000000000000000082E-05 ), #271, 'distance_accuracy_value', 'NONE');
#111 =( GEOMETRIC_REPRESENTATION_CONTEXT ( 3 ) GLOBAL_UNCERTAINTY_ASSIGNED_CONTEXT ( ( #139 ) ) GLOBAL_UNIT_ASSIGNED_CONTEXT ( ( #236, #257, #71 ) ) REPRESENTATION_CONTEXT ( 'NONE', 'WORKASPACE' ) );
#112 = VERTEX_POINT ( 'NONE', #324 ) ;
#113 = CARTESIAN_POINT ( 'NONE',  ( 0.000000000000000000, 0.000000000000000000, 0.000000000000000000 ) ) ;
#114 = UNCERTAINTY_MEASURE_WITH_UNIT (LENGTH_MEASURE( 1.000000000000000082E-05 ), #14, 'distance_accuracy_value', 'NONE');
#115 = VERTEX_POINT ( 'NONE', #152 ) ;
#116 = ORIENTED_EDGE ( 'NONE', *, *, #269, .T. ) ;
#117 = FILL_AREA_STYLE ('',( #309 ) ) ;
#118 = ORIENTED_EDGE ( 'NONE', *, *, #126, .F. ) ;
#119 = ORIENTED_EDGE ( 'NONE', *, *, #135, .T. ) ;
#120 = CONICAL_SURFACE ( 'NONE', #260, 0.07810000000000000275, 0.3490658503988683381 ) ;
#121 = ORIENTED_EDGE ( 'NONE', *, *, #46, .F. ) ;
#122 = LENGTH_MEASURE_WITH_UNIT ( LENGTH_MEASURE( 0.02539999999999999897 ), #128 );
#123 = CARTESIAN_POINT ( 'NONE',  ( 9.564491501340828324E-18, 0.3125000000000000000, 0.07810000000000000275 ) ) ;
#124 = PRESENTATION_STYLE_ASSIGNMENT (( #319 ) ) ;
#125 = PRESENTATION_LAYER_ASSIGNMENT (  '', '', ( #108 ) ) ;
#126 = EDGE_CURVE ( 'NONE', #235, #112, #243, .T. ) ;
#127 = CARTESIAN_POINT ( 'NONE',  ( 0.09375000000000009714, 0.3554980216144648097, 1.148106374200644787E-17 ) ) ;
#128 =( LENGTH_UNIT ( ) NAMED_UNIT ( * ) SI_UNIT ( $, .METRE. ) );
#129 = DIRECTION ( 'NONE',  ( -1.000000000000000000, 0.000000000000000000, 0.000000000000000000 ) ) ;
#130 = CLOSED_SHELL ( 'NONE', ( #81, #181, #63, #195, #354, #40 ) ) ;
#131 =( GEOMETRIC_REPRESENTATION_CONTEXT ( 3 ) GLOBAL_UNCERTAINTY_ASSIGNED_CONTEXT ( ( #275 ) ) GLOBAL_UNIT_ASSIGNED_CONTEXT ( ( #339, #8, #198 ) ) REPRESENTATION_CONTEXT ( 'NONE', 'WORKASPACE' ) );
#132 =( GEOMETRIC_REPRESENTATION_CONTEXT ( 3 ) GLOBAL_UNCERTAINTY_ASSIGNED_CONTEXT ( ( #167 ) ) GLOBAL_UNIT_ASSIGNED_CONTEXT ( ( #297, #216, #156 ) ) REPRESENTATION_CONTEXT ( 'NONE', 'WORKASPACE' ) );
#133 = DIRECTION ( 'NONE',  ( 3.628583108584750472E-17, 1.000000000000000000, -0.000000000000000000 ) ) ;
#134 = FILL_AREA_STYLE_COLOUR ( '', #329 ) ;
#135 = EDGE_CURVE ( 'NONE', #146, #310, #49, .T. ) ;
#136 = DIRECTION ( 'NONE',  ( 3.628583108584750472E-17, 1.000000000000000000, -0.000000000000000000 ) ) ;
#137 = UNCERTAINTY_MEASURE_WITH_UNIT (LENGTH_MEASURE( 1.000000000000000082E-05 ), #359, 'distance_accuracy_value', 'NONE');
#138 = CARTESIAN_POINT ( 'NONE',  ( -0.09375000000000009714, 0.3554980216144648097, 0.000000000000000000 ) ) ;
#139 = UNCERTAINTY_MEASURE_WITH_UNIT (LENGTH_MEASURE( 1.000000000000000082E-05 ), #236, 'distance_accuracy_value', 'NONE');
#140 = ORIENTED_EDGE ( 'NONE', *, *, #320, .F. ) ;
#141 = PRESENTATION_STYLE_ASSIGNMENT (( #33 ) ) ;
#142 = VECTOR ( 'NONE', #191, 39.37007874015748854 ) ;
#143 = FACE_OUTER_BOUND ( 'NONE', #30, .T. ) ;
#144 = ORIENTED_EDGE ( 'NONE', *, *, #12, .T. ) ;
#145 = DIRECTION ( 'NONE',  ( 0.000000000000000000, 0.000000000000000000, -1.000000000000000000 ) ) ;
#146 = VERTEX_POINT ( 'NONE', #51 ) ;
#147 = EDGE_LOOP ( 'NONE', ( #332, #281 ) ) ;
#148 = ORIENTED_EDGE ( 'NONE', *, *, #284, .F. ) ;
#149 = VECTOR ( 'NONE', #34, 39.37007874015748143 ) ;
#150 = ORIENTED_EDGE ( 'NONE', *, *, #231, .F. ) ;
#151 = APPLICATION_PROTOCOL_DEFINITION ( 'draft international standard', 'automotive_design', 1998, #68 ) ;
#152 = CARTESIAN_POINT ( 'NONE',  ( 9.564491501340828324E-18, 0.000000000000000000, 0.07810000000000000275 ) ) ;
#153 = DIRECTION ( 'NONE',  ( 3.628583108584750472E-17, 1.000000000000000000, -0.000000000000000000 ) ) ;
#154 = CARTESIAN_POINT ( 'NONE',  ( 6.123233995736766036E-17, 2.000000000000000000, 0.000000000000000000 ) ) ;
#155 = DIRECTION ( 'NONE',  ( -1.000000000000000000, 0.000000000000000000, 0.000000000000000000 ) ) ;
#156 =( NAMED_UNIT ( * ) SI_UNIT ( $, .STERADIAN. ) SOLID_ANGLE_UNIT ( ) );
#157 = CARTESIAN_POINT ( 'NONE',  ( 9.564491501340828324E-18, 0.000000000000000000, 0.07810000000000000275 ) ) ;
#158 = FACE_OUTER_BOUND ( 'NONE', #192, .T. ) ;
#159 = AXIS2_PLACEMENT_3D ( 'NONE', #92, #314, #177 ) ;
#160 = PRESENTATION_LAYER_ASSIGNMENT (  '', '', ( #168 ) ) ;
#161 = CYLINDRICAL_SURFACE ( 'NONE', #325, 0.07810000000000000275 ) ;
#162 = DIRECTION ( 'NONE',  ( 0.000000000000000000, 0.000000000000000000, -1.000000000000000000 ) ) ;
#163 = EDGE_CURVE ( 'NONE', #338, #115, #299, .T. ) ;
#164 = LINE ( 'NONE', #253, #142 ) ;
#165 = AXIS2_PLACEMENT_3D ( 'NONE', #113, #288, #145 ) ;
#166 =( NAMED_UNIT ( * ) PLANE_ANGLE_UNIT ( ) SI_UNIT ( $, .RADIAN. ) );
#167 = UNCERTAINTY_MEASURE_WITH_UNIT (LENGTH_MEASURE( 1.000000000000000082E-05 ), #297, 'distance_accuracy_value', 'NONE');
#168 = STYLED_ITEM ( 'NONE', ( #141 ), #330 ) ;
#169 = VERTEX_POINT ( 'NONE', #127 ) ;
#170 = SURFACE_SIDE_STYLE ('',( #337 ) ) ;
#171 = ORIENTED_EDGE ( 'NONE', *, *, #262, .F. ) ;
#172 =( GEOMETRIC_REPRESENTATION_CONTEXT ( 3 ) GLOBAL_UNCERTAINTY_ASSIGNED_CONTEXT ( ( #114 ) ) GLOBAL_UNIT_ASSIGNED_CONTEXT ( ( #14, #315, #20 ) ) REPRESENTATION_CONTEXT ( 'NONE', 'WORKASPACE' ) );
#173 = FILL_AREA_STYLE ('',( #175 ) ) ;
#174 = AXIS2_PLACEMENT_3D ( 'NONE', #105, #109, #162 ) ;
#175 = FILL_AREA_STYLE_COLOUR ( '', #77 ) ;
#176 = CARTESIAN_POINT ( 'NONE',  ( 0.000000000000000000, 0.000000000000000000, -0.07810000000000000275 ) ) ;
#177 = DIRECTION ( 'NONE',  ( 0.000000000000000000, 0.000000000000000000, -1.000000000000000000 ) ) ;
#178 = DIRECTION ( 'NONE',  ( 0.000000000000000000, 0.000000000000000000, -1.000000000000000000 ) ) ;
#179 = CIRCLE ( 'NONE', #165, 0.07810000000000000275 ) ;
#180 = DIRECTION ( 'NONE',  ( 0.000000000000000000, 0.000000000000000000, 1.000000000000000000 ) ) ;
#181 = ADVANCED_FACE ( 'NONE', ( #270 ), #120, .T. ) ;
#182 = DIRECTION ( 'NONE',  ( 0.000000000000000000, 0.000000000000000000, -1.000000000000000000 ) ) ;
#183 = DIRECTION ( 'NONE',  ( 1.000000000000000000, 0.000000000000000000, 0.000000000000000000 ) ) ;
#184 = DIRECTION ( 'NONE',  ( -3.628583108584750472E-17, -1.000000000000000000, 0.000000000000000000 ) ) ;
#185 = LENGTH_MEASURE_WITH_UNIT ( LENGTH_MEASURE( 0.02539999999999999897 ), #52 );
#186 = CARTESIAN_POINT ( 'NONE',  ( 0.000000000000000000, 0.000000000000000000, -0.07810000000000000275 ) ) ;
#187 = CARTESIAN_POINT ( 'NONE',  ( 0.09375000000000006939, 2.000000000000000000, 0.000000000000000000 ) ) ;
#188 = STYLED_ITEM ( 'NONE', ( #204 ), #21 ) ;
#189 = PRESENTATION_LAYER_ASSIGNMENT (  '', '', ( #278 ) ) ;
#190 = EDGE_CURVE ( 'NONE', #235, #169, #286, .T. ) ;
#191 = DIRECTION ( 'NONE',  ( -0.3420201433256709334, 0.9396926207859076507, 0.000000000000000000 ) ) ;
#192 = EDGE_LOOP ( 'NONE', ( #342, #121 ) ) ;
#193 = MANIFOLD_SOLID_BREP ( 'Revolve - Cutting Edge', #300 ) ;
#194 = AXIS2_PLACEMENT_3D ( 'NONE', #298, #248, #321 ) ;
#195 = ADVANCED_FACE ( 'NONE', ( #223 ), #311, .T. ) ;
#196 = FILL_AREA_STYLE_COLOUR ( '', #349 ) ;
#197 = EDGE_LOOP ( 'NONE', ( #119, #229, #307, #171 ) ) ;
#198 =( NAMED_UNIT ( * ) SI_UNIT ( $, .STERADIAN. ) SOLID_ANGLE_UNIT ( ) );
#199 = DIMENSIONAL_EXPONENTS ( 1.000000000000000000, 0.000000000000000000, 0.000000000000000000, 0.000000000000000000, 0.000000000000000000, 0.000000000000000000, 0.000000000000000000 ) ;
#200 = DIRECTION ( 'NONE',  ( -1.000000000000000000, 0.000000000000000000, 0.000000000000000000 ) ) ;
#201 = VERTEX_POINT ( 'NONE', #27 ) ;
#202 = LENGTH_MEASURE_WITH_UNIT ( LENGTH_MEASURE( 0.02539999999999999897 ), #10 );
#203 = CIRCLE ( 'NONE', #268, 0.07810000000000000275 ) ;
#204 = PRESENTATION_STYLE_ASSIGNMENT (( #91 ) ) ;
#205 = AXIS2_PLACEMENT_3D ( 'NONE', #154, #355, #96 ) ;
#206 = ADVANCED_FACE ( 'NONE', ( #277 ), #331, .T. ) ;
#207 = EDGE_LOOP ( 'NONE', ( #90, #15 ) ) ;
#208 = FACE_OUTER_BOUND ( 'NONE', #259, .T. ) ;
#209 = CARTESIAN_POINT ( 'NONE',  ( 0.000000000000000000, 0.000000000000000000, 0.000000000000000000 ) ) ;
#210 = CYLINDRICAL_SURFACE ( 'NONE', #215, 0.09375000000000005551 ) ;
#211 = VECTOR ( 'NONE', #217, 39.37007874015748143 ) ;
#212 = CARTESIAN_POINT ( 'NONE',  ( 6.123233995736766036E-17, 2.000000000000000000, 0.000000000000000000 ) ) ;
#213 = APPLICATION_CONTEXT ( 'automotive_design' ) ;
#214 = CARTESIAN_POINT ( 'NONE',  ( 0.000000000000000000, 0.3125000000000000000, 0.000000000000000000 ) ) ;
#215 = AXIS2_PLACEMENT_3D ( 'NONE', #212, #153, #155 ) ;
#216 =( NAMED_UNIT ( * ) PLANE_ANGLE_UNIT ( ) SI_UNIT ( $, .RADIAN. ) );
#217 = DIRECTION ( 'NONE',  ( -0.000000000000000000, -1.000000000000000000, -0.000000000000000000 ) ) ;
#218 = SURFACE_STYLE_USAGE ( .BOTH. , #29 ) ;
#219 = CIRCLE ( 'NONE', #66, 0.07810000000000000275 ) ;
#220 = MECHANICAL_DESIGN_GEOMETRIC_PRESENTATION_REPRESENTATION (  '', ( #301 ), #234 ) ;
#221 = SURFACE_STYLE_USAGE ( .BOTH. , #26 ) ;
#222 =( LENGTH_UNIT ( ) NAMED_UNIT ( * ) SI_UNIT ( $, .METRE. ) );
#223 = FACE_OUTER_BOUND ( 'NONE', #7, .T. ) ;
#224 = ORIENTED_EDGE ( 'NONE', *, *, #289, .F. ) ;
#225 = AXIS2_PLACEMENT_3D ( 'NONE', #38, #228, #200 ) ;
#226 = FILL_AREA_STYLE ('',( #42 ) ) ;
#227 = ORIENTED_EDGE ( 'NONE', *, *, #320, .T. ) ;
#228 = DIRECTION ( 'NONE',  ( 3.628583108584750472E-17, 1.000000000000000000, -0.000000000000000000 ) ) ;
#229 = ORIENTED_EDGE ( 'NONE', *, *, #294, .T. ) ;
#230 = ORIENTED_EDGE ( 'NONE', *, *, #284, .T. ) ;
#231 = EDGE_CURVE ( 'NONE', #112, #201, #72, .T. ) ;
#232 = PRESENTATION_STYLE_ASSIGNMENT (( #221 ) ) ;
#233 = SURFACE_STYLE_FILL_AREA ( #117 ) ;
#234 =( GEOMETRIC_REPRESENTATION_CONTEXT ( 3 ) GLOBAL_UNCERTAINTY_ASSIGNED_CONTEXT ( ( #137 ) ) GLOBAL_UNIT_ASSIGNED_CONTEXT ( ( #359, #279, #280 ) ) REPRESENTATION_CONTEXT ( 'NONE', 'WORKASPACE' ) );
#235 = VERTEX_POINT ( 'NONE', #138 ) ;
#236 =( CONVERSION_BASED_UNIT ( 'INCH', #202 ) LENGTH_UNIT ( ) NAMED_UNIT ( #313 ) );
#237 = ORIENTED_EDGE ( 'NONE', *, *, #104, .T. ) ;
#238 = CARTESIAN_POINT ( 'NONE',  ( 0.000000000000000000, 0.3125000000000000000, 0.000000000000000000 ) ) ;
#239 = DIRECTION ( 'NONE',  ( 0.000000000000000000, -0.000000000000000000, 1.000000000000000000 ) ) ;
#240 = DIRECTION ( 'NONE',  ( -1.000000000000000000, 0.000000000000000000, 0.000000000000000000 ) ) ;
#241 = COLOUR_RGB ( '',1.000000000000000000, 0.000000000000000000, 0.000000000000000000 ) ;
#242 =( NAMED_UNIT ( * ) SI_UNIT ( $, .STERADIAN. ) SOLID_ANGLE_UNIT ( ) );
#243 = LINE ( 'NONE', #273, #3 ) ;
#244 = DIRECTION ( 'NONE',  ( -1.000000000000000000, 3.628583108584750472E-17, 0.000000000000000000 ) ) ;
#245 = FACE_OUTER_BOUND ( 'NONE', #62, .T. ) ;
#246 = CARTESIAN_POINT ( 'NONE',  ( 5.141563304291515616E-35, 0.3125000000000000000, 0.000000000000000000 ) ) ;
#247 = COLOUR_RGB ( '',0.7921568627450980005, 0.8196078431372548767, 0.9333333333333333481 ) ;
#248 = DIRECTION ( 'NONE',  ( 3.628583108584750472E-17, 1.000000000000000000, -0.000000000000000000 ) ) ;
#249 =( NAMED_UNIT ( * ) SI_UNIT ( $, .STERADIAN. ) SOLID_ANGLE_UNIT ( ) );
#250 = FILL_AREA_STYLE ('',( #196 ) ) ;
#251 = PRESENTATION_LAYER_ASSIGNMENT (  '', '', ( #101 ) ) ;
#252 =( CONVERSION_BASED_UNIT ( 'INCH', #83 ) LENGTH_UNIT ( ) NAMED_UNIT ( #304 ) );
#253 = CARTESIAN_POINT ( 'NONE',  ( -0.07810000000000000275, 0.3125000000000000000, 0.000000000000000000 ) ) ;
#254 = EDGE_CURVE ( 'NONE', #115, #37, #6, .T. ) ;
#255 = SURFACE_SIDE_STYLE ('',( #291 ) ) ;
#256 = ORIENTED_EDGE ( 'NONE', *, *, #262, .T. ) ;
#257 =( NAMED_UNIT ( * ) PLANE_ANGLE_UNIT ( ) SI_UNIT ( $, .RADIAN. ) );
#258 = LENGTH_MEASURE_WITH_UNIT ( LENGTH_MEASURE( 0.02539999999999999897 ), #70 );
#259 = EDGE_LOOP ( 'NONE', ( #140, #84 ) ) ;
#260 = AXIS2_PLACEMENT_3D ( 'NONE', #100, #265, #357 ) ;
#261 = AXIS2_PLACEMENT_3D ( 'NONE', #209, #180, #183 ) ;
#262 = EDGE_CURVE ( 'NONE', #146, #235, #164, .T. ) ;
#263 = ORIENTED_EDGE ( 'NONE', *, *, #12, .F. ) ;
#264 = SHAPE_DEFINITION_REPRESENTATION ( #69, #103 ) ;
#265 = DIRECTION ( 'NONE',  ( 3.628583108584750472E-17, 1.000000000000000000, -0.000000000000000000 ) ) ;
#266 = AXIS2_PLACEMENT_3D ( 'NONE', #246, #78, #244 ) ;
#267 = CARTESIAN_POINT ( 'NONE',  ( 0.000000000000000000, 0.3125000000000000000, 0.000000000000000000 ) ) ;
#268 = AXIS2_PLACEMENT_3D ( 'NONE', #322, #24, #296 ) ;
#269 = EDGE_CURVE ( 'NONE', #169, #201, #327, .T. ) ;
#270 = FACE_OUTER_BOUND ( 'NONE', #197, .T. ) ;
#271 =( CONVERSION_BASED_UNIT ( 'INCH', #185 ) LENGTH_UNIT ( ) NAMED_UNIT ( #199 ) );
#272 = DIRECTION ( 'NONE',  ( 3.628583108584750472E-17, 1.000000000000000000, -0.000000000000000000 ) ) ;
#273 = CARTESIAN_POINT ( 'NONE',  ( -0.09374999999999998612, 2.000000000000000000, 0.000000000000000000 ) ) ;
#274 = ADVANCED_FACE ( 'NONE', ( #60 ), #161, .T. ) ;
#275 = UNCERTAINTY_MEASURE_WITH_UNIT (LENGTH_MEASURE( 1.000000000000000082E-05 ), #339, 'distance_accuracy_value', 'NONE');
#276 = DIRECTION ( 'NONE',  ( 3.628583108584750472E-17, 1.000000000000000000, -0.000000000000000000 ) ) ;
#277 = FACE_OUTER_BOUND ( 'NONE', #147, .T. ) ;
#278 = STYLED_ITEM ( 'NONE', ( #347 ), #316 ) ;
#279 =( NAMED_UNIT ( * ) PLANE_ANGLE_UNIT ( ) SI_UNIT ( $, .RADIAN. ) );
#280 =( NAMED_UNIT ( * ) SI_UNIT ( $, .STERADIAN. ) SOLID_ANGLE_UNIT ( ) );
#281 = ORIENTED_EDGE ( 'NONE', *, *, #254, .T. ) ;
#282 = CARTESIAN_POINT ( 'NONE',  ( 0.000000000000000000, 0.000000000000000000, 0.000000000000000000 ) ) ;
#283 = LINE ( 'NONE', #176, #149 ) ;
#284 = EDGE_CURVE ( 'NONE', #169, #235, #334, .T. ) ;
#285 = EDGE_LOOP ( 'NONE', ( #227, #333, #224, #263 ) ) ;
#286 = CIRCLE ( 'NONE', #55, 0.09375000000000006939 ) ;
#287 = DIRECTION ( 'NONE',  ( 0.3420201433256709889, 0.9396926207859074287, 4.188538737677018882E-17 ) ) ;
#288 = DIRECTION ( 'NONE',  ( -0.000000000000000000, -1.000000000000000000, -0.000000000000000000 ) ) ;
#289 = EDGE_CURVE ( 'NONE', #37, #115, #179, .T. ) ;
#290 = AXIS2_PLACEMENT_3D ( 'NONE', #4, #59, #31 ) ;
#291 = SURFACE_STYLE_FILL_AREA ( #173 ) ;
#292 = ORIENTED_EDGE ( 'NONE', *, *, #126, .T. ) ;
#293 = FACE_OUTER_BOUND ( 'NONE', #58, .T. ) ;
#294 = EDGE_CURVE ( 'NONE', #310, #169, #41, .T. ) ;
#295 = DIRECTION ( 'NONE',  ( 0.000000000000000000, 1.000000000000000000, 0.000000000000000000 ) ) ;
#296 = DIRECTION ( 'NONE',  ( 0.000000000000000000, 0.000000000000000000, -1.000000000000000000 ) ) ;
#297 =( CONVERSION_BASED_UNIT ( 'INCH', #122 ) LENGTH_UNIT ( ) NAMED_UNIT ( #107 ) );
#298 = CARTESIAN_POINT ( 'NONE',  ( 6.123233995736766036E-17, 2.000000000000000000, 0.000000000000000000 ) ) ;
#299 = LINE ( 'NONE', #157, #211 ) ;
#300 = CLOSED_SHELL ( 'NONE', ( #274, #330, #21, #206 ) ) ;
#301 = STYLED_ITEM ( 'NONE', ( #302 ), #206 ) ;
#302 = PRESENTATION_STYLE_ASSIGNMENT (( #218 ) ) ;
#303 = PRODUCT_DEFINITION ( 'UNKNOWN', '', #44, #340 ) ;
#304 = DIMENSIONAL_EXPONENTS ( 1.000000000000000000, 0.000000000000000000, 0.000000000000000000, 0.000000000000000000, 0.000000000000000000, 0.000000000000000000, 0.000000000000000000 ) ;
#305 = LENGTH_MEASURE_WITH_UNIT ( LENGTH_MEASURE( 0.02539999999999999897 ), #222 );
#306 = SURFACE_STYLE_FILL_AREA ( #250 ) ;
#307 = ORIENTED_EDGE ( 'NONE', *, *, #190, .F. ) ;
#308 = CARTESIAN_POINT ( 'NONE',  ( 0.07810000000000000275, 0.3125000000000000000, 9.564491501340828324E-18 ) ) ;
#309 = FILL_AREA_STYLE_COLOUR ( '', #356 ) ;
#310 = VERTEX_POINT ( 'NONE', #64 ) ;
#311 = CONICAL_SURFACE ( 'NONE', #23, 0.07810000000000000275, 0.3490658503988683381 ) ;
#312 =( LENGTH_UNIT ( ) NAMED_UNIT ( * ) SI_UNIT ( $, .METRE. ) );
#313 = DIMENSIONAL_EXPONENTS ( 1.000000000000000000, 0.000000000000000000, 0.000000000000000000, 0.000000000000000000, 0.000000000000000000, 0.000000000000000000, 0.000000000000000000 ) ;
#314 = DIRECTION ( 'NONE',  ( -0.000000000000000000, -1.000000000000000000, -0.000000000000000000 ) ) ;
#315 =( NAMED_UNIT ( * ) PLANE_ANGLE_UNIT ( ) SI_UNIT ( $, .RADIAN. ) );
#316 = MANIFOLD_SOLID_BREP ( 'Revolve - Tool Body (Reduced Cut Diameter)', #130 ) ;
#317 = LENGTH_MEASURE_WITH_UNIT ( LENGTH_MEASURE( 0.02539999999999999897 ), #312 );
#318 = CIRCLE ( 'NONE', #159, 0.07810000000000000275 ) ;
#319 = SURFACE_STYLE_USAGE ( .BOTH. , #54 ) ;
#320 = EDGE_CURVE ( 'NONE', #9, #338, #318, .T. ) ;
#321 = DIRECTION ( 'NONE',  ( -1.000000000000000000, 0.000000000000000000, 0.000000000000000000 ) ) ;
#322 = CARTESIAN_POINT ( 'NONE',  ( 0.000000000000000000, 0.3125000000000000000, 0.000000000000000000 ) ) ;
#323 = AXIS2_PLACEMENT_3D ( 'NONE', #187, #184, #48 ) ;
#324 = CARTESIAN_POINT ( 'NONE',  ( -0.09374999999999994449, 2.000000000000000000, 0.000000000000000000 ) ) ;
#325 = AXIS2_PLACEMENT_3D ( 'NONE', #282, #17, #178 ) ;
#326 = DIRECTION ( 'NONE',  ( -0.000000000000000000, -1.000000000000000000, -0.000000000000000000 ) ) ;
#327 = LINE ( 'NONE', #80, #36 ) ;
#328 = SURFACE_STYLE_FILL_AREA ( #106 ) ;
#329 = COLOUR_RGB ( '',1.000000000000000000, 0.000000000000000000, 0.000000000000000000 ) ;
#330 = ADVANCED_FACE ( 'NONE', ( #208 ), #5, .T. ) ;
#331 = PLANE ( 'NONE',  #290 ) ;
#332 = ORIENTED_EDGE ( 'NONE', *, *, #289, .T. ) ;
#333 = ORIENTED_EDGE ( 'NONE', *, *, #163, .T. ) ;
#334 = CIRCLE ( 'NONE', #225, 0.09375000000000006939 ) ;
#335 = AXIS2_PLACEMENT_3D ( 'NONE', #238, #295, #239 ) ;
#336 = DIMENSIONAL_EXPONENTS ( 1.000000000000000000, 0.000000000000000000, 0.000000000000000000, 0.000000000000000000, 0.000000000000000000, 0.000000000000000000, 0.000000000000000000 ) ;
#337 = SURFACE_STYLE_FILL_AREA ( #226 ) ;
#338 = VERTEX_POINT ( 'NONE', #123 ) ;
#339 =( CONVERSION_BASED_UNIT ( 'INCH', #317 ) LENGTH_UNIT ( ) NAMED_UNIT ( #89 ) );
#340 = PRODUCT_DEFINITION_CONTEXT ( 'detailed design', #213, 'design' ) ;
#341 = CYLINDRICAL_SURFACE ( 'NONE', #43, 0.07810000000000000275 ) ;
#342 = ORIENTED_EDGE ( 'NONE', *, *, #135, .F. ) ;
#343 = SURFACE_SIDE_STYLE ('',( #233 ) ) ;
#344 = PRESENTATION_LAYER_ASSIGNMENT (  '', '', ( #301 ) ) ;
#345 = CARTESIAN_POINT ( 'NONE',  ( 0.000000000000000000, 0.3125000000000000000, -0.07810000000000000275 ) ) ;
#346 = ORIENTED_EDGE ( 'NONE', *, *, #294, .F. ) ;
#347 = PRESENTATION_STYLE_ASSIGNMENT (( #13 ) ) ;
#348 = PRODUCT ( '84627', '84627', '', ( #99 ) ) ;
#349 = COLOUR_RGB ( '',1.000000000000000000, 0.000000000000000000, 0.000000000000000000 ) ;
#350 =( NAMED_UNIT ( * ) PLANE_ANGLE_UNIT ( ) SI_UNIT ( $, .RADIAN. ) );
#351 = CARTESIAN_POINT ( 'NONE',  ( 0.000000000000000000, 0.3125000000000000000, 0.000000000000000000 ) ) ;
#352 = DIRECTION ( 'NONE',  ( 3.628583108584750472E-17, 1.000000000000000000, -0.000000000000000000 ) ) ;
#353 = CARTESIAN_POINT ( 'NONE',  ( 0.000000000000000000, 0.000000000000000000, 0.000000000000000000 ) ) ;
#354 = ADVANCED_FACE ( 'NONE', ( #245 ), #47, .T. ) ;
#355 = DIRECTION ( 'NONE',  ( 3.628583108584750472E-17, 1.000000000000000000, -0.000000000000000000 ) ) ;
#356 = COLOUR_RGB ( '',1.000000000000000000, 0.000000000000000000, 0.000000000000000000 ) ;
#357 = DIRECTION ( 'NONE',  ( -1.000000000000000000, 0.000000000000000000, 0.000000000000000000 ) ) ;
#358 = CARTESIAN_POINT ( 'NONE',  ( 1.560218949328083429E-18, 0.3554980216144648097, 0.000000000000000000 ) ) ;
#359 =( CONVERSION_BASED_UNIT ( 'INCH', #305 ) LENGTH_UNIT ( ) NAMED_UNIT ( #56 ) );
ENDSEC;
END-ISO-10303-21;
