ISO-10303-21;
HEADER;
FILE_DESCRIPTION (( 'STEP AP214' ),
    '1' );
FILE_NAME ('83872.STEP',
    '2023-07-12T13:07:41',
    ( '' ),
    ( '' ),
    'SwSTEP 2.0',
    'SolidWorks 2023',
    '' );
FILE_SCHEMA (( 'AUTOMOTIVE_DESIGN' ));
ENDSEC;

DATA;
#1 = CARTESIAN_POINT ( 'NONE',  ( 0.02000000000000000042, 0.000000000000000000, 2.449293598294706769E-18 ) ) ;
#2 = EDGE_LOOP ( 'NONE', ( #108, #15, #288, #148 ) ) ;
#3 = STYLED_ITEM ( 'NONE', ( #198 ), #176 ) ;
#4 = AXIS2_PLACEMENT_3D ( 'NONE', #51, #93, #175 ) ;
#5 = PLANE ( 'NONE',  #250 ) ;
#6 = FILL_AREA_STYLE ('',( #71 ) ) ;
#7 =( GEOMETRIC_REPRESENTATION_CONTEXT ( 3 ) GLOBAL_UNCERTAINTY_ASSIGNED_CONTEXT ( ( #57 ) ) GLOBAL_UNIT_ASSIGNED_CONTEXT ( ( #104, #183, #208 ) ) REPRESENTATION_CONTEXT ( 'NONE', 'WORKASPACE' ) );
#8 =( LENGTH_UNIT ( ) NAMED_UNIT ( * ) SI_UNIT ( $, .METRE. ) );
#9 = AXIS2_PLACEMENT_3D ( 'NONE', #303, #67, #241 ) ;
#10 = DIRECTION ( 'NONE',  ( 1.000000000000000000, 4.364974079262390907E-17, 0.000000000000000000 ) ) ;
#11 = CARTESIAN_POINT ( 'NONE',  ( 2.409088309794067243E-16, 0.04249999999999988509, 0.000000000000000000 ) ) ;
#12 = EDGE_LOOP ( 'NONE', ( #299, #174, #252, #155 ) ) ;
#13 = UNCERTAINTY_MEASURE_WITH_UNIT (LENGTH_MEASURE( 1.000000000000000082E-05 ), #158, 'distance_accuracy_value', 'NONE');
#14 = DIRECTION ( 'NONE',  ( -1.000000000000000000, 0.000000000000000000, 0.000000000000000000 ) ) ;
#15 = ORIENTED_EDGE ( 'NONE', *, *, #17, .T. ) ;
#16 = ORIENTED_EDGE ( 'NONE', *, *, #118, .T. ) ;
#17 = EDGE_CURVE ( 'NONE', #36, #60, #181, .T. ) ;
#18 = DIRECTION ( 'NONE',  ( -1.000000000000000000, -1.232771808041434271E-16, 0.000000000000000000 ) ) ;
#19 = ORIENTED_EDGE ( 'NONE', *, *, #240, .T. ) ;
#20 = FILL_AREA_STYLE ('',( #102 ) ) ;
#21 = AXIS2_PLACEMENT_3D ( 'NONE', #94, #286, #98 ) ;
#22 = CARTESIAN_POINT ( 'NONE',  ( -0.06249999999999951428, 0.04249999999999987815, 0.000000000000000000 ) ) ;
#23 = EDGE_LOOP ( 'NONE', ( #132, #266, #106, #34 ) ) ;
#24 = APPLICATION_PROTOCOL_DEFINITION ( 'draft international standard', 'automotive_design', 1998, #273 ) ;
#25 =( LENGTH_UNIT ( ) NAMED_UNIT ( * ) SI_UNIT ( $, .METRE. ) );
#26 = PRODUCT_CONTEXT ( 'NONE', #273, 'mechanical' ) ;
#27 = COLOUR_RGB ( '',1.000000000000000000, 0.000000000000000000, 0.000000000000000000 ) ;
#28 = MANIFOLD_SOLID_BREP ( 'Revolve - Tool Body (Tipped Off)', #274 ) ;
#29 = PRESENTATION_LAYER_ASSIGNMENT (  '', '', ( #301 ) ) ;
#30 = PRODUCT_DEFINITION_CONTEXT ( 'detailed design', #119, 'design' ) ;
#31 =( NAMED_UNIT ( * ) SI_UNIT ( $, .STERADIAN. ) SOLID_ANGLE_UNIT ( ) );
#32 = VERTEX_POINT ( 'NONE', #192 ) ;
#33 = DIRECTION ( 'NONE',  ( -1.000000000000000000, -4.364974079262391523E-17, 0.000000000000000000 ) ) ;
#34 = ORIENTED_EDGE ( 'NONE', *, *, #163, .F. ) ;
#35 = CARTESIAN_POINT ( 'NONE',  ( 0.06249999999999989592, 1.500000000000000222, 7.654042494670937515E-18 ) ) ;
#36 = VERTEX_POINT ( 'NONE', #160 ) ;
#37 = CIRCLE ( 'NONE', #134, 0.06249999999999999306 ) ;
#38 =( NAMED_UNIT ( * ) PLANE_ANGLE_UNIT ( ) SI_UNIT ( $, .RADIAN. ) );
#39 = VERTEX_POINT ( 'NONE', #189 ) ;
#40 = CARTESIAN_POINT ( 'NONE',  ( -0.02000000000000000042, -1.745989631704956440E-18, 0.000000000000000000 ) ) ;
#41 = VERTEX_POINT ( 'NONE', #280 ) ;
#42 = MANIFOLD_SOLID_BREP ( 'Revolve - Cutting Edge', #89 ) ;
#43 = COLOUR_RGB ( '',0.7921568627450980005, 0.8196078431372548767, 0.9333333333333333481 ) ;
#44 = DIRECTION ( 'NONE',  ( -1.232771808041434271E-16, 1.000000000000000000, -0.000000000000000000 ) ) ;
#45 = MECHANICAL_DESIGN_GEOMETRIC_PRESENTATION_REPRESENTATION (  '', ( #279 ), #275 ) ;
#46 = DIRECTION ( 'NONE',  ( 1.000000000000000000, 4.364974079262390907E-17, 0.000000000000000000 ) ) ;
#47 =( NAMED_UNIT ( * ) SI_UNIT ( $, .STERADIAN. ) SOLID_ANGLE_UNIT ( ) );
#48 = FACE_OUTER_BOUND ( 'NONE', #12, .T. ) ;
#49 = MECHANICAL_DESIGN_GEOMETRIC_PRESENTATION_REPRESENTATION (  '', ( #301 ), #70 ) ;
#50 =( NAMED_UNIT ( * ) PLANE_ANGLE_UNIT ( ) SI_UNIT ( $, .RADIAN. ) );
#51 = CARTESIAN_POINT ( 'NONE',  ( 0.000000000000000000, 0.000000000000000000, 0.000000000000000000 ) ) ;
#52 = SURFACE_SIDE_STYLE ('',( #74 ) ) ;
#53 = ORIENTED_EDGE ( 'NONE', *, *, #127, .F. ) ;
#54 =( GEOMETRIC_REPRESENTATION_CONTEXT ( 3 ) GLOBAL_UNCERTAINTY_ASSIGNED_CONTEXT ( ( #13 ) ) GLOBAL_UNIT_ASSIGNED_CONTEXT ( ( #158, #162, #47 ) ) REPRESENTATION_CONTEXT ( 'NONE', 'WORKASPACE' ) );
#55 = CARTESIAN_POINT ( 'NONE',  ( 6.123233995736763571E-17, 1.500000000000000222, 0.000000000000000000 ) ) ;
#56 = CONICAL_SURFACE ( 'NONE', #21, 0.02000000000000000042, 0.7853981633974500554 ) ;
#57 = UNCERTAINTY_MEASURE_WITH_UNIT (LENGTH_MEASURE( 1.000000000000000082E-05 ), #104, 'distance_accuracy_value', 'NONE');
#58 = DIRECTION ( 'NONE',  ( -1.232771808041434271E-16, 1.000000000000000000, -0.000000000000000000 ) ) ;
#59 = EDGE_CURVE ( 'NONE', #36, #32, #109, .T. ) ;
#60 = VERTEX_POINT ( 'NONE', #22 ) ;
#61 = DIRECTION ( 'NONE',  ( -1.232771808041434271E-16, 1.000000000000000000, -0.000000000000000000 ) ) ;
#62 = COLOUR_RGB ( '',1.000000000000000000, 0.000000000000000000, 0.000000000000000000 ) ;
#63 = CARTESIAN_POINT ( 'NONE',  ( -0.06249999999999977796, 1.500000000000000222, 0.000000000000000000 ) ) ;
#64 = DIRECTION ( 'NONE',  ( -0.7071067811865486830, 0.7071067811865462405, 0.000000000000000000 ) ) ;
#65 = ADVANCED_FACE ( 'NONE', ( #309 ), #216, .F. ) ;
#66 =( LENGTH_UNIT ( ) NAMED_UNIT ( * ) SI_UNIT ( $, .METRE. ) );
#67 = DIRECTION ( 'NONE',  ( 4.364974079262391523E-17, -1.000000000000000000, -0.000000000000000000 ) ) ;
#68 = AXIS2_PLACEMENT_3D ( 'NONE', #185, #81, #277 ) ;
#69 = DIRECTION ( 'NONE',  ( 4.364974079262391523E-17, -1.000000000000000000, -0.000000000000000000 ) ) ;
#70 =( GEOMETRIC_REPRESENTATION_CONTEXT ( 3 ) GLOBAL_UNCERTAINTY_ASSIGNED_CONTEXT ( ( #130 ) ) GLOBAL_UNIT_ASSIGNED_CONTEXT ( ( #77, #38, #31 ) ) REPRESENTATION_CONTEXT ( 'NONE', 'WORKASPACE' ) );
#71 = FILL_AREA_STYLE_COLOUR ( '', #62 ) ;
#72 = CARTESIAN_POINT ( 'NONE',  ( 1.905299871263256159E-35, -4.364974079262391100E-19, 0.000000000000000000 ) ) ;
#73 = ORIENTED_EDGE ( 'NONE', *, *, #225, .F. ) ;
#74 = SURFACE_STYLE_FILL_AREA ( #227 ) ;
#75 = FILL_AREA_STYLE ('',( #97 ) ) ;
#76 = UNCERTAINTY_MEASURE_WITH_UNIT (LENGTH_MEASURE( 1.000000000000000082E-05 ), #121, 'distance_accuracy_value', 'NONE');
#77 =( CONVERSION_BASED_UNIT ( 'INCH', #270 ) LENGTH_UNIT ( ) NAMED_UNIT ( #168 ) );
#78 = SURFACE_STYLE_USAGE ( .BOTH. , #296 ) ;
#79 = EDGE_LOOP ( 'NONE', ( #73, #129 ) ) ;
#80 = FACE_OUTER_BOUND ( 'NONE', #23, .T. ) ;
#81 = DIRECTION ( 'NONE',  ( -1.232771808041434271E-16, 1.000000000000000000, -0.000000000000000000 ) ) ;
#82 = PRESENTATION_LAYER_ASSIGNMENT (  '', '', ( #228 ) ) ;
#83 = FACE_OUTER_BOUND ( 'NONE', #2, .T. ) ;
#84 = DIRECTION ( 'NONE',  ( -1.232771808041434271E-16, 1.000000000000000000, -0.000000000000000000 ) ) ;
#85 = DIMENSIONAL_EXPONENTS ( 1.000000000000000000, 0.000000000000000000, 0.000000000000000000, 0.000000000000000000, 0.000000000000000000, 0.000000000000000000, 0.000000000000000000 ) ;
#86 = CARTESIAN_POINT ( 'NONE',  ( -1.855113983686509741E-18, 0.04249999999999984346, 0.000000000000000000 ) ) ;
#87 = AXIS2_PLACEMENT_3D ( 'NONE', #209, #298, #10 ) ;
#88 = FILL_AREA_STYLE_COLOUR ( '', #27 ) ;
#89 = CLOSED_SHELL ( 'NONE', ( #172, #188, #92, #176 ) ) ;
#90 = DIRECTION ( 'NONE',  ( 1.232771808041434271E-16, -1.000000000000000000, 0.000000000000000000 ) ) ;
#91 = STYLED_ITEM ( 'NONE', ( #136 ), #28 ) ;
#92 = ADVANCED_FACE ( 'NONE', ( #113 ), #152, .T. ) ;
#93 = DIRECTION ( 'NONE',  ( 0.000000000000000000, 0.000000000000000000, 1.000000000000000000 ) ) ;
#94 = CARTESIAN_POINT ( 'NONE',  ( 3.810599742526512318E-35, -8.729948158524782199E-19, 0.000000000000000000 ) ) ;
#95 = PRODUCT_RELATED_PRODUCT_CATEGORY ( 'part', '', ( #257 ) ) ;
#96 = MECHANICAL_DESIGN_GEOMETRIC_PRESENTATION_REPRESENTATION (  '', ( #228 ), #223 ) ;
#97 = FILL_AREA_STYLE_COLOUR ( '', #105 ) ;
#98 = DIRECTION ( 'NONE',  ( -1.000000000000000000, -4.364974079262390907E-17, 0.000000000000000000 ) ) ;
#99 = PLANE ( 'NONE',  #187 ) ;
#100 = MECHANICAL_DESIGN_GEOMETRIC_PRESENTATION_REPRESENTATION (  '', ( #3 ), #247 ) ;
#101 = CYLINDRICAL_SURFACE ( 'NONE', #306, 0.06249999999999984041 ) ;
#102 = FILL_AREA_STYLE_COLOUR ( '', #143 ) ;
#103 = DIRECTION ( 'NONE',  ( -1.000000000000000000, -1.365923996832137033E-16, 0.000000000000000000 ) ) ;
#104 =( CONVERSION_BASED_UNIT ( 'INCH', #276 ) LENGTH_UNIT ( ) NAMED_UNIT ( #260 ) );
#105 = COLOUR_RGB ( '',1.000000000000000000, 0.000000000000000000, 0.000000000000000000 ) ;
#106 = ORIENTED_EDGE ( 'NONE', *, *, #217, .F. ) ;
#107 = DIRECTION ( 'NONE',  ( -1.232771808041434271E-16, 1.000000000000000000, -0.000000000000000000 ) ) ;
#108 = ORIENTED_EDGE ( 'NONE', *, *, #59, .F. ) ;
#109 = LINE ( 'NONE', #35, #256 ) ;
#110 = CARTESIAN_POINT ( 'NONE',  ( 0.06249999999999997918, 1.500000000000000222, 0.000000000000000000 ) ) ;
#111 = AXIS2_PLACEMENT_3D ( 'NONE', #131, #233, #18 ) ;
#112 = EDGE_CURVE ( 'NONE', #39, #232, #138, .T. ) ;
#113 = FACE_OUTER_BOUND ( 'NONE', #253, .T. ) ;
#114 = LINE ( 'NONE', #40, #267 ) ;
#115 = LENGTH_MEASURE_WITH_UNIT ( LENGTH_MEASURE( 0.02539999999999999897 ), #307 );
#116 = DIMENSIONAL_EXPONENTS ( 1.000000000000000000, 0.000000000000000000, 0.000000000000000000, 0.000000000000000000, 0.000000000000000000, 0.000000000000000000, 0.000000000000000000 ) ;
#117 = PRESENTATION_LAYER_ASSIGNMENT (  '', '', ( #144 ) ) ;
#118 = EDGE_CURVE ( 'NONE', #230, #248, #194, .T. ) ;
#119 = APPLICATION_CONTEXT ( 'automotive_design' ) ;
#120 = ADVANCED_FACE ( 'NONE', ( #83 ), #304, .T. ) ;
#121 =( CONVERSION_BASED_UNIT ( 'INCH', #173 ) LENGTH_UNIT ( ) NAMED_UNIT ( #85 ) );
#122 =( NAMED_UNIT ( * ) SI_UNIT ( $, .STERADIAN. ) SOLID_ANGLE_UNIT ( ) );
#123 = VECTOR ( 'NONE', #137, 39.37007874015748143 ) ;
#124 = SURFACE_STYLE_FILL_AREA ( #6 ) ;
#125 = APPLICATION_PROTOCOL_DEFINITION ( 'draft international standard', 'automotive_design', 1998, #119 ) ;
#126 = DIRECTION ( 'NONE',  ( -1.000000000000000000, 0.000000000000000000, 0.000000000000000000 ) ) ;
#127 = EDGE_CURVE ( 'NONE', #232, #39, #37, .T. ) ;
#128 = CARTESIAN_POINT ( 'NONE',  ( -1.855113983686509741E-18, 0.04249999999999984346, 0.000000000000000000 ) ) ;
#129 = ORIENTED_EDGE ( 'NONE', *, *, #17, .F. ) ;
#130 = UNCERTAINTY_MEASURE_WITH_UNIT (LENGTH_MEASURE( 1.000000000000000082E-05 ), #77, 'distance_accuracy_value', 'NONE');
#131 = CARTESIAN_POINT ( 'NONE',  ( 2.409088309794067243E-16, 0.04249999999999984346, 0.000000000000000000 ) ) ;
#132 = ORIENTED_EDGE ( 'NONE', *, *, #225, .T. ) ;
#133 = CIRCLE ( 'NONE', #285, 0.06249999999999992367 ) ;
#134 = AXIS2_PLACEMENT_3D ( 'NONE', #86, #69, #258 ) ;
#135 = EDGE_LOOP ( 'NONE', ( #262, #157 ) ) ;
#136 = PRESENTATION_STYLE_ASSIGNMENT (( #78 ) ) ;
#137 = DIRECTION ( 'NONE',  ( -1.232771808041434271E-16, 1.000000000000000000, -0.000000000000000000 ) ) ;
#138 = CIRCLE ( 'NONE', #9, 0.06249999999999999306 ) ;
#139 =( CONVERSION_BASED_UNIT ( 'INCH', #141 ) LENGTH_UNIT ( ) NAMED_UNIT ( #116 ) );
#140 = LENGTH_MEASURE_WITH_UNIT ( LENGTH_MEASURE( 0.02539999999999999897 ), #197 );
#141 = LENGTH_MEASURE_WITH_UNIT ( LENGTH_MEASURE( 0.02539999999999999897 ), #66 );
#142 = PRESENTATION_STYLE_ASSIGNMENT (( #196 ) ) ;
#143 = COLOUR_RGB ( '',0.7921568627450980005, 0.8196078431372548767, 0.9333333333333333481 ) ;
#144 = STYLED_ITEM ( 'NONE', ( #142 ), #92 ) ;
#145 = SURFACE_SIDE_STYLE ('',( #177 ) ) ;
#146 = FACE_OUTER_BOUND ( 'NONE', #278, .T. ) ;
#147 = AXIS2_PLACEMENT_3D ( 'NONE', #11, #58, #103 ) ;
#148 = ORIENTED_EDGE ( 'NONE', *, *, #150, .F. ) ;
#149 = FILL_AREA_STYLE_COLOUR ( '', #218 ) ;
#150 = EDGE_CURVE ( 'NONE', #32, #41, #242, .T. ) ;
#151 = UNCERTAINTY_MEASURE_WITH_UNIT (LENGTH_MEASURE( 1.000000000000000082E-05 ), #171, 'distance_accuracy_value', 'NONE');
#152 = CONICAL_SURFACE ( 'NONE', #207, 0.02000000000000000042, 0.7853981633974500554 ) ;
#153 = ORIENTED_EDGE ( 'NONE', *, *, #112, .F. ) ;
#154 = UNCERTAINTY_MEASURE_WITH_UNIT (LENGTH_MEASURE( 1.000000000000000082E-05 ), #239, 'distance_accuracy_value', 'NONE');
#155 = ORIENTED_EDGE ( 'NONE', *, *, #292, .F. ) ;
#156 = AXIS2_PLACEMENT_3D ( 'NONE', #190, #84, #191 ) ;
#157 = ORIENTED_EDGE ( 'NONE', *, *, #150, .T. ) ;
#158 =( CONVERSION_BASED_UNIT ( 'INCH', #115 ) LENGTH_UNIT ( ) NAMED_UNIT ( #159 ) );
#159 = DIMENSIONAL_EXPONENTS ( 1.000000000000000000, 0.000000000000000000, 0.000000000000000000, 0.000000000000000000, 0.000000000000000000, 0.000000000000000000, 0.000000000000000000 ) ;
#160 = CARTESIAN_POINT ( 'NONE',  ( 0.06249999999999999306, 0.04249999999999989897, 7.654042494670942137E-18 ) ) ;
#161 = DIRECTION ( 'NONE',  ( 1.000000000000000000, 1.232771808041434271E-16, 0.000000000000000000 ) ) ;
#162 =( NAMED_UNIT ( * ) PLANE_ANGLE_UNIT ( ) SI_UNIT ( $, .RADIAN. ) );
#163 = EDGE_CURVE ( 'NONE', #60, #41, #281, .T. ) ;
#164 = CIRCLE ( 'NONE', #87, 0.02000000000000000042 ) ;
#165 = UNCERTAINTY_MEASURE_WITH_UNIT (LENGTH_MEASURE( 1.000000000000000082E-05 ), #139, 'distance_accuracy_value', 'NONE');
#166 = PRODUCT_DEFINITION_SHAPE ( 'NONE', 'NONE',  #203 ) ;
#167 = CARTESIAN_POINT ( 'NONE',  ( 3.810599742526512318E-35, -8.729948158524782199E-19, 0.000000000000000000 ) ) ;
#168 = DIMENSIONAL_EXPONENTS ( 1.000000000000000000, 0.000000000000000000, 0.000000000000000000, 0.000000000000000000, 0.000000000000000000, 0.000000000000000000, 0.000000000000000000 ) ;
#169 = FILL_AREA_STYLE ('',( #88 ) ) ;
#170 =( GEOMETRIC_REPRESENTATION_CONTEXT ( 3 ) GLOBAL_UNCERTAINTY_ASSIGNED_CONTEXT ( ( #154 ) ) GLOBAL_UNIT_ASSIGNED_CONTEXT ( ( #239, #214, #283 ) ) REPRESENTATION_CONTEXT ( 'NONE', 'WORKASPACE' ) );
#171 =( CONVERSION_BASED_UNIT ( 'INCH', #226 ) LENGTH_UNIT ( ) NAMED_UNIT ( #238 ) );
#172 = ADVANCED_FACE ( 'NONE', ( #48 ), #56, .T. ) ;
#173 = LENGTH_MEASURE_WITH_UNIT ( LENGTH_MEASURE( 0.02539999999999999897 ), #8 );
#174 = ORIENTED_EDGE ( 'NONE', *, *, #184, .T. ) ;
#175 = DIRECTION ( 'NONE',  ( 1.000000000000000000, 0.000000000000000000, 0.000000000000000000 ) ) ;
#176 = ADVANCED_FACE ( 'NONE', ( #146 ), #99, .T. ) ;
#177 = SURFACE_STYLE_FILL_AREA ( #75 ) ;
#178 = FACE_OUTER_BOUND ( 'NONE', #79, .T. ) ;
#179 = ORIENTED_EDGE ( 'NONE', *, *, #292, .T. ) ;
#180 = PRESENTATION_LAYER_ASSIGNMENT (  '', '', ( #3 ) ) ;
#181 = CIRCLE ( 'NONE', #68, 0.06249999999999975020 ) ;
#182 = PRESENTATION_LAYER_ASSIGNMENT (  '', '', ( #279 ) ) ;
#183 =( NAMED_UNIT ( * ) PLANE_ANGLE_UNIT ( ) SI_UNIT ( $, .RADIAN. ) );
#184 = EDGE_CURVE ( 'NONE', #248, #39, #264, .T. ) ;
#185 = CARTESIAN_POINT ( 'NONE',  ( 2.409088309794067243E-16, 0.04249999999999988509, 0.000000000000000000 ) ) ;
#186 = SURFACE_STYLE_FILL_AREA ( #294 ) ;
#187 = AXIS2_PLACEMENT_3D ( 'NONE', #72, #202, #245 ) ;
#188 = ADVANCED_FACE ( 'NONE', ( #224 ), #5, .T. ) ;
#189 = CARTESIAN_POINT ( 'NONE',  ( 0.06249999999999999306, 0.04249999999999984346, 7.654042494670956004E-18 ) ) ;
#190 = CARTESIAN_POINT ( 'NONE',  ( 6.123233995736763571E-17, 1.500000000000000222, 0.000000000000000000 ) ) ;
#191 = DIRECTION ( 'NONE',  ( -1.000000000000000000, 0.000000000000000000, 0.000000000000000000 ) ) ;
#192 = CARTESIAN_POINT ( 'NONE',  ( 0.06249999999999997918, 1.500000000000000222, 7.654042494670942137E-18 ) ) ;
#193 = DIRECTION ( 'NONE',  ( -1.000000000000000000, 0.000000000000000000, 0.000000000000000000 ) ) ;
#194 = CIRCLE ( 'NONE', #290, 0.02000000000000000042 ) ;
#195 = SURFACE_SIDE_STYLE ('',( #212 ) ) ;
#196 = SURFACE_STYLE_USAGE ( .BOTH. , #302 ) ;
#197 =( LENGTH_UNIT ( ) NAMED_UNIT ( * ) SI_UNIT ( $, .METRE. ) );
#198 = PRESENTATION_STYLE_ASSIGNMENT (( #221 ) ) ;
#199 = PRESENTATION_STYLE_ASSIGNMENT (( #289 ) ) ;
#200 = ADVANCED_FACE ( 'NONE', ( #178 ), #297, .F. ) ;
#201 = AXIS2_PLACEMENT_3D ( 'NONE', #261, #44, #193 ) ;
#202 = DIRECTION ( 'NONE',  ( 4.364974079262391523E-17, -1.000000000000000000, -0.000000000000000000 ) ) ;
#203 = PRODUCT_DEFINITION ( 'UNKNOWN', '', #255, #30 ) ;
#204 = MECHANICAL_DESIGN_GEOMETRIC_PRESENTATION_REPRESENTATION (  '', ( #91 ), #7 ) ;
#205 = FILL_AREA_STYLE_COLOUR ( '', #43 ) ;
#206 = CARTESIAN_POINT ( 'NONE',  ( -0.02000000000000000042, -1.745989631704956440E-18, 0.000000000000000000 ) ) ;
#207 = AXIS2_PLACEMENT_3D ( 'NONE', #213, #305, #211 ) ;
#208 =( NAMED_UNIT ( * ) SI_UNIT ( $, .STERADIAN. ) SOLID_ANGLE_UNIT ( ) );
#209 = CARTESIAN_POINT ( 'NONE',  ( 3.810599742526512318E-35, -8.729948158524782199E-19, 0.000000000000000000 ) ) ;
#210 = ORIENTED_EDGE ( 'NONE', *, *, #127, .T. ) ;
#211 = DIRECTION ( 'NONE',  ( -1.000000000000000000, -4.364974079262390907E-17, 0.000000000000000000 ) ) ;
#212 = SURFACE_STYLE_FILL_AREA ( #20 ) ;
#213 = CARTESIAN_POINT ( 'NONE',  ( 3.810599742526512318E-35, -8.729948158524782199E-19, 0.000000000000000000 ) ) ;
#214 =( NAMED_UNIT ( * ) PLANE_ANGLE_UNIT ( ) SI_UNIT ( $, .RADIAN. ) );
#215 = PRESENTATION_STYLE_ASSIGNMENT (( #219 ) ) ;
#216 = PLANE ( 'NONE',  #237 ) ;
#217 = EDGE_CURVE ( 'NONE', #41, #32, #133, .T. ) ;
#218 = COLOUR_RGB ( '',1.000000000000000000, 0.000000000000000000, 0.000000000000000000 ) ;
#219 = SURFACE_STYLE_USAGE ( .BOTH. , #195 ) ;
#220 = DIRECTION ( 'NONE',  ( 4.364974079262391523E-17, -1.000000000000000000, -0.000000000000000000 ) ) ;
#221 = SURFACE_STYLE_USAGE ( .BOTH. , #284 ) ;
#222 =( NAMED_UNIT ( * ) PLANE_ANGLE_UNIT ( ) SI_UNIT ( $, .RADIAN. ) );
#223 =( GEOMETRIC_REPRESENTATION_CONTEXT ( 3 ) GLOBAL_UNCERTAINTY_ASSIGNED_CONTEXT ( ( #76 ) ) GLOBAL_UNIT_ASSIGNED_CONTEXT ( ( #121, #222, #265 ) ) REPRESENTATION_CONTEXT ( 'NONE', 'WORKASPACE' ) );
#224 = FACE_OUTER_BOUND ( 'NONE', #254, .T. ) ;
#225 = EDGE_CURVE ( 'NONE', #60, #36, #259, .T. ) ;
#226 = LENGTH_MEASURE_WITH_UNIT ( LENGTH_MEASURE( 0.02539999999999999897 ), #25 );
#227 = FILL_AREA_STYLE ('',( #149 ) ) ;
#228 = STYLED_ITEM ( 'NONE', ( #199 ), #172 ) ;
#229 = CARTESIAN_POINT ( 'NONE',  ( 0.02000000000000000042, 0.000000000000000000, 5.051668046482832349E-18 ) ) ;
#230 = VERTEX_POINT ( 'NONE', #206 ) ;
#231 = DIRECTION ( 'NONE',  ( -4.364974079262391523E-17, 1.000000000000000000, 0.000000000000000000 ) ) ;
#232 = VERTEX_POINT ( 'NONE', #293 ) ;
#233 = DIRECTION ( 'NONE',  ( -1.232771808041434271E-16, 1.000000000000000000, 0.000000000000000000 ) ) ;
#234 = ORIENTED_EDGE ( 'NONE', *, *, #184, .F. ) ;
#235 =( LENGTH_UNIT ( ) NAMED_UNIT ( * ) SI_UNIT ( $, .METRE. ) );
#236 = SURFACE_STYLE_FILL_AREA ( #169 ) ;
#237 = AXIS2_PLACEMENT_3D ( 'NONE', #110, #90, #161 ) ;
#238 = DIMENSIONAL_EXPONENTS ( 1.000000000000000000, 0.000000000000000000, 0.000000000000000000, 0.000000000000000000, 0.000000000000000000, 0.000000000000000000, 0.000000000000000000 ) ;
#239 =( CONVERSION_BASED_UNIT ( 'INCH', #140 ) LENGTH_UNIT ( ) NAMED_UNIT ( #282 ) );
#240 = EDGE_CURVE ( 'NONE', #248, #230, #164, .T. ) ;
#241 = DIRECTION ( 'NONE',  ( 1.000000000000000000, 0.000000000000000000, 0.000000000000000000 ) ) ;
#242 = CIRCLE ( 'NONE', #201, 0.06249999999999992367 ) ;
#243 = SURFACE_STYLE_USAGE ( .BOTH. , #145 ) ;
#244 = ADVANCED_FACE ( 'NONE', ( #80 ), #101, .T. ) ;
#245 = DIRECTION ( 'NONE',  ( 1.000000000000000000, 4.364974079262391523E-17, 0.000000000000000000 ) ) ;
#246 = PRESENTATION_LAYER_ASSIGNMENT (  '', '', ( #91 ) ) ;
#247 =( GEOMETRIC_REPRESENTATION_CONTEXT ( 3 ) GLOBAL_UNCERTAINTY_ASSIGNED_CONTEXT ( ( #151 ) ) GLOBAL_UNIT_ASSIGNED_CONTEXT ( ( #171, #50, #122 ) ) REPRESENTATION_CONTEXT ( 'NONE', 'WORKASPACE' ) );
#248 = VERTEX_POINT ( 'NONE', #229 ) ;
#249 = DIRECTION ( 'NONE',  ( -1.232771808041434271E-16, 1.000000000000000000, -0.000000000000000000 ) ) ;
#250 = AXIS2_PLACEMENT_3D ( 'NONE', #128, #231, #33 ) ;
#251 =( LENGTH_UNIT ( ) NAMED_UNIT ( * ) SI_UNIT ( $, .METRE. ) );
#252 = ORIENTED_EDGE ( 'NONE', *, *, #112, .T. ) ;
#253 = EDGE_LOOP ( 'NONE', ( #234, #272, #179, #210 ) ) ;
#254 = EDGE_LOOP ( 'NONE', ( #53, #153 ) ) ;
#255 = PRODUCT_DEFINITION_FORMATION_WITH_SPECIFIED_SOURCE ( 'ANY', '', #257, .NOT_KNOWN. ) ;
#256 = VECTOR ( 'NONE', #61, 39.37007874015748143 ) ;
#257 = PRODUCT ( '83872', '83872', '', ( #26 ) ) ;
#258 = DIRECTION ( 'NONE',  ( 1.000000000000000000, 0.000000000000000000, 0.000000000000000000 ) ) ;
#259 = CIRCLE ( 'NONE', #147, 0.06249999999999975020 ) ;
#260 = DIMENSIONAL_EXPONENTS ( 1.000000000000000000, 0.000000000000000000, 0.000000000000000000, 0.000000000000000000, 0.000000000000000000, 0.000000000000000000, 0.000000000000000000 ) ;
#261 = CARTESIAN_POINT ( 'NONE',  ( 6.123233995736763571E-17, 1.500000000000000222, 0.000000000000000000 ) ) ;
#262 = ORIENTED_EDGE ( 'NONE', *, *, #217, .T. ) ;
#263 = ADVANCED_BREP_SHAPE_REPRESENTATION ( '83872', ( #42, #28, #4 ), #54 ) ;
#264 = LINE ( 'NONE', #1, #295 ) ;
#265 =( NAMED_UNIT ( * ) SI_UNIT ( $, .STERADIAN. ) SOLID_ANGLE_UNIT ( ) );
#266 = ORIENTED_EDGE ( 'NONE', *, *, #59, .T. ) ;
#267 = VECTOR ( 'NONE', #64, 39.37007874015748854 ) ;
#268 = SHAPE_DEFINITION_REPRESENTATION ( #166, #263 ) ;
#269 = CARTESIAN_POINT ( 'NONE',  ( 6.123233995736763571E-17, 1.500000000000000222, 0.000000000000000000 ) ) ;
#270 = LENGTH_MEASURE_WITH_UNIT ( LENGTH_MEASURE( 0.02539999999999999897 ), #251 );
#271 = MECHANICAL_DESIGN_GEOMETRIC_PRESENTATION_REPRESENTATION (  '', ( #144 ), #170 ) ;
#272 = ORIENTED_EDGE ( 'NONE', *, *, #118, .F. ) ;
#273 = APPLICATION_CONTEXT ( 'automotive_design' ) ;
#274 = CLOSED_SHELL ( 'NONE', ( #244, #200, #120, #65 ) ) ;
#275 =( GEOMETRIC_REPRESENTATION_CONTEXT ( 3 ) GLOBAL_UNCERTAINTY_ASSIGNED_CONTEXT ( ( #165 ) ) GLOBAL_UNIT_ASSIGNED_CONTEXT ( ( #139, #300, #308 ) ) REPRESENTATION_CONTEXT ( 'NONE', 'WORKASPACE' ) );
#276 = LENGTH_MEASURE_WITH_UNIT ( LENGTH_MEASURE( 0.02539999999999999897 ), #235 );
#277 = DIRECTION ( 'NONE',  ( -1.000000000000000000, -1.365923996832137033E-16, 0.000000000000000000 ) ) ;
#278 = EDGE_LOOP ( 'NONE', ( #16, #19 ) ) ;
#279 = STYLED_ITEM ( 'NONE', ( #215 ), #42 ) ;
#280 = CARTESIAN_POINT ( 'NONE',  ( -0.06249999999999986122, 1.500000000000000222, 0.000000000000000000 ) ) ;
#281 = LINE ( 'NONE', #63, #123 ) ;
#282 = DIMENSIONAL_EXPONENTS ( 1.000000000000000000, 0.000000000000000000, 0.000000000000000000, 0.000000000000000000, 0.000000000000000000, 0.000000000000000000, 0.000000000000000000 ) ;
#283 =( NAMED_UNIT ( * ) SI_UNIT ( $, .STERADIAN. ) SOLID_ANGLE_UNIT ( ) );
#284 = SURFACE_SIDE_STYLE ('',( #124 ) ) ;
#285 = AXIS2_PLACEMENT_3D ( 'NONE', #269, #107, #14 ) ;
#286 = DIRECTION ( 'NONE',  ( -4.364974079262391523E-17, 1.000000000000000000, 0.000000000000000000 ) ) ;
#287 = PRESENTATION_STYLE_ASSIGNMENT (( #243 ) ) ;
#288 = ORIENTED_EDGE ( 'NONE', *, *, #163, .T. ) ;
#289 = SURFACE_STYLE_USAGE ( .BOTH. , #52 ) ;
#290 = AXIS2_PLACEMENT_3D ( 'NONE', #167, #220, #46 ) ;
#291 = DIRECTION ( 'NONE',  ( 0.7071067811865486830, 0.7071067811865462405, 8.659560562354947649E-17 ) ) ;
#292 = EDGE_CURVE ( 'NONE', #230, #232, #114, .T. ) ;
#293 = CARTESIAN_POINT ( 'NONE',  ( -0.06249999999999999306, 0.04249999999999984346, 0.000000000000000000 ) ) ;
#294 = FILL_AREA_STYLE ('',( #205 ) ) ;
#295 = VECTOR ( 'NONE', #291, 39.37007874015748854 ) ;
#296 = SURFACE_SIDE_STYLE ('',( #186 ) ) ;
#297 = PLANE ( 'NONE',  #111 ) ;
#298 = DIRECTION ( 'NONE',  ( 4.364974079262391523E-17, -1.000000000000000000, -0.000000000000000000 ) ) ;
#299 = ORIENTED_EDGE ( 'NONE', *, *, #240, .F. ) ;
#300 =( NAMED_UNIT ( * ) PLANE_ANGLE_UNIT ( ) SI_UNIT ( $, .RADIAN. ) );
#301 = STYLED_ITEM ( 'NONE', ( #287 ), #188 ) ;
#302 = SURFACE_SIDE_STYLE ('',( #236 ) ) ;
#303 = CARTESIAN_POINT ( 'NONE',  ( -1.855113983686509741E-18, 0.04249999999999984346, 0.000000000000000000 ) ) ;
#304 = CYLINDRICAL_SURFACE ( 'NONE', #156, 0.06249999999999984041 ) ;
#305 = DIRECTION ( 'NONE',  ( -4.364974079262391523E-17, 1.000000000000000000, 0.000000000000000000 ) ) ;
#306 = AXIS2_PLACEMENT_3D ( 'NONE', #55, #249, #126 ) ;
#307 =( LENGTH_UNIT ( ) NAMED_UNIT ( * ) SI_UNIT ( $, .METRE. ) );
#308 =( NAMED_UNIT ( * ) SI_UNIT ( $, .STERADIAN. ) SOLID_ANGLE_UNIT ( ) );
#309 = FACE_OUTER_BOUND ( 'NONE', #135, .T. ) ;
ENDSEC;
END-ISO-10303-21;
