ISO-10303-21;
HEADER;
FILE_DESCRIPTION (( 'STEP AP214' ),
    '1' );
FILE_NAME ('59594.STEP',
    '2023-07-24T15:13:41',
    ( '' ),
    ( '' ),
    'SwSTEP 2.0',
    'SolidWorks 2023',
    '' );
FILE_SCHEMA (( 'AUTOMOTIVE_DESIGN' ));
ENDSEC;

DATA;
#1 = ORIENTED_EDGE ( 'NONE', *, *, #186, .T. ) ;
#2 = CARTESIAN_POINT ( 'NONE',  ( 2.999999999999996891, 63.00000000000000000, 3.673940397442052472E-16 ) ) ;
#3 = STYLED_ITEM ( 'NONE', ( #127 ), #211 ) ;
#4 = DIRECTION ( 'NONE',  ( 1.000000000000000000, 0.000000000000000000, -1.224646799147353207E-16 ) ) ;
#5 = EDGE_CURVE ( 'NONE', #50, #10, #112, .T. ) ;
#6 = DIRECTION ( 'NONE',  ( 0.000000000000000000, 0.000000000000000000, -1.000000000000000000 ) ) ;
#7 = VERTEX_POINT ( 'NONE', #368 ) ;
#8 = PRESENTATION_STYLE_ASSIGNMENT (( #266 ) ) ;
#9 = DIRECTION ( 'NONE',  ( 0.000000000000000000, 0.000000000000000000, -1.000000000000000000 ) ) ;
#10 = VERTEX_POINT ( 'NONE', #307 ) ;
#11 = PRODUCT_DEFINITION_CONTEXT ( 'detailed design', #91, 'design' ) ;
#12 = FILL_AREA_STYLE_COLOUR ( '', #255 ) ;
#13 = DIRECTION ( 'NONE',  ( 0.000000000000000000, 0.000000000000000000, 1.000000000000000000 ) ) ;
#14 = CIRCLE ( 'NONE', #19, 3.000000000000000000 ) ;
#15 = DIRECTION ( 'NONE',  ( 0.000000000000000000, 0.000000000000000000, -1.000000000000000000 ) ) ;
#16 = PRESENTATION_STYLE_ASSIGNMENT (( #270 ) ) ;
#17 = SURFACE_STYLE_FILL_AREA ( #271 ) ;
#18 =( NAMED_UNIT ( * ) PLANE_ANGLE_UNIT ( ) SI_UNIT ( $, .RADIAN. ) );
#19 = AXIS2_PLACEMENT_3D ( 'NONE', #119, #108, #15 ) ;
#20 = AXIS2_PLACEMENT_3D ( 'NONE', #257, #31, #92 ) ;
#21 = UNCERTAINTY_MEASURE_WITH_UNIT (LENGTH_MEASURE( 1.000000000000000082E-05 ), #33, 'distance_accuracy_value', 'NONE');
#22 = MECHANICAL_DESIGN_GEOMETRIC_PRESENTATION_REPRESENTATION (  '', ( #238 ), #220 ) ;
#23 = DIRECTION ( 'NONE',  ( -1.000000000000000000, 0.000000000000000000, 0.000000000000000000 ) ) ;
#24 = PRESENTATION_STYLE_ASSIGNMENT (( #277 ) ) ;
#25 =( LENGTH_UNIT ( ) NAMED_UNIT ( * ) SI_UNIT ( .MILLI., .METRE. ) );
#26 = VERTEX_POINT ( 'NONE', #315 ) ;
#27 =( NAMED_UNIT ( * ) SI_UNIT ( $, .STERADIAN. ) SOLID_ANGLE_UNIT ( ) );
#28 = EDGE_CURVE ( 'NONE', #26, #234, #135, .T. ) ;
#29 = AXIS2_PLACEMENT_3D ( 'NONE', #331, #4, #286 ) ;
#30 = AXIS2_PLACEMENT_3D ( 'NONE', #35, #121, #147 ) ;
#31 = DIRECTION ( 'NONE',  ( -1.203932746194552959E-16, 1.000000000000000000, -0.000000000000000000 ) ) ;
#32 =( NAMED_UNIT ( * ) PLANE_ANGLE_UNIT ( ) SI_UNIT ( $, .RADIAN. ) );
#33 =( LENGTH_UNIT ( ) NAMED_UNIT ( * ) SI_UNIT ( .MILLI., .METRE. ) );
#34 = DIRECTION ( 'NONE',  ( -0.000000000000000000, -1.000000000000000000, -0.000000000000000000 ) ) ;
#35 = CARTESIAN_POINT ( 'NONE',  ( 9.324138683375338132E-15, 12.00000000000000000, 0.000000000000000000 ) ) ;
#36 = PLANE ( 'NONE',  #137 ) ;
#37 = EDGE_LOOP ( 'NONE', ( #1, #366, #74, #265 ) ) ;
#38 = CIRCLE ( 'NONE', #247, 2.999999999999996891 ) ;
#39 = AXIS2_PLACEMENT_3D ( 'NONE', #335, #47, #203 ) ;
#40 = CARTESIAN_POINT ( 'NONE',  ( -2.999999999999981792, 11.99999999999999645, 0.000000000000000000 ) ) ;
#41 =( NAMED_UNIT ( * ) SI_UNIT ( $, .STERADIAN. ) SOLID_ANGLE_UNIT ( ) );
#42 = EDGE_LOOP ( 'NONE', ( #260, #303 ) ) ;
#43 = ORIENTED_EDGE ( 'NONE', *, *, #186, .F. ) ;
#44 = DIRECTION ( 'NONE',  ( -0.000000000000000000, -1.000000000000000000, -0.000000000000000000 ) ) ;
#45 =( LENGTH_UNIT ( ) NAMED_UNIT ( * ) SI_UNIT ( .MILLI., .METRE. ) );
#46 = DIRECTION ( 'NONE',  ( -0.000000000000000000, -1.000000000000000000, -0.000000000000000000 ) ) ;
#47 = DIRECTION ( 'NONE',  ( -0.000000000000000000, -1.000000000000000000, -0.000000000000000000 ) ) ;
#48 = SURFACE_STYLE_USAGE ( .BOTH. , #301 ) ;
#49 = DIRECTION ( 'NONE',  ( 1.000000000000000000, 1.203932746194552959E-16, 0.000000000000000000 ) ) ;
#50 = VERTEX_POINT ( 'NONE', #309 ) ;
#51 = SURFACE_SIDE_STYLE ('',( #281 ) ) ;
#52 = TOROIDAL_SURFACE ( 'NONE', #308, 2.000000000000000000, 1.000000000000000000 ) ;
#53 = DIRECTION ( 'NONE',  ( 0.000000000000000000, 0.000000000000000000, -1.000000000000000000 ) ) ;
#54 =( GEOMETRIC_REPRESENTATION_CONTEXT ( 3 ) GLOBAL_UNCERTAINTY_ASSIGNED_CONTEXT ( ( #114 ) ) GLOBAL_UNIT_ASSIGNED_CONTEXT ( ( #73, #295, #104 ) ) REPRESENTATION_CONTEXT ( 'NONE', 'WORKASPACE' ) );
#55 = MECHANICAL_DESIGN_GEOMETRIC_PRESENTATION_REPRESENTATION (  '', ( #349 ), #153 ) ;
#56 = SURFACE_SIDE_STYLE ('',( #190 ) ) ;
#57 = CARTESIAN_POINT ( 'NONE',  ( -2.999999999999991118, 63.00000000000000000, 0.000000000000000000 ) ) ;
#58 = ADVANCED_FACE ( 'NONE', ( #251 ), #52, .T. ) ;
#59 =( NAMED_UNIT ( * ) SI_UNIT ( $, .STERADIAN. ) SOLID_ANGLE_UNIT ( ) );
#60 = CIRCLE ( 'NONE', #29, 1.000000000000000000 ) ;
#61 =( NAMED_UNIT ( * ) PLANE_ANGLE_UNIT ( ) SI_UNIT ( $, .RADIAN. ) );
#62 = PLANE ( 'NONE',  #318 ) ;
#63 = ADVANCED_FACE ( 'NONE', ( #140 ), #344, .T. ) ;
#64 =( NAMED_UNIT ( * ) PLANE_ANGLE_UNIT ( ) SI_UNIT ( $, .RADIAN. ) );
#65 = ORIENTED_EDGE ( 'NONE', *, *, #278, .T. ) ;
#66 = ORIENTED_EDGE ( 'NONE', *, *, #338, .T. ) ;
#67 = DIRECTION ( 'NONE',  ( -1.203932746194552959E-16, 1.000000000000000000, -0.000000000000000000 ) ) ;
#68 = CARTESIAN_POINT ( 'NONE',  ( 0.000000000000000000, 0.000000000000000000, 0.000000000000000000 ) ) ;
#69 = CARTESIAN_POINT ( 'NONE',  ( 0.000000000000000000, 0.000000000000000000, 0.000000000000000000 ) ) ;
#70 = VECTOR ( 'NONE', #258, 1000.000000000000000 ) ;
#71 = CIRCLE ( 'NONE', #39, 2.000000000000000000 ) ;
#72 = DIRECTION ( 'NONE',  ( -1.000000000000000000, 0.000000000000000000, 0.000000000000000000 ) ) ;
#73 =( LENGTH_UNIT ( ) NAMED_UNIT ( * ) SI_UNIT ( .MILLI., .METRE. ) );
#74 = ORIENTED_EDGE ( 'NONE', *, *, #359, .F. ) ;
#75 = DIRECTION ( 'NONE',  ( 0.000000000000000000, 0.000000000000000000, -1.000000000000000000 ) ) ;
#76 = FILL_AREA_STYLE ('',( #125 ) ) ;
#77 = AXIS2_PLACEMENT_3D ( 'NONE', #322, #224, #351 ) ;
#78 = CARTESIAN_POINT ( 'NONE',  ( 3.184081677783117402E-15, 63.00000000000000000, 0.000000000000000000 ) ) ;
#79 = VERTEX_POINT ( 'NONE', #324 ) ;
#80 = PRESENTATION_LAYER_ASSIGNMENT (  '', '', ( #238 ) ) ;
#81 = COLOUR_RGB ( '',1.000000000000000000, 0.000000000000000000, 0.000000000000000000 ) ;
#82 = EDGE_CURVE ( 'NONE', #79, #50, #138, .T. ) ;
#83 = MECHANICAL_DESIGN_GEOMETRIC_PRESENTATION_REPRESENTATION (  '', ( #298 ), #205 ) ;
#84 = UNCERTAINTY_MEASURE_WITH_UNIT (LENGTH_MEASURE( 1.000000000000000082E-05 ), #25, 'distance_accuracy_value', 'NONE');
#85 = AXIS2_PLACEMENT_3D ( 'NONE', #225, #96, #53 ) ;
#86 =( LENGTH_UNIT ( ) NAMED_UNIT ( * ) SI_UNIT ( .MILLI., .METRE. ) );
#87 = ORIENTED_EDGE ( 'NONE', *, *, #82, .T. ) ;
#88 = LINE ( 'NONE', #57, #283 ) ;
#89 = ORIENTED_EDGE ( 'NONE', *, *, #156, .F. ) ;
#90 = DIRECTION ( 'NONE',  ( -0.000000000000000000, -1.000000000000000000, -0.000000000000000000 ) ) ;
#91 = APPLICATION_CONTEXT ( 'automotive_design' ) ;
#92 = DIRECTION ( 'NONE',  ( -1.000000000000000000, 0.000000000000000000, 0.000000000000000000 ) ) ;
#93 = ADVANCED_FACE ( 'NONE', ( #230 ), #62, .F. ) ;
#94 = DIRECTION ( 'NONE',  ( 0.000000000000000000, 0.000000000000000000, -1.000000000000000000 ) ) ;
#95 = AXIS2_PLACEMENT_3D ( 'NONE', #78, #245, #150 ) ;
#96 = DIRECTION ( 'NONE',  ( -0.000000000000000000, -1.000000000000000000, -0.000000000000000000 ) ) ;
#97 = UNCERTAINTY_MEASURE_WITH_UNIT (LENGTH_MEASURE( 1.000000000000000082E-05 ), #299, 'distance_accuracy_value', 'NONE');
#98 =( NAMED_UNIT ( * ) SI_UNIT ( $, .STERADIAN. ) SOLID_ANGLE_UNIT ( ) );
#99 = COLOUR_RGB ( '',1.000000000000000000, 0.000000000000000000, 0.000000000000000000 ) ;
#100 = PRODUCT_CONTEXT ( 'NONE', #325, 'mechanical' ) ;
#101 = ORIENTED_EDGE ( 'NONE', *, *, #296, .T. ) ;
#102 =( GEOMETRIC_REPRESENTATION_CONTEXT ( 3 ) GLOBAL_UNCERTAINTY_ASSIGNED_CONTEXT ( ( #249 ) ) GLOBAL_UNIT_ASSIGNED_CONTEXT ( ( #367, #32, #229 ) ) REPRESENTATION_CONTEXT ( 'NONE', 'WORKASPACE' ) );
#103 = CIRCLE ( 'NONE', #77, 2.000000000000000000 ) ;
#104 =( NAMED_UNIT ( * ) SI_UNIT ( $, .STERADIAN. ) SOLID_ANGLE_UNIT ( ) );
#105 = MANIFOLD_SOLID_BREP ( 'Revolve - Cutting Edge', #187 ) ;
#106 = ORIENTED_EDGE ( 'NONE', *, *, #327, .T. ) ;
#107 = CARTESIAN_POINT ( 'NONE',  ( 0.000000000000000000, 0.000000000000000000, 0.000000000000000000 ) ) ;
#108 = DIRECTION ( 'NONE',  ( -0.000000000000000000, -1.000000000000000000, -0.000000000000000000 ) ) ;
#109 =( NAMED_UNIT ( * ) PLANE_ANGLE_UNIT ( ) SI_UNIT ( $, .RADIAN. ) );
#110 = SURFACE_SIDE_STYLE ('',( #212 ) ) ;
#111 = PRESENTATION_LAYER_ASSIGNMENT (  '', '', ( #349 ) ) ;
#112 = LINE ( 'NONE', #312, #70 ) ;
#113 = PRESENTATION_LAYER_ASSIGNMENT (  '', '', ( #133 ) ) ;
#114 = UNCERTAINTY_MEASURE_WITH_UNIT (LENGTH_MEASURE( 1.000000000000000082E-05 ), #73, 'distance_accuracy_value', 'NONE');
#115 = CARTESIAN_POINT ( 'NONE',  ( 0.000000000000000000, 1.000000000000000000, -2.000000000000000000 ) ) ;
#116 = SURFACE_STYLE_USAGE ( .BOTH. , #51 ) ;
#117 =( GEOMETRIC_REPRESENTATION_CONTEXT ( 3 ) GLOBAL_UNCERTAINTY_ASSIGNED_CONTEXT ( ( #210 ) ) GLOBAL_UNIT_ASSIGNED_CONTEXT ( ( #158, #326, #183 ) ) REPRESENTATION_CONTEXT ( 'NONE', 'WORKASPACE' ) );
#118 = VERTEX_POINT ( 'NONE', #242 ) ;
#119 = CARTESIAN_POINT ( 'NONE',  ( 0.000000000000000000, 1.000000000000000000, 0.000000000000000000 ) ) ;
#120 = FILL_AREA_STYLE_COLOUR ( '', #263 ) ;
#121 = DIRECTION ( 'NONE',  ( -1.203932746194552959E-16, 1.000000000000000000, 0.000000000000000000 ) ) ;
#122 = COLOUR_RGB ( '',1.000000000000000000, 0.000000000000000000, 0.000000000000000000 ) ;
#123 = ORIENTED_EDGE ( 'NONE', *, *, #278, .F. ) ;
#124 = CARTESIAN_POINT ( 'NONE',  ( -2.999999999999993783, 63.00000000000000000, 0.000000000000000000 ) ) ;
#125 = FILL_AREA_STYLE_COLOUR ( '', #268 ) ;
#126 = ORIENTED_EDGE ( 'NONE', *, *, #160, .T. ) ;
#127 = PRESENTATION_STYLE_ASSIGNMENT (( #128 ) ) ;
#128 = SURFACE_STYLE_USAGE ( .BOTH. , #131 ) ;
#129 = PRESENTATION_LAYER_ASSIGNMENT (  '', '', ( #310 ) ) ;
#130 = PRODUCT_DEFINITION_FORMATION_WITH_SPECIFIED_SOURCE ( 'ANY', '', #337, .NOT_KNOWN. ) ;
#131 = SURFACE_SIDE_STYLE ('',( #237 ) ) ;
#132 = EDGE_CURVE ( 'NONE', #79, #26, #177, .T. ) ;
#133 = STYLED_ITEM ( 'NONE', ( #24 ), #63 ) ;
#134 = DIRECTION ( 'NONE',  ( -1.000000000000000000, 0.000000000000000000, 0.000000000000000000 ) ) ;
#135 = CIRCLE ( 'NONE', #332, 1.000000000000000000 ) ;
#136 = MECHANICAL_DESIGN_GEOMETRIC_PRESENTATION_REPRESENTATION (  '', ( #310 ), #102 ) ;
#137 = AXIS2_PLACEMENT_3D ( 'NONE', #185, #141, #168 ) ;
#138 = CIRCLE ( 'NONE', #143, 3.000000000000000000 ) ;
#139 = AXIS2_PLACEMENT_3D ( 'NONE', #235, #13, #355 ) ;
#140 = FACE_OUTER_BOUND ( 'NONE', #193, .T. ) ;
#141 = DIRECTION ( 'NONE',  ( 0.000000000000000000, 1.000000000000000000, 0.000000000000000000 ) ) ;
#142 = CARTESIAN_POINT ( 'NONE',  ( 9.324138683375338132E-15, 11.99999999999999645, 0.000000000000000000 ) ) ;
#143 = AXIS2_PLACEMENT_3D ( 'NONE', #178, #34, #94 ) ;
#144 = ORIENTED_EDGE ( 'NONE', *, *, #82, .F. ) ;
#145 = DIRECTION ( 'NONE',  ( 0.000000000000000000, 0.000000000000000000, 1.000000000000000000 ) ) ;
#146 = ADVANCED_FACE ( 'NONE', ( #152 ), #336, .T. ) ;
#147 = DIRECTION ( 'NONE',  ( -1.000000000000000000, -1.203932746194552959E-16, 0.000000000000000000 ) ) ;
#148 = ORIENTED_EDGE ( 'NONE', *, *, #156, .T. ) ;
#149 = ORIENTED_EDGE ( 'NONE', *, *, #327, .F. ) ;
#150 = DIRECTION ( 'NONE',  ( -1.000000000000000000, 0.000000000000000000, 0.000000000000000000 ) ) ;
#151 = DIRECTION ( 'NONE',  ( -1.203932746194552959E-16, 1.000000000000000000, -0.000000000000000000 ) ) ;
#152 = FACE_OUTER_BOUND ( 'NONE', #276, .T. ) ;
#153 =( GEOMETRIC_REPRESENTATION_CONTEXT ( 3 ) GLOBAL_UNCERTAINTY_ASSIGNED_CONTEXT ( ( #188 ) ) GLOBAL_UNIT_ASSIGNED_CONTEXT ( ( #370, #61, #319 ) ) REPRESENTATION_CONTEXT ( 'NONE', 'WORKASPACE' ) );
#154 = FILL_AREA_STYLE ('',( #228 ) ) ;
#155 = FILL_AREA_STYLE_COLOUR ( '', #369 ) ;
#156 = EDGE_CURVE ( 'NONE', #244, #118, #38, .T. ) ;
#157 = SURFACE_SIDE_STYLE ('',( #17 ) ) ;
#158 =( LENGTH_UNIT ( ) NAMED_UNIT ( * ) SI_UNIT ( .MILLI., .METRE. ) );
#159 = MECHANICAL_DESIGN_GEOMETRIC_PRESENTATION_REPRESENTATION (  '', ( #206 ), #167 ) ;
#160 = EDGE_CURVE ( 'NONE', #7, #118, #360, .T. ) ;
#161 = DIRECTION ( 'NONE',  ( 0.000000000000000000, 0.000000000000000000, -1.000000000000000000 ) ) ;
#162 = ORIENTED_EDGE ( 'NONE', *, *, #198, .T. ) ;
#163 =( NAMED_UNIT ( * ) SI_UNIT ( $, .STERADIAN. ) SOLID_ANGLE_UNIT ( ) );
#164 = TOROIDAL_SURFACE ( 'NONE', #85, 2.000000000000000000, 1.000000000000000000 ) ;
#165 = AXIS2_PLACEMENT_3D ( 'NONE', #239, #200, #72 ) ;
#166 = ADVANCED_BREP_SHAPE_REPRESENTATION ( '59594', ( #105, #211, #139 ), #117 ) ;
#167 =( GEOMETRIC_REPRESENTATION_CONTEXT ( 3 ) GLOBAL_UNCERTAINTY_ASSIGNED_CONTEXT ( ( #21 ) ) GLOBAL_UNIT_ASSIGNED_CONTEXT ( ( #33, #18, #59 ) ) REPRESENTATION_CONTEXT ( 'NONE', 'WORKASPACE' ) );
#168 = DIRECTION ( 'NONE',  ( 0.000000000000000000, -0.000000000000000000, 1.000000000000000000 ) ) ;
#169 = SURFACE_SIDE_STYLE ('',( #279 ) ) ;
#170 = FILL_AREA_STYLE ('',( #215 ) ) ;
#171 = AXIS2_PLACEMENT_3D ( 'NONE', #68, #241, #9 ) ;
#172 = DIRECTION ( 'NONE',  ( -1.203932746194552959E-16, 1.000000000000000000, -0.000000000000000000 ) ) ;
#173 = ORIENTED_EDGE ( 'NONE', *, *, #5, .T. ) ;
#174 = CARTESIAN_POINT ( 'NONE',  ( 0.000000000000000000, 0.000000000000000000, -3.000000000000000000 ) ) ;
#175 = CARTESIAN_POINT ( 'NONE',  ( 0.000000000000000000, 0.000000000000000000, -2.000000000000000000 ) ) ;
#176 = EDGE_LOOP ( 'NONE', ( #87, #173, #43, #284 ) ) ;
#177 = LINE ( 'NONE', #174, #329 ) ;
#178 = CARTESIAN_POINT ( 'NONE',  ( 0.000000000000000000, 12.00000000000000000, 0.000000000000000000 ) ) ;
#179 = PRESENTATION_LAYER_ASSIGNMENT (  '', '', ( #206 ) ) ;
#180 = APPLICATION_PROTOCOL_DEFINITION ( 'draft international standard', 'automotive_design', 1998, #91 ) ;
#181 = PRESENTATION_STYLE_ASSIGNMENT (( #48 ) ) ;
#182 = CARTESIAN_POINT ( 'NONE',  ( 0.000000000000000000, 12.00000000000000000, 0.000000000000000000 ) ) ;
#183 =( NAMED_UNIT ( * ) SI_UNIT ( $, .STERADIAN. ) SOLID_ANGLE_UNIT ( ) );
#184 = DIRECTION ( 'NONE',  ( -1.203932746194552959E-16, 1.000000000000000000, -0.000000000000000000 ) ) ;
#185 = CARTESIAN_POINT ( 'NONE',  ( 0.000000000000000000, 12.00000000000000000, 0.000000000000000000 ) ) ;
#186 = EDGE_CURVE ( 'NONE', #26, #10, #364, .T. ) ;
#187 = CLOSED_SHELL ( 'NONE', ( #353, #58, #209, #194, #63, #222 ) ) ;
#188 = UNCERTAINTY_MEASURE_WITH_UNIT (LENGTH_MEASURE( 1.000000000000000082E-05 ), #370, 'distance_accuracy_value', 'NONE');
#189 = FILL_AREA_STYLE_COLOUR ( '', #243 ) ;
#190 = SURFACE_STYLE_FILL_AREA ( #217 ) ;
#191 = AXIS2_PLACEMENT_3D ( 'NONE', #107, #46, #75 ) ;
#192 = FACE_OUTER_BOUND ( 'NONE', #297, .T. ) ;
#193 = EDGE_LOOP ( 'NONE', ( #342, #292, #314, #354 ) ) ;
#194 = ADVANCED_FACE ( 'NONE', ( #195 ), #164, .T. ) ;
#195 = FACE_OUTER_BOUND ( 'NONE', #232, .T. ) ;
#196 = AXIS2_PLACEMENT_3D ( 'NONE', #264, #90, #6 ) ;
#197 = DIRECTION ( 'NONE',  ( -0.000000000000000000, -1.000000000000000000, -0.000000000000000000 ) ) ;
#198 = EDGE_CURVE ( 'NONE', #10, #26, #14, .T. ) ;
#199 = SURFACE_STYLE_FILL_AREA ( #323 ) ;
#200 = DIRECTION ( 'NONE',  ( -1.203932746194552959E-16, 1.000000000000000000, -0.000000000000000000 ) ) ;
#201 = PRESENTATION_LAYER_ASSIGNMENT (  '', '', ( #302 ) ) ;
#202 = SURFACE_SIDE_STYLE ('',( #199 ) ) ;
#203 = DIRECTION ( 'NONE',  ( 0.000000000000000000, 0.000000000000000000, -1.000000000000000000 ) ) ;
#204 =( NAMED_UNIT ( * ) PLANE_ANGLE_UNIT ( ) SI_UNIT ( $, .RADIAN. ) );
#205 =( GEOMETRIC_REPRESENTATION_CONTEXT ( 3 ) GLOBAL_UNCERTAINTY_ASSIGNED_CONTEXT ( ( #84 ) ) GLOBAL_UNIT_ASSIGNED_CONTEXT ( ( #25, #253, #27 ) ) REPRESENTATION_CONTEXT ( 'NONE', 'WORKASPACE' ) );
#206 = STYLED_ITEM ( 'NONE', ( #227 ), #105 ) ;
#207 = AXIS2_PLACEMENT_3D ( 'NONE', #142, #151, #259 ) ;
#208 = PRESENTATION_STYLE_ASSIGNMENT (( #216 ) ) ;
#209 = ADVANCED_FACE ( 'NONE', ( #328 ), #267, .T. ) ;
#210 = UNCERTAINTY_MEASURE_WITH_UNIT (LENGTH_MEASURE( 1.000000000000000082E-05 ), #158, 'distance_accuracy_value', 'NONE');
#211 = MANIFOLD_SOLID_BREP ( 'Revolve - Tool Body (Straight Shanked)', #213 ) ;
#212 = SURFACE_STYLE_FILL_AREA ( #352 ) ;
#213 = CLOSED_SHELL ( 'NONE', ( #365, #250, #146, #93 ) ) ;
#214 = EDGE_CURVE ( 'NONE', #10, #248, #60, .T. ) ;
#215 = FILL_AREA_STYLE_COLOUR ( '', #99 ) ;
#216 = SURFACE_STYLE_USAGE ( .BOTH. , #110 ) ;
#217 = FILL_AREA_STYLE ('',( #189 ) ) ;
#218 = DIRECTION ( 'NONE',  ( -0.000000000000000000, -1.000000000000000000, -0.000000000000000000 ) ) ;
#219 =( GEOMETRIC_REPRESENTATION_CONTEXT ( 3 ) GLOBAL_UNCERTAINTY_ASSIGNED_CONTEXT ( ( #294 ) ) GLOBAL_UNIT_ASSIGNED_CONTEXT ( ( #86, #109, #163 ) ) REPRESENTATION_CONTEXT ( 'NONE', 'WORKASPACE' ) );
#220 =( GEOMETRIC_REPRESENTATION_CONTEXT ( 3 ) GLOBAL_UNCERTAINTY_ASSIGNED_CONTEXT ( ( #97 ) ) GLOBAL_UNIT_ASSIGNED_CONTEXT ( ( #299, #64, #98 ) ) REPRESENTATION_CONTEXT ( 'NONE', 'WORKASPACE' ) );
#221 = PRESENTATION_STYLE_ASSIGNMENT (( #116 ) ) ;
#222 = ADVANCED_FACE ( 'NONE', ( #333 ), #36, .T. ) ;
#223 = DIRECTION ( 'NONE',  ( -1.203932746194552959E-16, 1.000000000000000000, -0.000000000000000000 ) ) ;
#224 = DIRECTION ( 'NONE',  ( -0.000000000000000000, -1.000000000000000000, -0.000000000000000000 ) ) ;
#225 = CARTESIAN_POINT ( 'NONE',  ( 0.000000000000000000, 1.000000000000000000, 0.000000000000000000 ) ) ;
#226 = EDGE_LOOP ( 'NONE', ( #144, #288 ) ) ;
#227 = PRESENTATION_STYLE_ASSIGNMENT (( #291 ) ) ;
#228 = FILL_AREA_STYLE_COLOUR ( '', #81 ) ;
#229 =( NAMED_UNIT ( * ) SI_UNIT ( $, .STERADIAN. ) SOLID_ANGLE_UNIT ( ) );
#230 = FACE_OUTER_BOUND ( 'NONE', #280, .T. ) ;
#231 = SURFACE_STYLE_FILL_AREA ( #76 ) ;
#232 = EDGE_LOOP ( 'NONE', ( #320, #162, #356, #347 ) ) ;
#233 = FILL_AREA_STYLE_COLOUR ( '', #122 ) ;
#234 = VERTEX_POINT ( 'NONE', #175 ) ;
#235 = CARTESIAN_POINT ( 'NONE',  ( 0.000000000000000000, 0.000000000000000000, 0.000000000000000000 ) ) ;
#236 = FILL_AREA_STYLE ('',( #12 ) ) ;
#237 = SURFACE_STYLE_FILL_AREA ( #236 ) ;
#238 = STYLED_ITEM ( 'NONE', ( #181 ), #222 ) ;
#239 = CARTESIAN_POINT ( 'NONE',  ( 3.184081677783117402E-15, 63.00000000000000000, 0.000000000000000000 ) ) ;
#240 = FACE_OUTER_BOUND ( 'NONE', #358, .T. ) ;
#241 = DIRECTION ( 'NONE',  ( 0.000000000000000000, -1.000000000000000000, -0.000000000000000000 ) ) ;
#242 = CARTESIAN_POINT ( 'NONE',  ( 3.000000000000000444, 63.00000000000000000, 3.673940397442054938E-16 ) ) ;
#243 = COLOUR_RGB ( '',1.000000000000000000, 0.000000000000000000, 0.000000000000000000 ) ;
#244 = VERTEX_POINT ( 'NONE', #124 ) ;
#245 = DIRECTION ( 'NONE',  ( -1.203932746194552959E-16, 1.000000000000000000, -0.000000000000000000 ) ) ;
#246 = EDGE_CURVE ( 'NONE', #248, #234, #103, .T. ) ;
#247 = AXIS2_PLACEMENT_3D ( 'NONE', #261, #184, #134 ) ;
#248 = VERTEX_POINT ( 'NONE', #313 ) ;
#249 = UNCERTAINTY_MEASURE_WITH_UNIT (LENGTH_MEASURE( 1.000000000000000082E-05 ), #367, 'distance_accuracy_value', 'NONE');
#250 = ADVANCED_FACE ( 'NONE', ( #192 ), #316, .F. ) ;
#251 = FACE_OUTER_BOUND ( 'NONE', #37, .T. ) ;
#252 = UNCERTAINTY_MEASURE_WITH_UNIT (LENGTH_MEASURE( 1.000000000000000082E-05 ), #45, 'distance_accuracy_value', 'NONE');
#253 =( NAMED_UNIT ( * ) PLANE_ANGLE_UNIT ( ) SI_UNIT ( $, .RADIAN. ) );
#254 = DIRECTION ( 'NONE',  ( 0.000000000000000000, 0.000000000000000000, -1.000000000000000000 ) ) ;
#255 = COLOUR_RGB ( '',0.7921568627450980005, 0.8196078431372548767, 0.9333333333333333481 ) ;
#256 = CIRCLE ( 'NONE', #207, 2.999999999999991562 ) ;
#257 = CARTESIAN_POINT ( 'NONE',  ( 9.324138683375338132E-15, 11.99999999999999645, 0.000000000000000000 ) ) ;
#258 = DIRECTION ( 'NONE',  ( -0.000000000000000000, -1.000000000000000000, -0.000000000000000000 ) ) ;
#259 = DIRECTION ( 'NONE',  ( -1.000000000000000000, 0.000000000000000000, 0.000000000000000000 ) ) ;
#260 = ORIENTED_EDGE ( 'NONE', *, *, #359, .T. ) ;
#261 = CARTESIAN_POINT ( 'NONE',  ( 3.184081677783117402E-15, 63.00000000000000000, 0.000000000000000000 ) ) ;
#262 = CYLINDRICAL_SURFACE ( 'NONE', #191, 3.000000000000000000 ) ;
#263 = COLOUR_RGB ( '',0.7921568627450980005, 0.8196078431372548767, 0.9333333333333333481 ) ;
#264 = CARTESIAN_POINT ( 'NONE',  ( 0.000000000000000000, 1.000000000000000000, 0.000000000000000000 ) ) ;
#265 = ORIENTED_EDGE ( 'NONE', *, *, #28, .F. ) ;
#266 = SURFACE_STYLE_USAGE ( .BOTH. , #169 ) ;
#267 = PLANE ( 'NONE',  #171 ) ;
#268 = COLOUR_RGB ( '',1.000000000000000000, 0.000000000000000000, 0.000000000000000000 ) ;
#269 = CYLINDRICAL_SURFACE ( 'NONE', #165, 2.999999999999993783 ) ;
#270 = SURFACE_STYLE_USAGE ( .BOTH. , #202 ) ;
#271 = FILL_AREA_STYLE ('',( #120 ) ) ;
#272 = CIRCLE ( 'NONE', #330, 2.999999999999996891 ) ;
#273 = PRODUCT_RELATED_PRODUCT_CATEGORY ( 'part', '', ( #337 ) ) ;
#274 = CARTESIAN_POINT ( 'NONE',  ( 0.000000000000000000, 1.000000000000000000, 0.000000000000000000 ) ) ;
#275 = CIRCLE ( 'NONE', #20, 2.999999999999991562 ) ;
#276 = EDGE_LOOP ( 'NONE', ( #300, #66, #101, #123 ) ) ;
#277 = SURFACE_STYLE_USAGE ( .BOTH. , #56 ) ;
#278 = EDGE_CURVE ( 'NONE', #118, #244, #272, .T. ) ;
#279 = SURFACE_STYLE_FILL_AREA ( #154 ) ;
#280 = EDGE_LOOP ( 'NONE', ( #148, #65 ) ) ;
#281 = SURFACE_STYLE_FILL_AREA ( #170 ) ;
#282 = MECHANICAL_DESIGN_GEOMETRIC_PRESENTATION_REPRESENTATION (  '', ( #302 ), #339 ) ;
#283 = VECTOR ( 'NONE', #223, 1000.000000000000000 ) ;
#284 = ORIENTED_EDGE ( 'NONE', *, *, #132, .F. ) ;
#285 = DIRECTION ( 'NONE',  ( -1.000000000000000000, 0.000000000000000000, 0.000000000000000000 ) ) ;
#286 = DIRECTION ( 'NONE',  ( -1.224646799147353207E-16, 0.000000000000000000, -1.000000000000000000 ) ) ;
#287 = DIRECTION ( 'NONE',  ( -0.000000000000000000, -1.000000000000000000, -0.000000000000000000 ) ) ;
#288 = ORIENTED_EDGE ( 'NONE', *, *, #362, .F. ) ;
#289 = FACE_OUTER_BOUND ( 'NONE', #176, .T. ) ;
#290 = CIRCLE ( 'NONE', #341, 3.000000000000000000 ) ;
#291 = SURFACE_STYLE_USAGE ( .BOTH. , #157 ) ;
#292 = ORIENTED_EDGE ( 'NONE', *, *, #362, .T. ) ;
#293 = SHAPE_DEFINITION_REPRESENTATION ( #363, #166 ) ;
#294 = UNCERTAINTY_MEASURE_WITH_UNIT (LENGTH_MEASURE( 1.000000000000000082E-05 ), #86, 'distance_accuracy_value', 'NONE');
#295 =( NAMED_UNIT ( * ) PLANE_ANGLE_UNIT ( ) SI_UNIT ( $, .RADIAN. ) );
#296 = EDGE_CURVE ( 'NONE', #321, #244, #88, .T. ) ;
#297 = EDGE_LOOP ( 'NONE', ( #149, #343 ) ) ;
#298 = STYLED_ITEM ( 'NONE', ( #221 ), #58 ) ;
#299 =( LENGTH_UNIT ( ) NAMED_UNIT ( * ) SI_UNIT ( .MILLI., .METRE. ) );
#300 = ORIENTED_EDGE ( 'NONE', *, *, #160, .F. ) ;
#301 = SURFACE_SIDE_STYLE ('',( #231 ) ) ;
#302 = STYLED_ITEM ( 'NONE', ( #16 ), #209 ) ;
#303 = ORIENTED_EDGE ( 'NONE', *, *, #246, .T. ) ;
#304 = APPLICATION_PROTOCOL_DEFINITION ( 'draft international standard', 'automotive_design', 1998, #325 ) ;
#305 = CARTESIAN_POINT ( 'NONE',  ( 3.000000000000000000, 63.00000000000000000, 0.000000000000000000 ) ) ;
#306 = PRESENTATION_LAYER_ASSIGNMENT (  '', '', ( #3 ) ) ;
#307 = CARTESIAN_POINT ( 'NONE',  ( 3.673940397442059375E-16, 1.000000000000000000, 3.000000000000000000 ) ) ;
#308 = AXIS2_PLACEMENT_3D ( 'NONE', #274, #218, #254 ) ;
#309 = CARTESIAN_POINT ( 'NONE',  ( 3.673940397442059868E-16, 12.00000000000000000, 3.000000000000000000 ) ) ;
#310 = STYLED_ITEM ( 'NONE', ( #208 ), #194 ) ;
#311 = PRODUCT_DEFINITION ( 'UNKNOWN', '', #130, #11 ) ;
#312 = CARTESIAN_POINT ( 'NONE',  ( 3.673940397442059868E-16, 0.000000000000000000, 3.000000000000000000 ) ) ;
#313 = CARTESIAN_POINT ( 'NONE',  ( 3.061616997868383141E-16, 0.000000000000000000, 2.000000000000000000 ) ) ;
#314 = ORIENTED_EDGE ( 'NONE', *, *, #132, .T. ) ;
#315 = CARTESIAN_POINT ( 'NONE',  ( 0.000000000000000000, 1.000000000000000000, -3.000000000000000000 ) ) ;
#316 = PLANE ( 'NONE',  #30 ) ;
#317 = DIRECTION ( 'NONE',  ( 0.000000000000000000, 0.000000000000000000, -1.000000000000000000 ) ) ;
#318 = AXIS2_PLACEMENT_3D ( 'NONE', #305, #350, #49 ) ;
#319 =( NAMED_UNIT ( * ) SI_UNIT ( $, .STERADIAN. ) SOLID_ANGLE_UNIT ( ) );
#320 = ORIENTED_EDGE ( 'NONE', *, *, #214, .F. ) ;
#321 = VERTEX_POINT ( 'NONE', #40 ) ;
#322 = CARTESIAN_POINT ( 'NONE',  ( 0.000000000000000000, 0.000000000000000000, 0.000000000000000000 ) ) ;
#323 = FILL_AREA_STYLE ('',( #155 ) ) ;
#324 = CARTESIAN_POINT ( 'NONE',  ( 0.000000000000000000, 12.00000000000000000, -3.000000000000000000 ) ) ;
#325 = APPLICATION_CONTEXT ( 'automotive_design' ) ;
#326 =( NAMED_UNIT ( * ) PLANE_ANGLE_UNIT ( ) SI_UNIT ( $, .RADIAN. ) );
#327 = EDGE_CURVE ( 'NONE', #321, #7, #256, .T. ) ;
#328 = FACE_OUTER_BOUND ( 'NONE', #42, .T. ) ;
#329 = VECTOR ( 'NONE', #197, 1000.000000000000000 ) ;
#330 = AXIS2_PLACEMENT_3D ( 'NONE', #346, #67, #285 ) ;
#331 = CARTESIAN_POINT ( 'NONE',  ( 2.449293598294706414E-16, 1.000000000000000000, 2.000000000000000000 ) ) ;
#332 = AXIS2_PLACEMENT_3D ( 'NONE', #115, #23, #145 ) ;
#333 = FACE_OUTER_BOUND ( 'NONE', #226, .T. ) ;
#334 = ORIENTED_EDGE ( 'NONE', *, *, #296, .F. ) ;
#335 = CARTESIAN_POINT ( 'NONE',  ( 0.000000000000000000, 0.000000000000000000, 0.000000000000000000 ) ) ;
#336 = CYLINDRICAL_SURFACE ( 'NONE', #95, 2.999999999999993783 ) ;
#337 = PRODUCT ( '59594', '59594', '', ( #100 ) ) ;
#338 = EDGE_CURVE ( 'NONE', #7, #321, #275, .T. ) ;
#339 =( GEOMETRIC_REPRESENTATION_CONTEXT ( 3 ) GLOBAL_UNCERTAINTY_ASSIGNED_CONTEXT ( ( #252 ) ) GLOBAL_UNIT_ASSIGNED_CONTEXT ( ( #45, #204, #41 ) ) REPRESENTATION_CONTEXT ( 'NONE', 'WORKASPACE' ) );
#340 = AXIS2_PLACEMENT_3D ( 'NONE', #69, #287, #317 ) ;
#341 = AXIS2_PLACEMENT_3D ( 'NONE', #182, #44, #161 ) ;
#342 = ORIENTED_EDGE ( 'NONE', *, *, #5, .F. ) ;
#343 = ORIENTED_EDGE ( 'NONE', *, *, #338, .F. ) ;
#344 = CYLINDRICAL_SURFACE ( 'NONE', #340, 3.000000000000000000 ) ;
#345 = PRESENTATION_LAYER_ASSIGNMENT (  '', '', ( #298 ) ) ;
#346 = CARTESIAN_POINT ( 'NONE',  ( 3.184081677783117402E-15, 63.00000000000000000, 0.000000000000000000 ) ) ;
#347 = ORIENTED_EDGE ( 'NONE', *, *, #246, .F. ) ;
#348 = VECTOR ( 'NONE', #172, 1000.000000000000000 ) ;
#349 = STYLED_ITEM ( 'NONE', ( #8 ), #353 ) ;
#350 = DIRECTION ( 'NONE',  ( 1.203932746194552959E-16, -1.000000000000000000, 0.000000000000000000 ) ) ;
#351 = DIRECTION ( 'NONE',  ( 0.000000000000000000, 0.000000000000000000, -1.000000000000000000 ) ) ;
#352 = FILL_AREA_STYLE ('',( #233 ) ) ;
#353 = ADVANCED_FACE ( 'NONE', ( #289 ), #262, .T. ) ;
#354 = ORIENTED_EDGE ( 'NONE', *, *, #198, .F. ) ;
#355 = DIRECTION ( 'NONE',  ( 1.000000000000000000, 0.000000000000000000, 0.000000000000000000 ) ) ;
#356 = ORIENTED_EDGE ( 'NONE', *, *, #28, .T. ) ;
#357 = MECHANICAL_DESIGN_GEOMETRIC_PRESENTATION_REPRESENTATION (  '', ( #3 ), #54 ) ;
#358 = EDGE_LOOP ( 'NONE', ( #106, #126, #89, #334 ) ) ;
#359 = EDGE_CURVE ( 'NONE', #234, #248, #71, .T. ) ;
#360 = LINE ( 'NONE', #2, #348 ) ;
#361 = MECHANICAL_DESIGN_GEOMETRIC_PRESENTATION_REPRESENTATION (  '', ( #133 ), #219 ) ;
#362 = EDGE_CURVE ( 'NONE', #50, #79, #290, .T. ) ;
#363 = PRODUCT_DEFINITION_SHAPE ( 'NONE', 'NONE',  #311 ) ;
#364 = CIRCLE ( 'NONE', #196, 3.000000000000000000 ) ;
#365 = ADVANCED_FACE ( 'NONE', ( #240 ), #269, .T. ) ;
#366 = ORIENTED_EDGE ( 'NONE', *, *, #214, .T. ) ;
#367 =( LENGTH_UNIT ( ) NAMED_UNIT ( * ) SI_UNIT ( .MILLI., .METRE. ) );
#368 = CARTESIAN_POINT ( 'NONE',  ( 3.000000000000000000, 11.99999999999999645, 3.673940397442054938E-16 ) ) ;
#369 = COLOUR_RGB ( '',1.000000000000000000, 0.000000000000000000, 0.000000000000000000 ) ;
#370 =( LENGTH_UNIT ( ) NAMED_UNIT ( * ) SI_UNIT ( .MILLI., .METRE. ) );
ENDSEC;
END-ISO-10303-21;
