ISO-10303-21;
HEADER;
FILE_DESCRIPTION (( 'STEP AP214' ),
    '1' );
FILE_NAME ('81465.STEP',
    '2023-06-30T22:29:24',
    ( '' ),
    ( '' ),
    'SwSTEP 2.0',
    'SolidWorks 2023',
    '' );
FILE_SCHEMA (( 'AUTOMOTIVE_DESIGN' ));
ENDSEC;

DATA;
#1 = CIRCLE ( 'NONE', #211, 0.1875000000000000278 ) ;
#2 = FACE_OUTER_BOUND ( 'NONE', #367, .T. ) ;
#3 = VERTEX_POINT ( 'NONE', #155 ) ;
#4 = CARTESIAN_POINT ( 'NONE',  ( 2.296212748401287109E-17, 0.1875000000000000555, 0.1874999999999999722 ) ) ;
#5 = MANIFOLD_SOLID_BREP ( 'Revolve - Tool Body (Straight Shanked)', #76 ) ;
#6 = CARTESIAN_POINT ( 'NONE',  ( 1.530808498934191571E-16, 1.250000000000000000, 0.000000000000000000 ) ) ;
#7 = CARTESIAN_POINT ( 'NONE',  ( 2.296212748401285877E-17, 1.250000000000000000, 0.1874999999999998335 ) ) ;
#8 = PLANE ( 'NONE',  #278 ) ;
#9 = FACE_OUTER_BOUND ( 'NONE', #187, .T. ) ;
#10 = SURFACE_STYLE_USAGE ( .BOTH. , #232 ) ;
#11 = COLOUR_RGB ( '',1.000000000000000000, 0.000000000000000000, 0.000000000000000000 ) ;
#12 = VERTEX_POINT ( 'NONE', #217 ) ;
#13 =( NAMED_UNIT ( * ) PLANE_ANGLE_UNIT ( ) SI_UNIT ( $, .RADIAN. ) );
#14 = ORIENTED_EDGE ( 'NONE', *, *, #285, .F. ) ;
#15 =( GEOMETRIC_REPRESENTATION_CONTEXT ( 3 ) GLOBAL_UNCERTAINTY_ASSIGNED_CONTEXT ( ( #180 ) ) GLOBAL_UNIT_ASSIGNED_CONTEXT ( ( #89, #348, #146 ) ) REPRESENTATION_CONTEXT ( 'NONE', 'WORKASPACE' ) );
#16 =( GEOMETRIC_REPRESENTATION_CONTEXT ( 3 ) GLOBAL_UNCERTAINTY_ASSIGNED_CONTEXT ( ( #271 ) ) GLOBAL_UNIT_ASSIGNED_CONTEXT ( ( #81, #282, #194 ) ) REPRESENTATION_CONTEXT ( 'NONE', 'WORKASPACE' ) );
#17 =( LENGTH_UNIT ( ) NAMED_UNIT ( * ) SI_UNIT ( $, .METRE. ) );
#18 = VERTEX_POINT ( 'NONE', #188 ) ;
#19 = FILL_AREA_STYLE_COLOUR ( '', #20 ) ;
#20 = COLOUR_RGB ( '',1.000000000000000000, 0.000000000000000000, 0.000000000000000000 ) ;
#21 = ADVANCED_FACE ( 'NONE', ( #50 ), #330, .T. ) ;
#22 = FILL_AREA_STYLE ('',( #172 ) ) ;
#23 = CARTESIAN_POINT ( 'NONE',  ( -0.1874999999999999722, 3.000000000000000444, 0.000000000000000000 ) ) ;
#24 =( NAMED_UNIT ( * ) SI_UNIT ( $, .STERADIAN. ) SOLID_ANGLE_UNIT ( ) );
#25 = ADVANCED_FACE ( 'NONE', ( #95 ), #91, .T. ) ;
#26 = MECHANICAL_DESIGN_GEOMETRIC_PRESENTATION_REPRESENTATION (  '', ( #31 ), #68 ) ;
#27 = DIRECTION ( 'NONE',  ( -0.000000000000000000, -1.000000000000000000, -0.000000000000000000 ) ) ;
#28 = EDGE_CURVE ( 'NONE', #283, #220, #36, .T. ) ;
#29 =( LENGTH_UNIT ( ) NAMED_UNIT ( * ) SI_UNIT ( $, .METRE. ) );
#30 = PRESENTATION_STYLE_ASSIGNMENT (( #108 ) ) ;
#31 = STYLED_ITEM ( 'NONE', ( #46 ), #21 ) ;
#32 =( CONVERSION_BASED_UNIT ( 'INCH', #181 ) LENGTH_UNIT ( ) NAMED_UNIT ( #86 ) );
#33 = CIRCLE ( 'NONE', #165, 0.1874999999999998335 ) ;
#34 = DIRECTION ( 'NONE',  ( 0.000000000000000000, 0.000000000000000000, -1.000000000000000000 ) ) ;
#35 = EDGE_CURVE ( 'NONE', #85, #3, #209, .T. ) ;
#36 = LINE ( 'NONE', #122, #88 ) ;
#37 = SURFACE_STYLE_FILL_AREA ( #273 ) ;
#38 = APPLICATION_CONTEXT ( 'automotive_design' ) ;
#39 = PRODUCT_DEFINITION ( 'UNKNOWN', '', #279, #75 ) ;
#40 = FILL_AREA_STYLE ('',( #186 ) ) ;
#41 = AXIS2_PLACEMENT_3D ( 'NONE', #247, #109, #360 ) ;
#42 = DIRECTION ( 'NONE',  ( 1.000000000000000000, 0.000000000000000000, 0.000000000000000000 ) ) ;
#43 = SURFACE_STYLE_USAGE ( .BOTH. , #281 ) ;
#44 = EDGE_LOOP ( 'NONE', ( #252, #178 ) ) ;
#45 = LINE ( 'NONE', #193, #205 ) ;
#46 = PRESENTATION_STYLE_ASSIGNMENT (( #43 ) ) ;
#47 = ADVANCED_FACE ( 'NONE', ( #299 ), #333, .T. ) ;
#48 = MECHANICAL_DESIGN_GEOMETRIC_PRESENTATION_REPRESENTATION (  '', ( #254 ), #269 ) ;
#49 = ORIENTED_EDGE ( 'NONE', *, *, #156, .F. ) ;
#50 = FACE_OUTER_BOUND ( 'NONE', #308, .T. ) ;
#51 = DIRECTION ( 'NONE',  ( -1.224646799147353454E-16, 1.000000000000000000, -0.000000000000000000 ) ) ;
#52 = APPLICATION_CONTEXT ( 'automotive_design' ) ;
#53 = DIMENSIONAL_EXPONENTS ( 1.000000000000000000, 0.000000000000000000, 0.000000000000000000, 0.000000000000000000, 0.000000000000000000, 0.000000000000000000, 0.000000000000000000 ) ;
#54 = ORIENTED_EDGE ( 'NONE', *, *, #336, .T. ) ;
#55 = PRESENTATION_LAYER_ASSIGNMENT (  '', '', ( #31 ) ) ;
#56 = STYLED_ITEM ( 'NONE', ( #229 ), #292 ) ;
#57 = CARTESIAN_POINT ( 'NONE',  ( 0.000000000000000000, 0.1875000000000000555, 0.000000000000000000 ) ) ;
#58 = SURFACE_STYLE_USAGE ( .BOTH. , #208 ) ;
#59 = FACE_OUTER_BOUND ( 'NONE', #121, .T. ) ;
#60 = AXIS2_PLACEMENT_3D ( 'NONE', #107, #318, #102 ) ;
#61 = STYLED_ITEM ( 'NONE', ( #30 ), #235 ) ;
#62 = SURFACE_STYLE_USAGE ( .BOTH. , #265 ) ;
#63 = VERTEX_POINT ( 'NONE', #150 ) ;
#64 = CYLINDRICAL_SURFACE ( 'NONE', #289, 0.1874999999999999167 ) ;
#65 = DIRECTION ( 'NONE',  ( -1.224646799147353454E-16, 1.000000000000000000, -0.000000000000000000 ) ) ;
#66 = DIRECTION ( 'NONE',  ( -1.224646799147353454E-16, 1.000000000000000000, -0.000000000000000000 ) ) ;
#67 = ORIENTED_EDGE ( 'NONE', *, *, #301, .T. ) ;
#68 =( GEOMETRIC_REPRESENTATION_CONTEXT ( 3 ) GLOBAL_UNCERTAINTY_ASSIGNED_CONTEXT ( ( #264 ) ) GLOBAL_UNIT_ASSIGNED_CONTEXT ( ( #326, #184, #357 ) ) REPRESENTATION_CONTEXT ( 'NONE', 'WORKASPACE' ) );
#69 = AXIS2_PLACEMENT_3D ( 'NONE', #228, #147, #262 ) ;
#70 = SURFACE_STYLE_FILL_AREA ( #40 ) ;
#71 = DIRECTION ( 'NONE',  ( 0.000000000000000000, 0.000000000000000000, -1.000000000000000000 ) ) ;
#72 = LENGTH_MEASURE_WITH_UNIT ( LENGTH_MEASURE( 0.02539999999999999897 ), #17 );
#73 = PRESENTATION_STYLE_ASSIGNMENT (( #212 ) ) ;
#74 = DIRECTION ( 'NONE',  ( 0.000000000000000000, 0.000000000000000000, 1.000000000000000000 ) ) ;
#75 = PRODUCT_DEFINITION_CONTEXT ( 'detailed design', #52, 'design' ) ;
#76 = CLOSED_SHELL ( 'NONE', ( #111, #351, #25, #140 ) ) ;
#77 = COLOUR_RGB ( '',0.7921568627450980005, 0.8196078431372548767, 0.9333333333333333481 ) ;
#78 = FILL_AREA_STYLE_COLOUR ( '', #243 ) ;
#79 = ORIENTED_EDGE ( 'NONE', *, *, #92, .F. ) ;
#80 = PRESENTATION_STYLE_ASSIGNMENT (( #195 ) ) ;
#81 =( CONVERSION_BASED_UNIT ( 'INCH', #221 ) LENGTH_UNIT ( ) NAMED_UNIT ( #53 ) );
#82 = PRESENTATION_LAYER_ASSIGNMENT (  '', '', ( #56 ) ) ;
#83 = CIRCLE ( 'NONE', #345, 0.1874999999999998335 ) ;
#84 = CARTESIAN_POINT ( 'NONE',  ( 0.000000000000000000, 1.250000000000000000, 0.000000000000000000 ) ) ;
#85 = VERTEX_POINT ( 'NONE', #124 ) ;
#86 = DIMENSIONAL_EXPONENTS ( 1.000000000000000000, 0.000000000000000000, 0.000000000000000000, 0.000000000000000000, 0.000000000000000000, 0.000000000000000000, 0.000000000000000000 ) ;
#87 = ADVANCED_BREP_SHAPE_REPRESENTATION ( '81465', ( #251, #5, #346 ), #16 ) ;
#88 = VECTOR ( 'NONE', #149, 39.37007874015748143 ) ;
#89 =( CONVERSION_BASED_UNIT ( 'INCH', #230 ) LENGTH_UNIT ( ) NAMED_UNIT ( #226 ) );
#90 = ORIENTED_EDGE ( 'NONE', *, *, #314, .T. ) ;
#91 = CYLINDRICAL_SURFACE ( 'NONE', #249, 0.1874999999999998057 ) ;
#92 = EDGE_CURVE ( 'NONE', #3, #170, #223, .T. ) ;
#93 = PRESENTATION_LAYER_ASSIGNMENT (  '', '', ( #254 ) ) ;
#94 = SURFACE_STYLE_FILL_AREA ( #322 ) ;
#95 = FACE_OUTER_BOUND ( 'NONE', #370, .T. ) ;
#96 = PRESENTATION_STYLE_ASSIGNMENT (( #10 ) ) ;
#97 = ORIENTED_EDGE ( 'NONE', *, *, #361, .F. ) ;
#98 = DIMENSIONAL_EXPONENTS ( 1.000000000000000000, 0.000000000000000000, 0.000000000000000000, 0.000000000000000000, 0.000000000000000000, 0.000000000000000000, 0.000000000000000000 ) ;
#99 = DIRECTION ( 'NONE',  ( -1.000000000000000000, 0.000000000000000000, 0.000000000000000000 ) ) ;
#100 = DIRECTION ( 'NONE',  ( -1.224646799147353454E-16, 1.000000000000000000, -0.000000000000000000 ) ) ;
#101 =( NAMED_UNIT ( * ) PLANE_ANGLE_UNIT ( ) SI_UNIT ( $, .RADIAN. ) );
#102 = DIRECTION ( 'NONE',  ( 0.000000000000000000, 0.000000000000000000, -1.000000000000000000 ) ) ;
#103 = AXIS2_PLACEMENT_3D ( 'NONE', #185, #159, #364 ) ;
#104 =( NAMED_UNIT ( * ) SI_UNIT ( $, .STERADIAN. ) SOLID_ANGLE_UNIT ( ) );
#105 = DIRECTION ( 'NONE',  ( 0.000000000000000000, 1.000000000000000000, 0.000000000000000000 ) ) ;
#106 = DIRECTION ( 'NONE',  ( -1.000000000000000000, 0.000000000000000000, 0.000000000000000000 ) ) ;
#107 = CARTESIAN_POINT ( 'NONE',  ( 0.000000000000000000, 0.000000000000000000, 0.000000000000000000 ) ) ;
#108 = SURFACE_STYLE_USAGE ( .BOTH. , #128 ) ;
#109 = DIRECTION ( 'NONE',  ( 0.000000000000000000, 0.000000000000000000, -1.000000000000000000 ) ) ;
#110 = ORIENTED_EDGE ( 'NONE', *, *, #225, .F. ) ;
#111 = ADVANCED_FACE ( 'NONE', ( #284 ), #338, .T. ) ;
#112 = CARTESIAN_POINT ( 'NONE',  ( 0.000000000000000000, 0.000000000000000000, 0.000000000000000000 ) ) ;
#113 = AXIS2_PLACEMENT_3D ( 'NONE', #302, #105, #135 ) ;
#114 = DIMENSIONAL_EXPONENTS ( 1.000000000000000000, 0.000000000000000000, 0.000000000000000000, 0.000000000000000000, 0.000000000000000000, 0.000000000000000000, 0.000000000000000000 ) ;
#115 = DIRECTION ( 'NONE',  ( 0.000000000000000000, 0.000000000000000000, -1.000000000000000000 ) ) ;
#116 = PRESENTATION_LAYER_ASSIGNMENT (  '', '', ( #309 ) ) ;
#117 = PRESENTATION_LAYER_ASSIGNMENT (  '', '', ( #61 ) ) ;
#118 = PLANE ( 'NONE',  #113 ) ;
#119 = ORIENTED_EDGE ( 'NONE', *, *, #314, .F. ) ;
#120 = CARTESIAN_POINT ( 'NONE',  ( -0.1874999999999995837, 1.250000000000000000, 0.000000000000000000 ) ) ;
#121 = EDGE_LOOP ( 'NONE', ( #306, #233, #67, #203, #14 ) ) ;
#122 = CARTESIAN_POINT ( 'NONE',  ( 2.296212748401286185E-17, 0.000000000000000000, 0.1874999999999999167 ) ) ;
#123 = ORIENTED_EDGE ( 'NONE', *, *, #204, .T. ) ;
#124 = CARTESIAN_POINT ( 'NONE',  ( 0.1874999999999998335, 1.250000000000000000, 2.296212748401286185E-17 ) ) ;
#125 =( GEOMETRIC_REPRESENTATION_CONTEXT ( 3 ) GLOBAL_UNCERTAINTY_ASSIGNED_CONTEXT ( ( #129 ) ) GLOBAL_UNIT_ASSIGNED_CONTEXT ( ( #206, #294, #24 ) ) REPRESENTATION_CONTEXT ( 'NONE', 'WORKASPACE' ) );
#126 = FILL_AREA_STYLE_COLOUR ( '', #359 ) ;
#127 = CARTESIAN_POINT ( 'NONE',  ( -6.123233995736772199E-17, 3.000000000000000444, 0.000000000000000000 ) ) ;
#128 = SURFACE_SIDE_STYLE ('',( #293 ) ) ;
#129 = UNCERTAINTY_MEASURE_WITH_UNIT (LENGTH_MEASURE( 1.000000000000000082E-05 ), #206, 'distance_accuracy_value', 'NONE');
#130 = DIRECTION ( 'NONE',  ( 0.000000000000000000, 0.000000000000000000, -1.000000000000000000 ) ) ;
#131 = ORIENTED_EDGE ( 'NONE', *, *, #245, .T. ) ;
#132 = CARTESIAN_POINT ( 'NONE',  ( 0.000000000000000000, 0.000000000000000000, -0.1874999999999999167 ) ) ;
#133 = MECHANICAL_DESIGN_GEOMETRIC_PRESENTATION_REPRESENTATION (  '', ( #56 ), #369 ) ;
#134 = DIRECTION ( 'NONE',  ( -0.000000000000000000, -1.000000000000000000, -0.000000000000000000 ) ) ;
#135 = DIRECTION ( 'NONE',  ( 0.000000000000000000, -0.000000000000000000, 1.000000000000000000 ) ) ;
#136 = ORIENTED_EDGE ( 'NONE', *, *, #156, .T. ) ;
#137 = DIRECTION ( 'NONE',  ( 0.000000000000000000, 0.000000000000000000, -1.000000000000000000 ) ) ;
#138 = VECTOR ( 'NONE', #66, 39.37007874015748143 ) ;
#139 = AXIS2_PLACEMENT_3D ( 'NONE', #6, #199, #99 ) ;
#140 = ADVANCED_FACE ( 'NONE', ( #9 ), #214, .F. ) ;
#141 = COLOUR_RGB ( '',0.7921568627450980005, 0.8196078431372548767, 0.9333333333333333481 ) ;
#142 = ORIENTED_EDGE ( 'NONE', *, *, #366, .F. ) ;
#143 = AXIS2_PLACEMENT_3D ( 'NONE', #334, #210, #42 ) ;
#144 = SURFACE_SIDE_STYLE ('',( #256 ) ) ;
#145 = MECHANICAL_DESIGN_GEOMETRIC_PRESENTATION_REPRESENTATION (  '', ( #309 ), #176 ) ;
#146 =( NAMED_UNIT ( * ) SI_UNIT ( $, .STERADIAN. ) SOLID_ANGLE_UNIT ( ) );
#147 = DIRECTION ( 'NONE',  ( -0.000000000000000000, -1.000000000000000000, -0.000000000000000000 ) ) ;
#148 = DIRECTION ( 'NONE',  ( 0.000000000000000000, 0.000000000000000000, -1.000000000000000000 ) ) ;
#149 = DIRECTION ( 'NONE',  ( -0.000000000000000000, -1.000000000000000000, -0.000000000000000000 ) ) ;
#150 = CARTESIAN_POINT ( 'NONE',  ( 0.000000000000000000, 1.250000000000000000, -0.1874999999999998335 ) ) ;
#151 = AXIS2_PLACEMENT_3D ( 'NONE', #158, #65, #106 ) ;
#152 = FACE_OUTER_BOUND ( 'NONE', #44, .T. ) ;
#153 = DIRECTION ( 'NONE',  ( -0.000000000000000000, -1.000000000000000000, -0.000000000000000000 ) ) ;
#154 = FILL_AREA_STYLE_COLOUR ( '', #277 ) ;
#155 = CARTESIAN_POINT ( 'NONE',  ( 0.1874999999999998335, 3.000000000000000444, 2.296212748401286185E-17 ) ) ;
#156 = EDGE_CURVE ( 'NONE', #276, #170, #45, .T. ) ;
#157 = VECTOR ( 'NONE', #134, 39.37007874015748143 ) ;
#158 = CARTESIAN_POINT ( 'NONE',  ( -6.123233995736772199E-17, 3.000000000000000444, 0.000000000000000000 ) ) ;
#159 = DIRECTION ( 'NONE',  ( 1.224646799147353454E-16, -1.000000000000000000, 0.000000000000000000 ) ) ;
#160 =( LENGTH_UNIT ( ) NAMED_UNIT ( * ) SI_UNIT ( $, .METRE. ) );
#161 =( CONVERSION_BASED_UNIT ( 'INCH', #72 ) LENGTH_UNIT ( ) NAMED_UNIT ( #167 ) );
#162 =( NAMED_UNIT ( * ) SI_UNIT ( $, .STERADIAN. ) SOLID_ANGLE_UNIT ( ) );
#163 =( GEOMETRIC_REPRESENTATION_CONTEXT ( 3 ) GLOBAL_UNCERTAINTY_ASSIGNED_CONTEXT ( ( #350 ) ) GLOBAL_UNIT_ASSIGNED_CONTEXT ( ( #32, #241, #162 ) ) REPRESENTATION_CONTEXT ( 'NONE', 'WORKASPACE' ) );
#164 = VERTEX_POINT ( 'NONE', #255 ) ;
#165 = AXIS2_PLACEMENT_3D ( 'NONE', #298, #153, #115 ) ;
#166 = EDGE_LOOP ( 'NONE', ( #321, #313, #119, #218 ) ) ;
#167 = DIMENSIONAL_EXPONENTS ( 1.000000000000000000, 0.000000000000000000, 0.000000000000000000, 0.000000000000000000, 0.000000000000000000, 0.000000000000000000, 0.000000000000000000 ) ;
#168 = MECHANICAL_DESIGN_GEOMETRIC_PRESENTATION_REPRESENTATION (  '', ( #363 ), #163 ) ;
#169 = AXIS2_PLACEMENT_3D ( 'NONE', #248, #213, #270 ) ;
#170 = VERTEX_POINT ( 'NONE', #23 ) ;
#171 = PRODUCT ( '81465', '81465', '', ( #317 ) ) ;
#172 = FILL_AREA_STYLE_COLOUR ( '', #141 ) ;
#173 = PRESENTATION_STYLE_ASSIGNMENT (( #62 ) ) ;
#174 =( LENGTH_UNIT ( ) NAMED_UNIT ( * ) SI_UNIT ( $, .METRE. ) );
#175 = VERTEX_POINT ( 'NONE', #196 ) ;
#176 =( GEOMETRIC_REPRESENTATION_CONTEXT ( 3 ) GLOBAL_UNCERTAINTY_ASSIGNED_CONTEXT ( ( #291 ) ) GLOBAL_UNIT_ASSIGNED_CONTEXT ( ( #161, #368, #315 ) ) REPRESENTATION_CONTEXT ( 'NONE', 'WORKASPACE' ) );
#177 = CIRCLE ( 'NONE', #236, 0.1874999999999999722 ) ;
#178 = ORIENTED_EDGE ( 'NONE', *, *, #304, .F. ) ;
#179 = CARTESIAN_POINT ( 'NONE',  ( -6.123233995736772199E-17, 3.000000000000000444, 0.000000000000000000 ) ) ;
#180 = UNCERTAINTY_MEASURE_WITH_UNIT (LENGTH_MEASURE( 1.000000000000000082E-05 ), #89, 'distance_accuracy_value', 'NONE');
#181 = LENGTH_MEASURE_WITH_UNIT ( LENGTH_MEASURE( 0.02539999999999999897 ), #222 );
#182 = CARTESIAN_POINT ( 'NONE',  ( 0.000000000000000000, 0.1875000000000000555, 0.000000000000000000 ) ) ;
#183 =( CONVERSION_BASED_UNIT ( 'INCH', #246 ) LENGTH_UNIT ( ) NAMED_UNIT ( #343 ) );
#184 =( NAMED_UNIT ( * ) PLANE_ANGLE_UNIT ( ) SI_UNIT ( $, .RADIAN. ) );
#185 = CARTESIAN_POINT ( 'NONE',  ( 0.1874999999999998335, 3.000000000000000444, 0.000000000000000000 ) ) ;
#186 = FILL_AREA_STYLE_COLOUR ( '', #11 ) ;
#187 = EDGE_LOOP ( 'NONE', ( #54, #371 ) ) ;
#188 = CARTESIAN_POINT ( 'NONE',  ( -0.1875000000000000278, 0.1875000000000000555, 2.296212748401287109E-17 ) ) ;
#189 = SHAPE_DEFINITION_REPRESENTATION ( #331, #87 ) ;
#190 = AXIS2_PLACEMENT_3D ( 'NONE', #266, #74, #349 ) ;
#191 = CIRCLE ( 'NONE', #169, 0.1874999999999996947 ) ;
#192 = CARTESIAN_POINT ( 'NONE',  ( -2.296212748401287726E-17, 0.1875000000000000278, 0.000000000000000000 ) ) ;
#193 = CARTESIAN_POINT ( 'NONE',  ( -0.1874999999999998890, 3.000000000000000444, 0.000000000000000000 ) ) ;
#194 =( NAMED_UNIT ( * ) SI_UNIT ( $, .STERADIAN. ) SOLID_ANGLE_UNIT ( ) );
#195 = SURFACE_STYLE_USAGE ( .BOTH. , #144 ) ;
#196 = CARTESIAN_POINT ( 'NONE',  ( -1.148106374200643863E-17, 0.000000000000000000, 0.000000000000000000 ) ) ;
#197 = ORIENTED_EDGE ( 'NONE', *, *, #323, .T. ) ;
#198 = AXIS2_PLACEMENT_3D ( 'NONE', #182, #295, #34 ) ;
#199 = DIRECTION ( 'NONE',  ( -1.224646799147353454E-16, 1.000000000000000000, -0.000000000000000000 ) ) ;
#200 = EDGE_LOOP ( 'NONE', ( #131, #354, #267, #49 ) ) ;
#201 = CARTESIAN_POINT ( 'NONE',  ( -6.123233995736772199E-17, 3.000000000000000444, 0.000000000000000000 ) ) ;
#202 = CARTESIAN_POINT ( 'NONE',  ( 0.000000000000000000, 0.000000000000000000, 0.000000000000000000 ) ) ;
#203 = ORIENTED_EDGE ( 'NONE', *, *, #323, .F. ) ;
#204 = EDGE_CURVE ( 'NONE', #12, #164, #177, .T. ) ;
#205 = VECTOR ( 'NONE', #51, 39.37007874015748143 ) ;
#206 =( CONVERSION_BASED_UNIT ( 'INCH', #268 ) LENGTH_UNIT ( ) NAMED_UNIT ( #98 ) );
#207 = CARTESIAN_POINT ( 'NONE',  ( 0.1874999999999997502, 3.000000000000000444, 2.296212748401284952E-17 ) ) ;
#208 = SURFACE_SIDE_STYLE ('',( #355 ) ) ;
#209 = LINE ( 'NONE', #207, #138 ) ;
#210 = DIRECTION ( 'NONE',  ( 0.000000000000000000, 0.000000000000000000, 1.000000000000000000 ) ) ;
#211 = AXIS2_PLACEMENT_3D ( 'NONE', #192, #286, #342 ) ;
#212 = SURFACE_STYLE_USAGE ( .BOTH. , #329 ) ;
#213 = DIRECTION ( 'NONE',  ( -1.224646799147353454E-16, 1.000000000000000000, -0.000000000000000000 ) ) ;
#214 = PLANE ( 'NONE',  #103 ) ;
#215 = SPHERICAL_SURFACE ( 'NONE', #143, 0.1875000000000000278 ) ;
#216 = AXIS2_PLACEMENT_3D ( 'NONE', #332, #358, #130 ) ;
#217 = CARTESIAN_POINT ( 'NONE',  ( 0.000000000000000000, 0.1875000000000000555, -0.1874999999999999722 ) ) ;
#218 = ORIENTED_EDGE ( 'NONE', *, *, #339, .T. ) ;
#219 = ORIENTED_EDGE ( 'NONE', *, *, #35, .F. ) ;
#220 = VERTEX_POINT ( 'NONE', #4 ) ;
#221 = LENGTH_MEASURE_WITH_UNIT ( LENGTH_MEASURE( 0.02539999999999999897 ), #160 );
#222 =( LENGTH_UNIT ( ) NAMED_UNIT ( * ) SI_UNIT ( $, .METRE. ) );
#223 = CIRCLE ( 'NONE', #274, 0.1874999999999999167 ) ;
#224 = AXIS2_PLACEMENT_3D ( 'NONE', #201, #237, #297 ) ;
#225 = EDGE_CURVE ( 'NONE', #63, #283, #83, .T. ) ;
#226 = DIMENSIONAL_EXPONENTS ( 1.000000000000000000, 0.000000000000000000, 0.000000000000000000, 0.000000000000000000, 0.000000000000000000, 0.000000000000000000, 0.000000000000000000 ) ;
#227 = EDGE_LOOP ( 'NONE', ( #372, #253, #337, #263, #344 ) ) ;
#228 = CARTESIAN_POINT ( 'NONE',  ( 0.000000000000000000, 0.1875000000000000555, 0.000000000000000000 ) ) ;
#229 = PRESENTATION_STYLE_ASSIGNMENT (( #58 ) ) ;
#230 = LENGTH_MEASURE_WITH_UNIT ( LENGTH_MEASURE( 0.02539999999999999897 ), #29 );
#231 =( LENGTH_UNIT ( ) NAMED_UNIT ( * ) SI_UNIT ( $, .METRE. ) );
#232 = SURFACE_SIDE_STYLE ('',( #37 ) ) ;
#233 = ORIENTED_EDGE ( 'NONE', *, *, #361, .T. ) ;
#234 = DIRECTION ( 'NONE',  ( -1.224646799147353454E-16, 1.000000000000000000, -0.000000000000000000 ) ) ;
#235 = ADVANCED_FACE ( 'NONE', ( #59 ), #64, .T. ) ;
#236 = AXIS2_PLACEMENT_3D ( 'NONE', #57, #27, #71 ) ;
#237 = DIRECTION ( 'NONE',  ( -1.224646799147353454E-16, 1.000000000000000000, -0.000000000000000000 ) ) ;
#238 = FILL_AREA_STYLE ('',( #126 ) ) ;
#239 = CARTESIAN_POINT ( 'NONE',  ( 1.530808498934191571E-16, 1.250000000000000000, 0.000000000000000000 ) ) ;
#240 = UNCERTAINTY_MEASURE_WITH_UNIT (LENGTH_MEASURE( 1.000000000000000082E-05 ), #183, 'distance_accuracy_value', 'NONE');
#241 =( NAMED_UNIT ( * ) PLANE_ANGLE_UNIT ( ) SI_UNIT ( $, .RADIAN. ) );
#242 = LINE ( 'NONE', #132, #157 ) ;
#243 = COLOUR_RGB ( '',1.000000000000000000, 0.000000000000000000, 0.000000000000000000 ) ;
#244 = CIRCLE ( 'NONE', #41, 0.1875000000000000278 ) ;
#245 = EDGE_CURVE ( 'NONE', #276, #85, #296, .T. ) ;
#246 = LENGTH_MEASURE_WITH_UNIT ( LENGTH_MEASURE( 0.02539999999999999897 ), #325 );
#247 = CARTESIAN_POINT ( 'NONE',  ( -2.296212748401287726E-17, 0.1875000000000000278, 0.000000000000000000 ) ) ;
#248 = CARTESIAN_POINT ( 'NONE',  ( 1.530808498934191571E-16, 1.250000000000000000, 0.000000000000000000 ) ) ;
#249 = AXIS2_PLACEMENT_3D ( 'NONE', #127, #100, #290 ) ;
#250 = MECHANICAL_DESIGN_GEOMETRIC_PRESENTATION_REPRESENTATION (  '', ( #61 ), #15 ) ;
#251 = MANIFOLD_SOLID_BREP ( 'Revolve - Cutting Edge', #300 ) ;
#252 = ORIENTED_EDGE ( 'NONE', *, *, #245, .F. ) ;
#253 = ORIENTED_EDGE ( 'NONE', *, *, #28, .T. ) ;
#254 = STYLED_ITEM ( 'NONE', ( #73 ), #327 ) ;
#255 = CARTESIAN_POINT ( 'NONE',  ( 0.1874999999999999722, 0.1875000000000000555, 0.000000000000000000 ) ) ;
#256 = SURFACE_STYLE_FILL_AREA ( #22 ) ;
#257 = DIRECTION ( 'NONE',  ( -0.000000000000000000, -1.000000000000000000, -0.000000000000000000 ) ) ;
#258 = DIRECTION ( 'NONE',  ( 0.000000000000000000, 0.000000000000000000, 1.000000000000000000 ) ) ;
#259 = ORIENTED_EDGE ( 'NONE', *, *, #304, .T. ) ;
#260 = FILL_AREA_STYLE_COLOUR ( '', #77 ) ;
#261 = UNCERTAINTY_MEASURE_WITH_UNIT (LENGTH_MEASURE( 1.000000000000000082E-05 ), #288, 'distance_accuracy_value', 'NONE');
#262 = DIRECTION ( 'NONE',  ( 0.000000000000000000, 0.000000000000000000, -1.000000000000000000 ) ) ;
#263 = ORIENTED_EDGE ( 'NONE', *, *, #204, .F. ) ;
#264 = UNCERTAINTY_MEASURE_WITH_UNIT (LENGTH_MEASURE( 1.000000000000000082E-05 ), #326, 'distance_accuracy_value', 'NONE');
#265 = SURFACE_SIDE_STYLE ('',( #94 ) ) ;
#266 = CARTESIAN_POINT ( 'NONE',  ( -2.296212748401287726E-17, 0.1875000000000000278, 0.000000000000000000 ) ) ;
#267 = ORIENTED_EDGE ( 'NONE', *, *, #336, .F. ) ;
#268 = LENGTH_MEASURE_WITH_UNIT ( LENGTH_MEASURE( 0.02539999999999999897 ), #231 );
#269 =( GEOMETRIC_REPRESENTATION_CONTEXT ( 3 ) GLOBAL_UNCERTAINTY_ASSIGNED_CONTEXT ( ( #240 ) ) GLOBAL_UNIT_ASSIGNED_CONTEXT ( ( #183, #101, #272 ) ) REPRESENTATION_CONTEXT ( 'NONE', 'WORKASPACE' ) );
#270 = DIRECTION ( 'NONE',  ( -1.000000000000000000, 0.000000000000000000, 0.000000000000000000 ) ) ;
#271 = UNCERTAINTY_MEASURE_WITH_UNIT (LENGTH_MEASURE( 1.000000000000000082E-05 ), #81, 'distance_accuracy_value', 'NONE');
#272 =( NAMED_UNIT ( * ) SI_UNIT ( $, .STERADIAN. ) SOLID_ANGLE_UNIT ( ) );
#273 = FILL_AREA_STYLE ('',( #154 ) ) ;
#274 = AXIS2_PLACEMENT_3D ( 'NONE', #179, #234, #324 ) ;
#275 = MECHANICAL_DESIGN_GEOMETRIC_PRESENTATION_REPRESENTATION (  '', ( #287 ), #125 ) ;
#276 = VERTEX_POINT ( 'NONE', #120 ) ;
#277 = COLOUR_RGB ( '',1.000000000000000000, 0.000000000000000000, 0.000000000000000000 ) ;
#278 = AXIS2_PLACEMENT_3D ( 'NONE', #239, #356, #328 ) ;
#279 = PRODUCT_DEFINITION_FORMATION_WITH_SPECIFIED_SOURCE ( 'ANY', '', #171, .NOT_KNOWN. ) ;
#280 = APPLICATION_PROTOCOL_DEFINITION ( 'draft international standard', 'automotive_design', 1998, #38 ) ;
#281 = SURFACE_SIDE_STYLE ('',( #307 ) ) ;
#282 =( NAMED_UNIT ( * ) PLANE_ANGLE_UNIT ( ) SI_UNIT ( $, .RADIAN. ) );
#283 = VERTEX_POINT ( 'NONE', #7 ) ;
#284 = FACE_OUTER_BOUND ( 'NONE', #200, .T. ) ;
#285 = EDGE_CURVE ( 'NONE', #220, #18, #352, .T. ) ;
#286 = DIRECTION ( 'NONE',  ( 1.224646799147353207E-16, -0.000000000000000000, 1.000000000000000000 ) ) ;
#287 = STYLED_ITEM ( 'NONE', ( #173 ), #251 ) ;
#288 =( CONVERSION_BASED_UNIT ( 'INCH', #347 ) LENGTH_UNIT ( ) NAMED_UNIT ( #316 ) );
#289 = AXIS2_PLACEMENT_3D ( 'NONE', #202, #353, #148 ) ;
#290 = DIRECTION ( 'NONE',  ( -1.000000000000000000, 0.000000000000000000, 0.000000000000000000 ) ) ;
#291 = UNCERTAINTY_MEASURE_WITH_UNIT (LENGTH_MEASURE( 1.000000000000000082E-05 ), #161, 'distance_accuracy_value', 'NONE');
#292 = ADVANCED_FACE ( 'NONE', ( #2 ), #118, .T. ) ;
#293 = SURFACE_STYLE_FILL_AREA ( #319 ) ;
#294 =( NAMED_UNIT ( * ) PLANE_ANGLE_UNIT ( ) SI_UNIT ( $, .RADIAN. ) );
#295 = DIRECTION ( 'NONE',  ( -0.000000000000000000, -1.000000000000000000, -0.000000000000000000 ) ) ;
#296 = CIRCLE ( 'NONE', #139, 0.1874999999999996947 ) ;
#297 = DIRECTION ( 'NONE',  ( -1.000000000000000000, 0.000000000000000000, 0.000000000000000000 ) ) ;
#298 = CARTESIAN_POINT ( 'NONE',  ( 0.000000000000000000, 1.250000000000000000, 0.000000000000000000 ) ) ;
#299 = FACE_OUTER_BOUND ( 'NONE', #227, .T. ) ;
#300 = CLOSED_SHELL ( 'NONE', ( #327, #47, #292, #235, #21 ) ) ;
#301 = EDGE_CURVE ( 'NONE', #63, #12, #242, .T. ) ;
#302 = CARTESIAN_POINT ( 'NONE',  ( 0.000000000000000000, 1.250000000000000000, 0.000000000000000000 ) ) ;
#303 = FILL_AREA_STYLE ('',( #78 ) ) ;
#304 = EDGE_CURVE ( 'NONE', #85, #276, #191, .T. ) ;
#305 = APPLICATION_PROTOCOL_DEFINITION ( 'draft international standard', 'automotive_design', 1998, #52 ) ;
#306 = ORIENTED_EDGE ( 'NONE', *, *, #28, .F. ) ;
#307 = SURFACE_STYLE_FILL_AREA ( #303 ) ;
#308 = EDGE_LOOP ( 'NONE', ( #142, #197, #123, #90 ) ) ;
#309 = STYLED_ITEM ( 'NONE', ( #96 ), #47 ) ;
#310 = PRESENTATION_LAYER_ASSIGNMENT (  '', '', ( #287 ) ) ;
#311 = LENGTH_MEASURE_WITH_UNIT ( LENGTH_MEASURE( 0.02539999999999999897 ), #341 );
#312 = DIRECTION ( 'NONE',  ( 1.000000000000000000, 0.000000000000000000, 0.000000000000000000 ) ) ;
#313 = ORIENTED_EDGE ( 'NONE', *, *, #366, .T. ) ;
#314 = EDGE_CURVE ( 'NONE', #164, #175, #244, .T. ) ;
#315 =( NAMED_UNIT ( * ) SI_UNIT ( $, .STERADIAN. ) SOLID_ANGLE_UNIT ( ) );
#316 = DIMENSIONAL_EXPONENTS ( 1.000000000000000000, 0.000000000000000000, 0.000000000000000000, 0.000000000000000000, 0.000000000000000000, 0.000000000000000000, 0.000000000000000000 ) ;
#317 = PRODUCT_CONTEXT ( 'NONE', #38, 'mechanical' ) ;
#318 = DIRECTION ( 'NONE',  ( -0.000000000000000000, -1.000000000000000000, -0.000000000000000000 ) ) ;
#319 = FILL_AREA_STYLE ('',( #19 ) ) ;
#320 = CIRCLE ( 'NONE', #151, 0.1874999999999999167 ) ;
#321 = ORIENTED_EDGE ( 'NONE', *, *, #285, .T. ) ;
#322 = FILL_AREA_STYLE ('',( #260 ) ) ;
#323 = EDGE_CURVE ( 'NONE', #18, #12, #340, .T. ) ;
#324 = DIRECTION ( 'NONE',  ( -1.000000000000000000, 0.000000000000000000, 0.000000000000000000 ) ) ;
#325 =( LENGTH_UNIT ( ) NAMED_UNIT ( * ) SI_UNIT ( $, .METRE. ) );
#326 =( CONVERSION_BASED_UNIT ( 'INCH', #311 ) LENGTH_UNIT ( ) NAMED_UNIT ( #114 ) );
#327 = ADVANCED_FACE ( 'NONE', ( #362 ), #215, .T. ) ;
#328 = DIRECTION ( 'NONE',  ( -1.000000000000000000, -1.224646799147353454E-16, 0.000000000000000000 ) ) ;
#329 = SURFACE_SIDE_STYLE ('',( #70 ) ) ;
#330 = SPHERICAL_SURFACE ( 'NONE', #190, 0.1875000000000000278 ) ;
#331 = PRODUCT_DEFINITION_SHAPE ( 'NONE', 'NONE',  #39 ) ;
#332 = CARTESIAN_POINT ( 'NONE',  ( 0.000000000000000000, 0.1875000000000000555, 0.000000000000000000 ) ) ;
#333 = CYLINDRICAL_SURFACE ( 'NONE', #60, 0.1874999999999999167 ) ;
#334 = CARTESIAN_POINT ( 'NONE',  ( -2.296212748401287726E-17, 0.1875000000000000278, 0.000000000000000000 ) ) ;
#335 = PRESENTATION_LAYER_ASSIGNMENT (  '', '', ( #363 ) ) ;
#336 = EDGE_CURVE ( 'NONE', #170, #3, #320, .T. ) ;
#337 = ORIENTED_EDGE ( 'NONE', *, *, #339, .F. ) ;
#338 = CYLINDRICAL_SURFACE ( 'NONE', #224, 0.1874999999999998057 ) ;
#339 = EDGE_CURVE ( 'NONE', #164, #220, #365, .T. ) ;
#340 = CIRCLE ( 'NONE', #216, 0.1874999999999999722 ) ;
#341 =( LENGTH_UNIT ( ) NAMED_UNIT ( * ) SI_UNIT ( $, .METRE. ) );
#342 = DIRECTION ( 'NONE',  ( 1.000000000000000000, 0.000000000000000000, -1.224646799147353207E-16 ) ) ;
#343 = DIMENSIONAL_EXPONENTS ( 1.000000000000000000, 0.000000000000000000, 0.000000000000000000, 0.000000000000000000, 0.000000000000000000, 0.000000000000000000, 0.000000000000000000 ) ;
#344 = ORIENTED_EDGE ( 'NONE', *, *, #301, .F. ) ;
#345 = AXIS2_PLACEMENT_3D ( 'NONE', #84, #257, #137 ) ;
#346 = AXIS2_PLACEMENT_3D ( 'NONE', #112, #258, #312 ) ;
#347 = LENGTH_MEASURE_WITH_UNIT ( LENGTH_MEASURE( 0.02539999999999999897 ), #174 );
#348 =( NAMED_UNIT ( * ) PLANE_ANGLE_UNIT ( ) SI_UNIT ( $, .RADIAN. ) );
#349 = DIRECTION ( 'NONE',  ( 1.000000000000000000, 0.000000000000000000, 0.000000000000000000 ) ) ;
#350 = UNCERTAINTY_MEASURE_WITH_UNIT (LENGTH_MEASURE( 1.000000000000000082E-05 ), #32, 'distance_accuracy_value', 'NONE');
#351 = ADVANCED_FACE ( 'NONE', ( #152 ), #8, .F. ) ;
#352 = CIRCLE ( 'NONE', #69, 0.1874999999999999722 ) ;
#353 = DIRECTION ( 'NONE',  ( -0.000000000000000000, -1.000000000000000000, -0.000000000000000000 ) ) ;
#354 = ORIENTED_EDGE ( 'NONE', *, *, #35, .T. ) ;
#355 = SURFACE_STYLE_FILL_AREA ( #238 ) ;
#356 = DIRECTION ( 'NONE',  ( -1.224646799147353454E-16, 1.000000000000000000, 0.000000000000000000 ) ) ;
#357 =( NAMED_UNIT ( * ) SI_UNIT ( $, .STERADIAN. ) SOLID_ANGLE_UNIT ( ) );
#358 = DIRECTION ( 'NONE',  ( -0.000000000000000000, -1.000000000000000000, -0.000000000000000000 ) ) ;
#359 = COLOUR_RGB ( '',1.000000000000000000, 0.000000000000000000, 0.000000000000000000 ) ;
#360 = DIRECTION ( 'NONE',  ( -1.000000000000000000, 0.000000000000000000, 0.000000000000000000 ) ) ;
#361 = EDGE_CURVE ( 'NONE', #283, #63, #33, .T. ) ;
#362 = FACE_OUTER_BOUND ( 'NONE', #166, .T. ) ;
#363 = STYLED_ITEM ( 'NONE', ( #80 ), #5 ) ;
#364 = DIRECTION ( 'NONE',  ( 1.000000000000000000, 1.224646799147353454E-16, 0.000000000000000000 ) ) ;
#365 = CIRCLE ( 'NONE', #198, 0.1874999999999999722 ) ;
#366 = EDGE_CURVE ( 'NONE', #18, #175, #1, .T. ) ;
#367 = EDGE_LOOP ( 'NONE', ( #110, #97 ) ) ;
#368 =( NAMED_UNIT ( * ) PLANE_ANGLE_UNIT ( ) SI_UNIT ( $, .RADIAN. ) );
#369 =( GEOMETRIC_REPRESENTATION_CONTEXT ( 3 ) GLOBAL_UNCERTAINTY_ASSIGNED_CONTEXT ( ( #261 ) ) GLOBAL_UNIT_ASSIGNED_CONTEXT ( ( #288, #13, #104 ) ) REPRESENTATION_CONTEXT ( 'NONE', 'WORKASPACE' ) );
#370 = EDGE_LOOP ( 'NONE', ( #219, #259, #136, #79 ) ) ;
#371 = ORIENTED_EDGE ( 'NONE', *, *, #92, .T. ) ;
#372 = ORIENTED_EDGE ( 'NONE', *, *, #225, .T. ) ;
#373 = PRODUCT_RELATED_PRODUCT_CATEGORY ( 'part', '', ( #171 ) ) ;
ENDSEC;
END-ISO-10303-21;
