ISO-10303-21;
HEADER;
FILE_DESCRIPTION (( 'STEP AP214' ),
    '1' );
FILE_NAME ('Micro_SD-500.STEP',
    '2021-09-02T13:23:58',
    ( '' ),
    ( '' ),
    'SwSTEP 2.0',
    'SolidWorks 2020',
    '' );
FILE_SCHEMA (( 'AUTOMOTIVE_DESIGN' ));
ENDSEC;

DATA;
#1 = EDGE_CURVE ( 'NONE', #267, #323, #214, .T. ) ;
#2 = CARTESIAN_POINT ( 'NONE',  ( 0.0000000000000000000, 0.0000000000000000000, 2.484999999999999876 ) ) ;
#3 =( NAMED_UNIT ( * ) PLANE_ANGLE_UNIT ( ) SI_UNIT ( $, .RADIAN. ) );
#4 = EDGE_LOOP ( 'NONE', ( #190, #113, #41 ) ) ;
#5 = EDGE_CURVE ( 'NONE', #293, #321, #81, .T. ) ;
#6 = CARTESIAN_POINT ( 'NONE',  ( 0.0000000000000000000, 0.0000000000000000000, 2.500000000000000000 ) ) ;
#7 = ADVANCED_FACE ( 'NONE', ( #167 ), #303, .T. ) ;
#8 = DIRECTION ( 'NONE',  ( -1.000000000000000000, 0.0000000000000000000, 0.0000000000000000000 ) ) ;
#9 = FACE_OUTER_BOUND ( 'NONE', #185, .T. ) ;
#10 = CARTESIAN_POINT ( 'NONE',  ( 0.0000000000000000000, 0.0000000000000000000, 0.0000000000000000000 ) ) ;
#11 = LINE ( 'NONE', #60, #138 ) ;
#12 = DIRECTION ( 'NONE',  ( 1.000000000000000000, 0.0000000000000000000, 0.0000000000000000000 ) ) ;
#13 = CONICAL_SURFACE ( 'NONE', #112, 0.2350000000000003753, 0.7853981633974278509 ) ;
#14 = AXIS2_PLACEMENT_3D ( 'NONE', #73, #166, #8 ) ;
#15 = CARTESIAN_POINT ( 'NONE',  ( -0.2499500000000000333, 0.0000000000000000000, 0.1501851117259377366 ) ) ;
#16 = CYLINDRICAL_SURFACE ( 'NONE', #93, 0.2499500000000000888 ) ;
#17 = ADVANCED_FACE ( 'NONE', ( #171 ), #13, .T. ) ;
#18 = ADVANCED_FACE ( 'NONE', ( #193 ), #192, .T. ) ;
#19 = FILL_AREA_STYLE_COLOUR ( '', #89 ) ;
#20 = EDGE_LOOP ( 'NONE', ( #211, #263 ) ) ;
#21 = ORIENTED_EDGE ( 'NONE', *, *, #36, .F. ) ;
#22 = VECTOR ( 'NONE', #257, 39.37007874015748143 ) ;
#23 = ORIENTED_EDGE ( 'NONE', *, *, #165, .T. ) ;
#24 = FACE_OUTER_BOUND ( 'NONE', #240, .T. ) ;
#25 = EDGE_LOOP ( 'NONE', ( #21, #319, #189, #70 ) ) ;
#26 =( LENGTH_UNIT ( ) NAMED_UNIT ( * ) SI_UNIT ( $, .METRE. ) );
#27 = VERTEX_POINT ( 'NONE', #100 ) ;
#28 = CARTESIAN_POINT ( 'NONE',  ( 0.0000000000000000000, 0.0000000000000000000, 2.500000000000000000 ) ) ;
#29 = ORIENTED_EDGE ( 'NONE', *, *, #115, .F. ) ;
#30 = SURFACE_SIDE_STYLE ('',( #254 ) ) ;
#31 = CARTESIAN_POINT ( 'NONE',  ( -0.2500000000000000000, 0.0000000000000000000, 2.484999999999999876 ) ) ;
#32 = DIRECTION ( 'NONE',  ( 0.8571673007021137769, 0.0000000000000000000, 0.5150380749100517130 ) ) ;
#33 = DIRECTION ( 'NONE',  ( -1.000000000000000000, 0.0000000000000000000, 0.0000000000000000000 ) ) ;
#34 = AXIS2_PLACEMENT_3D ( 'NONE', #281, #62, #176 ) ;
#35 = DIRECTION ( 'NONE',  ( -1.000000000000000000, 0.0000000000000000000, 0.0000000000000000000 ) ) ;
#36 = EDGE_CURVE ( 'NONE', #27, #323, #273, .T. ) ;
#37 = CARTESIAN_POINT ( 'NONE',  ( 0.0000000000000000000, 0.0000000000000000000, 0.1501851117259377366 ) ) ;
#38 = PRESENTATION_STYLE_ASSIGNMENT (( #290 ) ) ;
#39 = ORIENTED_EDGE ( 'NONE', *, *, #276, .F. ) ;
#40 = AXIS2_PLACEMENT_3D ( 'NONE', #54, #50, #278 ) ;
#41 = ORIENTED_EDGE ( 'NONE', *, *, #238, .T. ) ;
#42 = VERTEX_POINT ( 'NONE', #249 ) ;
#43 = ORIENTED_EDGE ( 'NONE', *, *, #1, .T. ) ;
#44 = ADVANCED_FACE ( 'NONE', ( #46 ), #58, .T. ) ;
#45 = ORIENTED_EDGE ( 'NONE', *, *, #316, .T. ) ;
#46 = FACE_OUTER_BOUND ( 'NONE', #186, .T. ) ;
#47 = LINE ( 'NONE', #80, #53 ) ;
#48 = CARTESIAN_POINT ( 'NONE',  ( 0.2499500000000001443, 0.0000000000000000000, 1.165999999999999925 ) ) ;
#49 = LENGTH_MEASURE_WITH_UNIT ( LENGTH_MEASURE( 0.02539999999999999897 ), #223 );
#50 = DIRECTION ( 'NONE',  ( 0.0000000000000000000, 0.0000000000000000000, 1.000000000000000000 ) ) ;
#51 =( NAMED_UNIT ( * ) SI_UNIT ( $, .STERADIAN. ) SOLID_ANGLE_UNIT ( ) );
#52 = AXIS2_PLACEMENT_3D ( 'NONE', #28, #219, #149 ) ;
#53 = VECTOR ( 'NONE', #272, 39.37007874015748854 ) ;
#54 = CARTESIAN_POINT ( 'NONE',  ( 0.0000000000000000000, 0.0000000000000000000, 1.165999999999999925 ) ) ;
#55 = UNCERTAINTY_MEASURE_WITH_UNIT (LENGTH_MEASURE( 1.000000000000000082E-05 ), #297, 'distance_accuracy_value', 'NONE');
#56 = CARTESIAN_POINT ( 'NONE',  ( 0.0000000000000000000, 0.0000000000000000000, 2.500000000000000000 ) ) ;
#57 = DIRECTION ( 'NONE',  ( 0.0000000000000000000, 0.0000000000000000000, 1.000000000000000000 ) ) ;
#58 = CONICAL_SURFACE ( 'NONE', #109, 0.2350000000000003753, 0.7853981633974278509 ) ;
#59 = CARTESIAN_POINT ( 'NONE',  ( 0.0000000000000000000, 0.0000000000000000000, 39.37007874015748143 ) ) ;
#60 = CARTESIAN_POINT ( 'NONE',  ( 0.2500000000000000000, 3.061616997868383018E-17, 2.500000000000000000 ) ) ;
#61 = ADVANCED_FACE ( 'NONE', ( #76 ), #79, .T. ) ;
#62 = DIRECTION ( 'NONE',  ( -0.0000000000000000000, -0.0000000000000000000, -1.000000000000000000 ) ) ;
#63 = VECTOR ( 'NONE', #286, 39.37007874015748854 ) ;
#64 = STYLED_ITEM ( 'NONE', ( #38 ), #307 ) ;
#65 = CARTESIAN_POINT ( 'NONE',  ( 0.0000000000000000000, 0.0000000000000000000, 2.500000000000000000 ) ) ;
#66 = APPLICATION_PROTOCOL_DEFINITION ( 'draft international standard', 'automotive_design', 1998, #302 ) ;
#67 = DIRECTION ( 'NONE',  ( -0.0000000000000000000, -0.0000000000000000000, -1.000000000000000000 ) ) ;
#68 = EDGE_LOOP ( 'NONE', ( #114, #119, #212, #116 ) ) ;
#69 = CONICAL_SURFACE ( 'NONE', #294, 65.52281426576885792, 1.029744258676657420 ) ;
#70 = ORIENTED_EDGE ( 'NONE', *, *, #238, .F. ) ;
#71 = PRODUCT_DEFINITION ( 'UNKNOWN', '', #234, #247 ) ;
#72 = ORIENTED_EDGE ( 'NONE', *, *, #147, .T. ) ;
#73 = CARTESIAN_POINT ( 'NONE',  ( 0.0000000000000000000, 0.0000000000000000000, 0.1501851117259377366 ) ) ;
#74 = CIRCLE ( 'NONE', #280, 0.2500000000000000000 ) ;
#75 = ADVANCED_FACE ( 'NONE', ( #24 ), #131, .T. ) ;
#76 = FACE_OUTER_BOUND ( 'NONE', #68, .T. ) ;
#77 = CARTESIAN_POINT ( 'NONE',  ( 0.0000000000000000000, 0.0000000000000000000, 1.165999999999999925 ) ) ;
#78 = FILL_AREA_STYLE_COLOUR ( '', #229 ) ;
#79 = CYLINDRICAL_SURFACE ( 'NONE', #236, 0.2500000000000000000 ) ;
#80 = CARTESIAN_POINT ( 'NONE',  ( 0.2350000000000003753, 2.877919977996284141E-17, 2.500000000000000000 ) ) ;
#81 = CIRCLE ( 'NONE', #104, 0.2500000000000000000 ) ;
#82 = CARTESIAN_POINT ( 'NONE',  ( 0.0000000000000000000, 0.0000000000000000000, 2.500000000000000000 ) ) ;
#83 = CARTESIAN_POINT ( 'NONE',  ( 0.0000000000000000000, 0.0000000000000000000, 0.0000000000000000000 ) ) ;
#84 = DIRECTION ( 'NONE',  ( -0.8571673007021137769, 1.049727191138620545E-16, 0.5150380749100517130 ) ) ;
#85 = CONICAL_SURFACE ( 'NONE', #187, 65.52281426576885792, 1.029744258676657420 ) ;
#86 = DIRECTION ( 'NONE',  ( -0.0000000000000000000, -0.0000000000000000000, -1.000000000000000000 ) ) ;
#87 = CARTESIAN_POINT ( 'NONE',  ( 0.0000000000000000000, 0.0000000000000000000, 0.0000000000000000000 ) ) ;
#88 = CARTESIAN_POINT ( 'NONE',  ( -0.2350000000000003753, 0.0000000000000000000, 2.500000000000000000 ) ) ;
#89 = COLOUR_RGB ( '',0.7921568627450980005, 0.8196078431372548767, 0.9333333333333333481 ) ;
#90 =( GEOMETRIC_REPRESENTATION_CONTEXT ( 3 ) GLOBAL_UNCERTAINTY_ASSIGNED_CONTEXT ( ( #55 ) ) GLOBAL_UNIT_ASSIGNED_CONTEXT ( ( #297, #3, #218 ) ) REPRESENTATION_CONTEXT ( 'NONE', 'WORKASPACE' ) );
#91 = SURFACE_SIDE_STYLE ('',( #317 ) ) ;
#92 = ORIENTED_EDGE ( 'NONE', *, *, #182, .T. ) ;
#93 = AXIS2_PLACEMENT_3D ( 'NONE', #151, #153, #35 ) ;
#94 = EDGE_CURVE ( 'NONE', #217, #168, #250, .T. ) ;
#95 = EDGE_LOOP ( 'NONE', ( #23, #295, #159, #162 ) ) ;
#96 = ORIENTED_EDGE ( 'NONE', *, *, #304, .F. ) ;
#97 = CARTESIAN_POINT ( 'NONE',  ( 0.0000000000000000000, 0.0000000000000000000, 2.500000000000000000 ) ) ;
#98 = VECTOR ( 'NONE', #121, 39.37007874015748854 ) ;
#99 = DIRECTION ( 'NONE',  ( 1.000000000000000000, 0.0000000000000000000, 0.0000000000000000000 ) ) ;
#100 = CARTESIAN_POINT ( 'NONE',  ( 0.2499500000000001443, 0.0000000000000000000, 1.165999999999999925 ) ) ;
#101 = UNCERTAINTY_MEASURE_WITH_UNIT (LENGTH_MEASURE( 1.000000000000000082E-05 ), #169, 'distance_accuracy_value', 'NONE');
#102 =( NAMED_UNIT ( * ) PLANE_ANGLE_UNIT ( ) SI_UNIT ( $, .RADIAN. ) );
#103 = DIRECTION ( 'NONE',  ( 0.0000000000000000000, 0.0000000000000000000, 1.000000000000000000 ) ) ;
#104 = AXIS2_PLACEMENT_3D ( 'NONE', #191, #296, #99 ) ;
#105 =( GEOMETRIC_REPRESENTATION_CONTEXT ( 3 ) GLOBAL_UNCERTAINTY_ASSIGNED_CONTEXT ( ( #150 ) ) GLOBAL_UNIT_ASSIGNED_CONTEXT ( ( #270, #102, #51 ) ) REPRESENTATION_CONTEXT ( 'NONE', 'WORKASPACE' ) );
#106 = CARTESIAN_POINT ( 'NONE',  ( 0.0000000000000000000, 0.0000000000000000000, 1.166049999999999809 ) ) ;
#107 = DIRECTION ( 'NONE',  ( -1.000000000000000000, 0.0000000000000000000, 0.0000000000000000000 ) ) ;
#108 = LINE ( 'NONE', #235, #306 ) ;
#109 = AXIS2_PLACEMENT_3D ( 'NONE', #130, #197, #308 ) ;
#110 = FACE_OUTER_BOUND ( 'NONE', #95, .T. ) ;
#111 = FACE_OUTER_BOUND ( 'NONE', #25, .T. ) ;
#112 = AXIS2_PLACEMENT_3D ( 'NONE', #97, #301, #244 ) ;
#113 = ORIENTED_EDGE ( 'NONE', *, *, #239, .T. ) ;
#114 = ORIENTED_EDGE ( 'NONE', *, *, #5, .T. ) ;
#115 = EDGE_CURVE ( 'NONE', #246, #243, #322, .T. ) ;
#116 = ORIENTED_EDGE ( 'NONE', *, *, #305, .F. ) ;
#117 = CIRCLE ( 'NONE', #170, 0.2499500000000000333 ) ;
#118 =( GEOMETRIC_REPRESENTATION_CONTEXT ( 3 ) GLOBAL_UNCERTAINTY_ASSIGNED_CONTEXT ( ( #101 ) ) GLOBAL_UNIT_ASSIGNED_CONTEXT ( ( #169, #145, #199 ) ) REPRESENTATION_CONTEXT ( 'NONE', 'WORKASPACE' ) );
#119 = ORIENTED_EDGE ( 'NONE', *, *, #157, .T. ) ;
#120 = ORIENTED_EDGE ( 'NONE', *, *, #94, .T. ) ;
#121 = DIRECTION ( 'NONE',  ( -0.7071067811865479058, 8.659560562354937789E-17, 0.7071067811865470176 ) ) ;
#122 = ORIENTED_EDGE ( 'NONE', *, *, #239, .F. ) ;
#123 = LENGTH_MEASURE_WITH_UNIT ( LENGTH_MEASURE( 0.02539999999999999897 ), #26 );
#124 = DIMENSIONAL_EXPONENTS ( 1.000000000000000000, 0.0000000000000000000, 0.0000000000000000000, 0.0000000000000000000, 0.0000000000000000000, 0.0000000000000000000, 0.0000000000000000000 ) ;
#125 = EDGE_LOOP ( 'NONE', ( #292, #213, #72, #320 ) ) ;
#126 = FILL_AREA_STYLE ('',( #78 ) ) ;
#127 = APPLICATION_CONTEXT ( 'automotive_design' ) ;
#128 = DIRECTION ( 'NONE',  ( 0.0000000000000000000, 0.0000000000000000000, -1.000000000000000000 ) ) ;
#129 = EDGE_CURVE ( 'NONE', #321, #293, #74, .T. ) ;
#130 = CARTESIAN_POINT ( 'NONE',  ( 0.0000000000000000000, 0.0000000000000000000, 2.500000000000000000 ) ) ;
#131 = CONICAL_SURFACE ( 'NONE', #40, 0.2499500000000001443, 0.7853981633974489451 ) ;
#132 = DIRECTION ( 'NONE',  ( 0.0000000000000000000, 0.0000000000000000000, 1.000000000000000000 ) ) ;
#133 = CARTESIAN_POINT ( 'NONE',  ( 0.0000000000000000000, 0.0000000000000000000, 1.165999999999999925 ) ) ;
#134 = CARTESIAN_POINT ( 'NONE',  ( 0.0000000000000000000, 0.0000000000000000000, 0.0000000000000000000 ) ) ;
#135 = AXIS2_PLACEMENT_3D ( 'NONE', #256, #205, #260 ) ;
#136 = CARTESIAN_POINT ( 'NONE',  ( -0.2499500000000001443, 3.061310836168596889E-17, 1.165999999999999925 ) ) ;
#137 = LINE ( 'NONE', #312, #22 ) ;
#138 = VECTOR ( 'NONE', #310, 39.37007874015748143 ) ;
#139 = ORIENTED_EDGE ( 'NONE', *, *, #129, .F. ) ;
#140 = ORIENTED_EDGE ( 'NONE', *, *, #266, .T. ) ;
#141 = LENGTH_MEASURE_WITH_UNIT ( LENGTH_MEASURE( 0.02539999999999999897 ), #275 );
#142 = ORIENTED_EDGE ( 'NONE', *, *, #129, .T. ) ;
#143 = DIRECTION ( 'NONE',  ( 0.7071067811865479058, 0.0000000000000000000, 0.7071067811865470176 ) ) ;
#144 = CLOSED_SHELL ( 'NONE', ( #206, #207, #75, #17, #61, #175, #7, #44, #18, #216, #181 ) ) ;
#145 =( NAMED_UNIT ( * ) PLANE_ANGLE_UNIT ( ) SI_UNIT ( $, .RADIAN. ) );
#146 = DIMENSIONAL_EXPONENTS ( 1.000000000000000000, 0.0000000000000000000, 0.0000000000000000000, 0.0000000000000000000, 0.0000000000000000000, 0.0000000000000000000, 0.0000000000000000000 ) ;
#147 = EDGE_CURVE ( 'NONE', #27, #42, #271, .T. ) ;
#148 = CARTESIAN_POINT ( 'NONE',  ( 0.2499500000000000888, 3.061004674468810760E-17, 0.0000000000000000000 ) ) ;
#149 = DIRECTION ( 'NONE',  ( 1.000000000000000000, 0.0000000000000000000, 0.0000000000000000000 ) ) ;
#150 = UNCERTAINTY_MEASURE_WITH_UNIT (LENGTH_MEASURE( 1.000000000000000082E-05 ), #270, 'distance_accuracy_value', 'NONE');
#151 = CARTESIAN_POINT ( 'NONE',  ( 0.0000000000000000000, 0.0000000000000000000, 0.0000000000000000000 ) ) ;
#152 = MECHANICAL_DESIGN_GEOMETRIC_PRESENTATION_REPRESENTATION (  '', ( #64 ), #118 ) ;
#153 = DIRECTION ( 'NONE',  ( -0.0000000000000000000, -0.0000000000000000000, -1.000000000000000000 ) ) ;
#154 = CYLINDRICAL_SURFACE ( 'NONE', #164, 0.2499500000000000888 ) ;
#155 = AXIS2_PLACEMENT_3D ( 'NONE', #133, #258, #107 ) ;
#156 = CYLINDRICAL_SURFACE ( 'NONE', #177, 0.2500000000000000000 ) ;
#157 = EDGE_CURVE ( 'NONE', #321, #42, #11, .T. ) ;
#158 = FILL_AREA_STYLE ('',( #19 ) ) ;
#159 = ORIENTED_EDGE ( 'NONE', *, *, #1, .F. ) ;
#160 = ORIENTED_EDGE ( 'NONE', *, *, #276, .T. ) ;
#161 = VERTEX_POINT ( 'NONE', #83 ) ;
#162 = ORIENTED_EDGE ( 'NONE', *, *, #253, .F. ) ;
#163 = ORIENTED_EDGE ( 'NONE', *, *, #157, .F. ) ;
#164 = AXIS2_PLACEMENT_3D ( 'NONE', #134, #208, #255 ) ;
#165 = EDGE_CURVE ( 'NONE', #217, #27, #248, .T. ) ;
#166 = DIRECTION ( 'NONE',  ( -0.0000000000000000000, -0.0000000000000000000, -1.000000000000000000 ) ) ;
#167 = FACE_OUTER_BOUND ( 'NONE', #20, .T. ) ;
#168 = VERTEX_POINT ( 'NONE', #279 ) ;
#169 =( CONVERSION_BASED_UNIT ( 'INCH', #141 ) LENGTH_UNIT ( ) NAMED_UNIT ( #300 ) );
#170 = AXIS2_PLACEMENT_3D ( 'NONE', #37, #313, #180 ) ;
#171 = FACE_OUTER_BOUND ( 'NONE', #222, .T. ) ;
#172 = AXIS2_PLACEMENT_3D ( 'NONE', #10, #57, #179 ) ;
#173 = DIRECTION ( 'NONE',  ( 1.000000000000000000, 0.0000000000000000000, -0.0000000000000000000 ) ) ;
#174 = DIRECTION ( 'NONE',  ( 1.000000000000000000, 0.0000000000000000000, 0.0000000000000000000 ) ) ;
#175 = ADVANCED_FACE ( 'NONE', ( #202 ), #156, .T. ) ;
#176 = DIRECTION ( 'NONE',  ( -1.000000000000000000, 0.0000000000000000000, 0.0000000000000000000 ) ) ;
#177 = AXIS2_PLACEMENT_3D ( 'NONE', #56, #86, #33 ) ;
#178 = DIRECTION ( 'NONE',  ( 0.0000000000000000000, 0.0000000000000000000, 1.000000000000000000 ) ) ;
#179 = DIRECTION ( 'NONE',  ( 1.000000000000000000, 0.0000000000000000000, 0.0000000000000000000 ) ) ;
#180 = DIRECTION ( 'NONE',  ( -1.000000000000000000, 0.0000000000000000000, 0.0000000000000000000 ) ) ;
#181 = ADVANCED_FACE ( 'NONE', ( #231 ), #85, .T. ) ;
#182 = EDGE_CURVE ( 'NONE', #161, #267, #232, .T. ) ;
#183 = DIRECTION ( 'NONE',  ( 1.000000000000000000, 0.0000000000000000000, 0.0000000000000000000 ) ) ;
#184 = CARTESIAN_POINT ( 'NONE',  ( -0.2500000000000000000, 0.0000000000000000000, 2.500000000000000000 ) ) ;
#185 = EDGE_LOOP ( 'NONE', ( #122, #92, #43 ) ) ;
#186 = EDGE_LOOP ( 'NONE', ( #226, #29, #160, #139 ) ) ;
#187 = AXIS2_PLACEMENT_3D ( 'NONE', #282, #233, #174 ) ;
#188 = AXIS2_PLACEMENT_3D ( 'NONE', #82, #194, #173 ) ;
#189 = ORIENTED_EDGE ( 'NONE', *, *, #253, .T. ) ;
#190 = ORIENTED_EDGE ( 'NONE', *, *, #182, .F. ) ;
#191 = CARTESIAN_POINT ( 'NONE',  ( 0.0000000000000000000, 0.0000000000000000000, 2.484999999999999876 ) ) ;
#192 = CONICAL_SURFACE ( 'NONE', #311, 0.2499500000000001443, 0.7853981633974489451 ) ;
#193 = FACE_OUTER_BOUND ( 'NONE', #125, .T. ) ;
#194 = DIRECTION ( 'NONE',  ( 0.0000000000000000000, 0.0000000000000000000, 1.000000000000000000 ) ) ;
#195 = ORIENTED_EDGE ( 'NONE', *, *, #230, .F. ) ;
#196 = AXIS2_PLACEMENT_3D ( 'NONE', #106, #200, #183 ) ;
#197 = DIRECTION ( 'NONE',  ( 0.0000000000000000000, 0.0000000000000000000, -1.000000000000000000 ) ) ;
#198 = PRESENTATION_LAYER_ASSIGNMENT (  '', '', ( #64 ) ) ;
#199 =( NAMED_UNIT ( * ) SI_UNIT ( $, .STERADIAN. ) SOLID_ANGLE_UNIT ( ) );
#200 = DIRECTION ( 'NONE',  ( -0.0000000000000000000, -0.0000000000000000000, -1.000000000000000000 ) ) ;
#201 = EDGE_CURVE ( 'NONE', #27, #217, #221, .T. ) ;
#202 = FACE_OUTER_BOUND ( 'NONE', #237, .T. ) ;
#203 = CARTESIAN_POINT ( 'NONE',  ( -0.2350000000000003753, 0.0000000000000000000, 2.500000000000000000 ) ) ;
#204 = CIRCLE ( 'NONE', #135, 0.2500000000000000000 ) ;
#205 = DIRECTION ( 'NONE',  ( -0.0000000000000000000, -0.0000000000000000000, -1.000000000000000000 ) ) ;
#206 = ADVANCED_FACE ( 'NONE', ( #9 ), #69, .T. ) ;
#207 = ADVANCED_FACE ( 'NONE', ( #110 ), #16, .T. ) ;
#208 = DIRECTION ( 'NONE',  ( -0.0000000000000000000, -0.0000000000000000000, -1.000000000000000000 ) ) ;
#209 = LINE ( 'NONE', #184, #287 ) ;
#210 = AXIS2_PLACEMENT_3D ( 'NONE', #65, #132, #309 ) ;
#211 = ORIENTED_EDGE ( 'NONE', *, *, #115, .T. ) ;
#212 = ORIENTED_EDGE ( 'NONE', *, *, #266, .F. ) ;
#213 = ORIENTED_EDGE ( 'NONE', *, *, #201, .F. ) ;
#214 = CIRCLE ( 'NONE', #14, 0.2499500000000000333 ) ;
#215 = ORIENTED_EDGE ( 'NONE', *, *, #5, .F. ) ;
#216 = ADVANCED_FACE ( 'NONE', ( #111 ), #154, .T. ) ;
#217 = VERTEX_POINT ( 'NONE', #136 ) ;
#218 =( NAMED_UNIT ( * ) SI_UNIT ( $, .STERADIAN. ) SOLID_ANGLE_UNIT ( ) );
#219 = DIRECTION ( 'NONE',  ( 0.0000000000000000000, 0.0000000000000000000, 1.000000000000000000 ) ) ;
#220 = PRESENTATION_STYLE_ASSIGNMENT (( #225 ) ) ;
#221 = CIRCLE ( 'NONE', #34, 0.2499500000000001443 ) ;
#222 = EDGE_LOOP ( 'NONE', ( #96, #45, #215, #39 ) ) ;
#223 =( LENGTH_UNIT ( ) NAMED_UNIT ( * ) SI_UNIT ( $, .METRE. ) );
#224 = CARTESIAN_POINT ( 'NONE',  ( -0.2499500000000001443, 3.061004674468811376E-17, 1.165999999999999925 ) ) ;
#225 = SURFACE_STYLE_USAGE ( .BOTH. , #30 ) ;
#226 = ORIENTED_EDGE ( 'NONE', *, *, #316, .F. ) ;
#227 = CIRCLE ( 'NONE', #196, 0.2500000000000000000 ) ;
#228 = DIRECTION ( 'NONE',  ( -1.000000000000000000, 0.0000000000000000000, 0.0000000000000000000 ) ) ;
#229 = COLOUR_RGB ( '',0.7921568627450980005, 0.8196078431372548767, 0.9333333333333333481 ) ;
#230 = EDGE_CURVE ( 'NONE', #42, #168, #204, .T. ) ;
#231 = FACE_OUTER_BOUND ( 'NONE', #4, .T. ) ;
#232 = LINE ( 'NONE', #87, #318 ) ;
#233 = DIRECTION ( 'NONE',  ( 0.0000000000000000000, 0.0000000000000000000, 1.000000000000000000 ) ) ;
#234 = PRODUCT_DEFINITION_FORMATION_WITH_SPECIFIED_SOURCE ( 'ANY', '', #264, .NOT_KNOWN. ) ;
#235 = CARTESIAN_POINT ( 'NONE',  ( 0.0000000000000000000, 0.0000000000000000000, 0.0000000000000000000 ) ) ;
#236 = AXIS2_PLACEMENT_3D ( 'NONE', #6, #274, #228 ) ;
#237 = EDGE_LOOP ( 'NONE', ( #163, #142, #291, #195 ) ) ;
#238 = EDGE_CURVE ( 'NONE', #323, #267, #117, .T. ) ;
#239 = EDGE_CURVE ( 'NONE', #161, #323, #108, .T. ) ;
#240 = EDGE_LOOP ( 'NONE', ( #265, #120, #140, #262 ) ) ;
#241 = CIRCLE ( 'NONE', #210, 0.2350000000000003753 ) ;
#242 = STYLED_ITEM ( 'NONE', ( #220 ), #285 ) ;
#243 = VERTEX_POINT ( 'NONE', #284 ) ;
#244 = DIRECTION ( 'NONE',  ( -1.000000000000000000, 0.0000000000000000000, 0.0000000000000000000 ) ) ;
#245 = CARTESIAN_POINT ( 'NONE',  ( 0.2499500000000000333, 3.061004674468810144E-17, 0.1501851117259377366 ) ) ;
#246 = VERTEX_POINT ( 'NONE', #203 ) ;
#247 = PRODUCT_DEFINITION_CONTEXT ( 'detailed design', #302, 'design' ) ;
#248 = CIRCLE ( 'NONE', #155, 0.2499500000000001443 ) ;
#249 = CARTESIAN_POINT ( 'NONE',  ( 0.2500000000000000000, 3.061616997868383018E-17, 1.166049999999999809 ) ) ;
#250 = LINE ( 'NONE', #224, #98 ) ;
#251 = APPLICATION_PROTOCOL_DEFINITION ( 'draft international standard', 'automotive_design', 1998, #127 ) ;
#252 = DIRECTION ( 'NONE',  ( 1.000000000000000000, 0.0000000000000000000, 0.0000000000000000000 ) ) ;
#253 = EDGE_CURVE ( 'NONE', #217, #267, #137, .T. ) ;
#254 = SURFACE_STYLE_FILL_AREA ( #126 ) ;
#255 = DIRECTION ( 'NONE',  ( -1.000000000000000000, 0.0000000000000000000, 0.0000000000000000000 ) ) ;
#256 = CARTESIAN_POINT ( 'NONE',  ( 0.0000000000000000000, 0.0000000000000000000, 1.166049999999999809 ) ) ;
#257 = DIRECTION ( 'NONE',  ( -0.0000000000000000000, -0.0000000000000000000, -1.000000000000000000 ) ) ;
#258 = DIRECTION ( 'NONE',  ( -0.0000000000000000000, -0.0000000000000000000, -1.000000000000000000 ) ) ;
#259 = VECTOR ( 'NONE', #299, 39.37007874015748143 ) ;
#260 = DIRECTION ( 'NONE',  ( 1.000000000000000000, 0.0000000000000000000, 0.0000000000000000000 ) ) ;
#261 = CARTESIAN_POINT ( 'NONE',  ( 0.2500000000000000000, 3.061616997868383018E-17, 2.484999999999999876 ) ) ;
#262 = ORIENTED_EDGE ( 'NONE', *, *, #147, .F. ) ;
#263 = ORIENTED_EDGE ( 'NONE', *, *, #304, .T. ) ;
#264 = PRODUCT ( 'Micro_SD-500', 'Micro_SD-500', '', ( #314 ) ) ;
#265 = ORIENTED_EDGE ( 'NONE', *, *, #165, .F. ) ;
#266 = EDGE_CURVE ( 'NONE', #168, #42, #227, .T. ) ;
#267 = VERTEX_POINT ( 'NONE', #15 ) ;
#268 = MECHANICAL_DESIGN_GEOMETRIC_PRESENTATION_REPRESENTATION (  '', ( #242 ), #90 ) ;
#269 = DIRECTION ( 'NONE',  ( 1.000000000000000000, 0.0000000000000000000, 0.0000000000000000000 ) ) ;
#270 =( CONVERSION_BASED_UNIT ( 'INCH', #123 ) LENGTH_UNIT ( ) NAMED_UNIT ( #124 ) );
#271 = LINE ( 'NONE', #48, #298 ) ;
#272 = DIRECTION ( 'NONE',  ( 0.7071067811865330288, 8.659560562354755364E-17, -0.7071067811865618946 ) ) ;
#273 = LINE ( 'NONE', #148, #259 ) ;
#274 = DIRECTION ( 'NONE',  ( -0.0000000000000000000, -0.0000000000000000000, -1.000000000000000000 ) ) ;
#275 =( LENGTH_UNIT ( ) NAMED_UNIT ( * ) SI_UNIT ( $, .METRE. ) );
#276 = EDGE_CURVE ( 'NONE', #246, #293, #315, .T. ) ;
#277 = PRODUCT_RELATED_PRODUCT_CATEGORY ( 'part', '', ( #264 ) ) ;
#278 = DIRECTION ( 'NONE',  ( 1.000000000000000000, 0.0000000000000000000, 0.0000000000000000000 ) ) ;
#279 = CARTESIAN_POINT ( 'NONE',  ( -0.2500000000000000000, 0.0000000000000000000, 1.166049999999999809 ) ) ;
#280 = AXIS2_PLACEMENT_3D ( 'NONE', #2, #128, #252 ) ;
#281 = CARTESIAN_POINT ( 'NONE',  ( 0.0000000000000000000, 0.0000000000000000000, 1.165999999999999925 ) ) ;
#282 = CARTESIAN_POINT ( 'NONE',  ( 0.0000000000000000000, 0.0000000000000000000, 39.37007874015748143 ) ) ;
#283 = SHAPE_DEFINITION_REPRESENTATION ( #289, #285 ) ;
#284 = CARTESIAN_POINT ( 'NONE',  ( 0.2350000000000003753, 2.969768487932332963E-17, 2.500000000000000000 ) ) ;
#285 = ADVANCED_BREP_SHAPE_REPRESENTATION ( 'Micro_SD-500', ( #307, #172 ), #105 ) ;
#286 = DIRECTION ( 'NONE',  ( -0.7071067811865330288, 0.0000000000000000000, -0.7071067811865618946 ) ) ;
#287 = VECTOR ( 'NONE', #67, 39.37007874015748143 ) ;
#288 = PRESENTATION_LAYER_ASSIGNMENT (  '', '', ( #242 ) ) ;
#289 = PRODUCT_DEFINITION_SHAPE ( 'NONE', 'NONE',  #71 ) ;
#290 = SURFACE_STYLE_USAGE ( .BOTH. , #91 ) ;
#291 = ORIENTED_EDGE ( 'NONE', *, *, #305, .T. ) ;
#292 = ORIENTED_EDGE ( 'NONE', *, *, #94, .F. ) ;
#293 = VERTEX_POINT ( 'NONE', #31 ) ;
#294 = AXIS2_PLACEMENT_3D ( 'NONE', #59, #178, #12 ) ;
#295 = ORIENTED_EDGE ( 'NONE', *, *, #36, .T. ) ;
#296 = DIRECTION ( 'NONE',  ( 0.0000000000000000000, 0.0000000000000000000, -1.000000000000000000 ) ) ;
#297 =( CONVERSION_BASED_UNIT ( 'INCH', #49 ) LENGTH_UNIT ( ) NAMED_UNIT ( #146 ) );
#298 = VECTOR ( 'NONE', #143, 39.37007874015748854 ) ;
#299 = DIRECTION ( 'NONE',  ( -0.0000000000000000000, -0.0000000000000000000, -1.000000000000000000 ) ) ;
#300 = DIMENSIONAL_EXPONENTS ( 1.000000000000000000, 0.0000000000000000000, 0.0000000000000000000, 0.0000000000000000000, 0.0000000000000000000, 0.0000000000000000000, 0.0000000000000000000 ) ;
#301 = DIRECTION ( 'NONE',  ( 0.0000000000000000000, 0.0000000000000000000, -1.000000000000000000 ) ) ;
#302 = APPLICATION_CONTEXT ( 'automotive_design' ) ;
#303 = PLANE ( 'NONE',  #188 ) ;
#304 = EDGE_CURVE ( 'NONE', #243, #246, #241, .T. ) ;
#305 = EDGE_CURVE ( 'NONE', #293, #168, #209, .T. ) ;
#306 = VECTOR ( 'NONE', #32, 39.37007874015748143 ) ;
#307 = MANIFOLD_SOLID_BREP ( 'Cut-Revolve2', #144 ) ;
#308 = DIRECTION ( 'NONE',  ( -1.000000000000000000, 0.0000000000000000000, 0.0000000000000000000 ) ) ;
#309 = DIRECTION ( 'NONE',  ( 1.000000000000000000, 0.0000000000000000000, 0.0000000000000000000 ) ) ;
#310 = DIRECTION ( 'NONE',  ( -0.0000000000000000000, -0.0000000000000000000, -1.000000000000000000 ) ) ;
#311 = AXIS2_PLACEMENT_3D ( 'NONE', #77, #103, #269 ) ;
#312 = CARTESIAN_POINT ( 'NONE',  ( -0.2499500000000000888, 0.0000000000000000000, 0.0000000000000000000 ) ) ;
#313 = DIRECTION ( 'NONE',  ( -0.0000000000000000000, -0.0000000000000000000, -1.000000000000000000 ) ) ;
#314 = PRODUCT_CONTEXT ( 'NONE', #127, 'mechanical' ) ;
#315 = LINE ( 'NONE', #88, #63 ) ;
#316 = EDGE_CURVE ( 'NONE', #243, #321, #47, .T. ) ;
#317 = SURFACE_STYLE_FILL_AREA ( #158 ) ;
#318 = VECTOR ( 'NONE', #84, 39.37007874015748143 ) ;
#319 = ORIENTED_EDGE ( 'NONE', *, *, #201, .T. ) ;
#320 = ORIENTED_EDGE ( 'NONE', *, *, #230, .T. ) ;
#321 = VERTEX_POINT ( 'NONE', #261 ) ;
#322 = CIRCLE ( 'NONE', #52, 0.2350000000000003753 ) ;
#323 = VERTEX_POINT ( 'NONE', #245 ) ;
ENDSEC;
END-ISO-10303-21;
