ISO-10303-21;
HEADER;
FILE_DESCRIPTION (( 'STEP AP214' ),
    '1' );
FILE_NAME ('59658.STEP',
    '2023-07-24T15:20:30',
    ( '' ),
    ( '' ),
    'SwSTEP 2.0',
    'SolidWorks 2023',
    '' );
FILE_SCHEMA (( 'AUTOMOTIVE_DESIGN' ));
ENDSEC;

DATA;
#1 = SURFACE_STYLE_USAGE ( .BOTH. , #313 ) ;
#2 =( NAMED_UNIT ( * ) SI_UNIT ( $, .STERADIAN. ) SOLID_ANGLE_UNIT ( ) );
#3 = ADVANCED_FACE ( 'NONE', ( #158 ), #77, .T. ) ;
#4 = MECHANICAL_DESIGN_GEOMETRIC_PRESENTATION_REPRESENTATION (  '', ( #284 ), #268 ) ;
#5 = AXIS2_PLACEMENT_3D ( 'NONE', #215, #334, #159 ) ;
#6 = DIRECTION ( 'NONE',  ( 0.000000000000000000, 0.000000000000000000, -1.000000000000000000 ) ) ;
#7 = UNCERTAINTY_MEASURE_WITH_UNIT (LENGTH_MEASURE( 1.000000000000000082E-05 ), #152, 'distance_accuracy_value', 'NONE');
#8 =( NAMED_UNIT ( * ) SI_UNIT ( $, .STERADIAN. ) SOLID_ANGLE_UNIT ( ) );
#9 = DIRECTION ( 'NONE',  ( -0.000000000000000000, -1.000000000000000000, -0.000000000000000000 ) ) ;
#10 = AXIS2_PLACEMENT_3D ( 'NONE', #106, #291, #197 ) ;
#11 = COLOUR_RGB ( '',1.000000000000000000, 0.000000000000000000, 0.000000000000000000 ) ;
#12 = TOROIDAL_SURFACE ( 'NONE', #67, 4.000000000000000000, 1.000000000000000000 ) ;
#13 = AXIS2_PLACEMENT_3D ( 'NONE', #294, #60, #196 ) ;
#14 =( NAMED_UNIT ( * ) PLANE_ANGLE_UNIT ( ) SI_UNIT ( $, .RADIAN. ) );
#15 = EDGE_LOOP ( 'NONE', ( #214, #185 ) ) ;
#16 = APPLICATION_CONTEXT ( 'automotive_design' ) ;
#17 = SHAPE_DEFINITION_REPRESENTATION ( #210, #124 ) ;
#18 = EDGE_CURVE ( 'NONE', #276, #299, #202, .T. ) ;
#19 = ORIENTED_EDGE ( 'NONE', *, *, #29, .F. ) ;
#20 = DIRECTION ( 'NONE',  ( -1.000000000000000000, 0.000000000000000000, 0.000000000000000000 ) ) ;
#21 = ORIENTED_EDGE ( 'NONE', *, *, #331, .T. ) ;
#22 = MECHANICAL_DESIGN_GEOMETRIC_PRESENTATION_REPRESENTATION (  '', ( #316 ), #117 ) ;
#23 = UNCERTAINTY_MEASURE_WITH_UNIT (LENGTH_MEASURE( 1.000000000000000082E-05 ), #332, 'distance_accuracy_value', 'NONE');
#24 = ORIENTED_EDGE ( 'NONE', *, *, #301, .T. ) ;
#25 = DIRECTION ( 'NONE',  ( -0.000000000000000000, -1.000000000000000000, -0.000000000000000000 ) ) ;
#26 = ORIENTED_EDGE ( 'NONE', *, *, #255, .T. ) ;
#27 = CARTESIAN_POINT ( 'NONE',  ( 3.184081677783117402E-15, 63.00000000000000000, 0.000000000000000000 ) ) ;
#28 = DIRECTION ( 'NONE',  ( -1.000000000000000000, 0.000000000000000000, 0.000000000000000000 ) ) ;
#29 = EDGE_CURVE ( 'NONE', #47, #247, #216, .T. ) ;
#30 = PLANE ( 'NONE',  #156 ) ;
#31 = DIRECTION ( 'NONE',  ( -0.000000000000000000, -1.000000000000000000, -0.000000000000000000 ) ) ;
#32 = PRESENTATION_STYLE_ASSIGNMENT (( #258 ) ) ;
#33 = PRESENTATION_STYLE_ASSIGNMENT (( #53 ) ) ;
#34 = ADVANCED_FACE ( 'NONE', ( #340 ), #109, .T. ) ;
#35 = DIRECTION ( 'NONE',  ( -1.000000000000000000, 0.000000000000000000, 0.000000000000000000 ) ) ;
#36 = SURFACE_SIDE_STYLE ('',( #353 ) ) ;
#37 = MANIFOLD_SOLID_BREP ( 'Revolve - Tool Body (Straight Shanked)', #224 ) ;
#38 =( NAMED_UNIT ( * ) PLANE_ANGLE_UNIT ( ) SI_UNIT ( $, .RADIAN. ) );
#39 = CYLINDRICAL_SURFACE ( 'NONE', #55, 4.999999999999995559 ) ;
#40 = CARTESIAN_POINT ( 'NONE',  ( 0.000000000000000000, 1.000000000000000000, 0.000000000000000000 ) ) ;
#41 = FILL_AREA_STYLE ('',( #265 ) ) ;
#42 = AXIS2_PLACEMENT_3D ( 'NONE', #239, #120, #356 ) ;
#43 = FACE_OUTER_BOUND ( 'NONE', #96, .T. ) ;
#44 = EDGE_CURVE ( 'NONE', #247, #47, #150, .T. ) ;
#45 = ORIENTED_EDGE ( 'NONE', *, *, #18, .F. ) ;
#46 = EDGE_CURVE ( 'NONE', #155, #47, #319, .T. ) ;
#47 = VERTEX_POINT ( 'NONE', #164 ) ;
#48 = CARTESIAN_POINT ( 'NONE',  ( 0.000000000000000000, 0.000000000000000000, 0.000000000000000000 ) ) ;
#49 = PRESENTATION_LAYER_ASSIGNMENT (  '', '', ( #284 ) ) ;
#50 =( NAMED_UNIT ( * ) PLANE_ANGLE_UNIT ( ) SI_UNIT ( $, .RADIAN. ) );
#51 = FILL_AREA_STYLE_COLOUR ( '', #81 ) ;
#52 = DIRECTION ( 'NONE',  ( 0.000000000000000000, 0.000000000000000000, 1.000000000000000000 ) ) ;
#53 = SURFACE_STYLE_USAGE ( .BOTH. , #346 ) ;
#54 = DIRECTION ( 'NONE',  ( -4.697880814296055710E-17, 1.000000000000000000, -0.000000000000000000 ) ) ;
#55 = AXIS2_PLACEMENT_3D ( 'NONE', #320, #54, #166 ) ;
#56 = UNCERTAINTY_MEASURE_WITH_UNIT (LENGTH_MEASURE( 1.000000000000000082E-05 ), #142, 'distance_accuracy_value', 'NONE');
#57 = CARTESIAN_POINT ( 'NONE',  ( 0.000000000000000000, 1.000000000000000000, -5.000000000000000000 ) ) ;
#58 = CARTESIAN_POINT ( 'NONE',  ( 0.000000000000000000, 0.000000000000000000, 0.000000000000000000 ) ) ;
#59 = SURFACE_SIDE_STYLE ('',( #315 ) ) ;
#60 = DIRECTION ( 'NONE',  ( -4.697880814296055710E-17, 1.000000000000000000, -0.000000000000000000 ) ) ;
#61 = STYLED_ITEM ( 'NONE', ( #335 ), #3 ) ;
#62 = STYLED_ITEM ( 'NONE', ( #63 ), #148 ) ;
#63 = PRESENTATION_STYLE_ASSIGNMENT (( #324 ) ) ;
#64 = EDGE_LOOP ( 'NONE', ( #228, #242, #24, #126 ) ) ;
#65 =( LENGTH_UNIT ( ) NAMED_UNIT ( * ) SI_UNIT ( .MILLI., .METRE. ) );
#66 = EDGE_CURVE ( 'NONE', #90, #357, #302, .T. ) ;
#67 = AXIS2_PLACEMENT_3D ( 'NONE', #40, #241, #262 ) ;
#68 = ORIENTED_EDGE ( 'NONE', *, *, #175, .F. ) ;
#69 = CARTESIAN_POINT ( 'NONE',  ( 0.000000000000000000, 0.000000000000000000, -4.000000000000000000 ) ) ;
#70 = EDGE_LOOP ( 'NONE', ( #305, #181 ) ) ;
#71 = CARTESIAN_POINT ( 'NONE',  ( -4.999999999999989342, 20.00000000000000355, 0.000000000000000000 ) ) ;
#72 = ORIENTED_EDGE ( 'NONE', *, *, #66, .T. ) ;
#73 =( LENGTH_UNIT ( ) NAMED_UNIT ( * ) SI_UNIT ( .MILLI., .METRE. ) );
#74 = DIRECTION ( 'NONE',  ( -0.000000000000000000, -1.000000000000000000, -0.000000000000000000 ) ) ;
#75 = MECHANICAL_DESIGN_GEOMETRIC_PRESENTATION_REPRESENTATION (  '', ( #137 ), #290 ) ;
#76 = CIRCLE ( 'NONE', #338, 5.000000000000000000 ) ;
#77 = PLANE ( 'NONE',  #149 ) ;
#78 = DIRECTION ( 'NONE',  ( -4.697880814296055710E-17, 1.000000000000000000, -0.000000000000000000 ) ) ;
#79 = LINE ( 'NONE', #250, #309 ) ;
#80 = DIRECTION ( 'NONE',  ( 4.697880814296055710E-17, -1.000000000000000000, 0.000000000000000000 ) ) ;
#81 = COLOUR_RGB ( '',0.7921568627450980005, 0.8196078431372548767, 0.9333333333333333481 ) ;
#82 = STYLED_ITEM ( 'NONE', ( #194 ), #240 ) ;
#83 = APPLICATION_CONTEXT ( 'automotive_design' ) ;
#84 = FILL_AREA_STYLE_COLOUR ( '', #329 ) ;
#85 = ORIENTED_EDGE ( 'NONE', *, *, #341, .F. ) ;
#86 = CARTESIAN_POINT ( 'NONE',  ( 4.999999999999999112, 63.00000000000000000, 6.123233995736761352E-16 ) ) ;
#87 =( LENGTH_UNIT ( ) NAMED_UNIT ( * ) SI_UNIT ( .MILLI., .METRE. ) );
#88 =( LENGTH_UNIT ( ) NAMED_UNIT ( * ) SI_UNIT ( .MILLI., .METRE. ) );
#89 = CARTESIAN_POINT ( 'NONE',  ( 0.000000000000000000, 20.00000000000000000, -5.000000000000000000 ) ) ;
#90 = VERTEX_POINT ( 'NONE', #57 ) ;
#91 = COLOUR_RGB ( '',1.000000000000000000, 0.000000000000000000, 0.000000000000000000 ) ;
#92 =( NAMED_UNIT ( * ) PLANE_ANGLE_UNIT ( ) SI_UNIT ( $, .RADIAN. ) );
#93 = ORIENTED_EDGE ( 'NONE', *, *, #182, .T. ) ;
#94 = CIRCLE ( 'NONE', #245, 4.999999999999994671 ) ;
#95 = EDGE_LOOP ( 'NONE', ( #177, #361, #249, #220 ) ) ;
#96 = EDGE_LOOP ( 'NONE', ( #72, #333, #85, #68 ) ) ;
#97 = EDGE_LOOP ( 'NONE', ( #93, #183, #244, #274 ) ) ;
#98 = COLOUR_RGB ( '',1.000000000000000000, 0.000000000000000000, 0.000000000000000000 ) ;
#99 = STYLED_ITEM ( 'NONE', ( #33 ), #37 ) ;
#100 = ORIENTED_EDGE ( 'NONE', *, *, #46, .F. ) ;
#101 = AXIS2_PLACEMENT_3D ( 'NONE', #354, #52, #288 ) ;
#102 = PLANE ( 'NONE',  #5 ) ;
#103 = UNCERTAINTY_MEASURE_WITH_UNIT (LENGTH_MEASURE( 1.000000000000000082E-05 ), #88, 'distance_accuracy_value', 'NONE');
#104 = ADVANCED_FACE ( 'NONE', ( #256 ), #30, .F. ) ;
#105 = DIRECTION ( 'NONE',  ( -4.697880814296055710E-17, 1.000000000000000000, -0.000000000000000000 ) ) ;
#106 = CARTESIAN_POINT ( 'NONE',  ( 0.000000000000000000, 0.000000000000000000, 0.000000000000000000 ) ) ;
#107 = CARTESIAN_POINT ( 'NONE',  ( 6.123233995736766282E-16, 20.00000000000000000, 5.000000000000000000 ) ) ;
#108 = ORIENTED_EDGE ( 'NONE', *, *, #223, .T. ) ;
#109 = CYLINDRICAL_SURFACE ( 'NONE', #10, 5.000000000000000000 ) ;
#110 = PRESENTATION_LAYER_ASSIGNMENT (  '', '', ( #99 ) ) ;
#111 = CARTESIAN_POINT ( 'NONE',  ( 0.000000000000000000, 1.000000000000000000, 0.000000000000000000 ) ) ;
#112 = CIRCLE ( 'NONE', #132, 5.000000000000000000 ) ;
#113 =( NAMED_UNIT ( * ) SI_UNIT ( $, .STERADIAN. ) SOLID_ANGLE_UNIT ( ) );
#114 = CARTESIAN_POINT ( 'NONE',  ( 5.000000000000000000, 20.00000000000000355, 6.123233995736762338E-16 ) ) ;
#115 = DIRECTION ( 'NONE',  ( -0.000000000000000000, -1.000000000000000000, -0.000000000000000000 ) ) ;
#116 = SURFACE_STYLE_USAGE ( .BOTH. , #178 ) ;
#117 =( GEOMETRIC_REPRESENTATION_CONTEXT ( 3 ) GLOBAL_UNCERTAINTY_ASSIGNED_CONTEXT ( ( #56 ) ) GLOBAL_UNIT_ASSIGNED_CONTEXT ( ( #142, #170, #8 ) ) REPRESENTATION_CONTEXT ( 'NONE', 'WORKASPACE' ) );
#118 = AXIS2_PLACEMENT_3D ( 'NONE', #234, #201, #261 ) ;
#119 = SURFACE_SIDE_STYLE ('',( #176 ) ) ;
#120 = DIRECTION ( 'NONE',  ( 0.000000000000000000, 1.000000000000000000, 0.000000000000000000 ) ) ;
#121 = EDGE_LOOP ( 'NONE', ( #100, #26, #108, #19 ) ) ;
#122 = FILL_AREA_STYLE ('',( #154 ) ) ;
#123 = EDGE_LOOP ( 'NONE', ( #330, #21, #312, #45 ) ) ;
#124 = ADVANCED_BREP_SHAPE_REPRESENTATION ( '59658', ( #153, #37, #101 ), #151 ) ;
#125 = CYLINDRICAL_SURFACE ( 'NONE', #188, 5.000000000000000000 ) ;
#126 = ORIENTED_EDGE ( 'NONE', *, *, #331, .F. ) ;
#127 = DIRECTION ( 'NONE',  ( 0.000000000000000000, 0.000000000000000000, -1.000000000000000000 ) ) ;
#128 = ORIENTED_EDGE ( 'NONE', *, *, #44, .T. ) ;
#129 = LINE ( 'NONE', #339, #230 ) ;
#130 = EDGE_CURVE ( 'NONE', #357, #276, #187, .T. ) ;
#131 = COLOUR_RGB ( '',1.000000000000000000, 0.000000000000000000, 0.000000000000000000 ) ;
#132 = AXIS2_PLACEMENT_3D ( 'NONE', #227, #209, #303 ) ;
#133 = CARTESIAN_POINT ( 'NONE',  ( 0.000000000000000000, 1.000000000000000000, 0.000000000000000000 ) ) ;
#134 = DIRECTION ( 'NONE',  ( 1.000000000000000000, 0.000000000000000000, -1.224646799147353207E-16 ) ) ;
#135 =( LENGTH_UNIT ( ) NAMED_UNIT ( * ) SI_UNIT ( .MILLI., .METRE. ) );
#136 =( NAMED_UNIT ( * ) PLANE_ANGLE_UNIT ( ) SI_UNIT ( $, .RADIAN. ) );
#137 = STYLED_ITEM ( 'NONE', ( #298 ), #143 ) ;
#138 = MECHANICAL_DESIGN_GEOMETRIC_PRESENTATION_REPRESENTATION (  '', ( #82 ), #144 ) ;
#139 = CARTESIAN_POINT ( 'NONE',  ( 0.000000000000000000, 0.000000000000000000, -5.000000000000000000 ) ) ;
#140 = CARTESIAN_POINT ( 'NONE',  ( 3.184081677783117402E-15, 63.00000000000000000, 0.000000000000000000 ) ) ;
#141 = CARTESIAN_POINT ( 'NONE',  ( 6.123233995736766282E-16, 1.000000000000000000, 5.000000000000000000 ) ) ;
#142 =( LENGTH_UNIT ( ) NAMED_UNIT ( * ) SI_UNIT ( .MILLI., .METRE. ) );
#143 = ADVANCED_FACE ( 'NONE', ( #257 ), #345, .T. ) ;
#144 =( GEOMETRIC_REPRESENTATION_CONTEXT ( 3 ) GLOBAL_UNCERTAINTY_ASSIGNED_CONTEXT ( ( #311 ) ) GLOBAL_UNIT_ASSIGNED_CONTEXT ( ( #135, #50, #343 ) ) REPRESENTATION_CONTEXT ( 'NONE', 'WORKASPACE' ) );
#145 = UNCERTAINTY_MEASURE_WITH_UNIT (LENGTH_MEASURE( 1.000000000000000082E-05 ), #65, 'distance_accuracy_value', 'NONE');
#146 = SURFACE_STYLE_USAGE ( .BOTH. , #119 ) ;
#147 = FILL_AREA_STYLE ('',( #84 ) ) ;
#148 = ADVANCED_FACE ( 'NONE', ( #328 ), #12, .T. ) ;
#149 = AXIS2_PLACEMENT_3D ( 'NONE', #279, #251, #217 ) ;
#150 = CIRCLE ( 'NONE', #225, 4.999999999999996447 ) ;
#151 =( GEOMETRIC_REPRESENTATION_CONTEXT ( 3 ) GLOBAL_UNCERTAINTY_ASSIGNED_CONTEXT ( ( #280 ) ) GLOBAL_UNIT_ASSIGNED_CONTEXT ( ( #87, #38, #171 ) ) REPRESENTATION_CONTEXT ( 'NONE', 'WORKASPACE' ) );
#152 =( LENGTH_UNIT ( ) NAMED_UNIT ( * ) SI_UNIT ( .MILLI., .METRE. ) );
#153 = MANIFOLD_SOLID_BREP ( 'Revolve - Cutting Edge', #289 ) ;
#154 = FILL_AREA_STYLE_COLOUR ( '', #11 ) ;
#155 = VERTEX_POINT ( 'NONE', #114 ) ;
#156 = AXIS2_PLACEMENT_3D ( 'NONE', #342, #80, #226 ) ;
#157 = AXIS2_PLACEMENT_3D ( 'NONE', #58, #169, #264 ) ;
#158 = FACE_OUTER_BOUND ( 'NONE', #190, .T. ) ;
#159 = DIRECTION ( 'NONE',  ( -1.000000000000000000, -4.697880814296055710E-17, 0.000000000000000000 ) ) ;
#160 = VERTEX_POINT ( 'NONE', #89 ) ;
#161 = DIRECTION ( 'NONE',  ( -0.000000000000000000, -1.000000000000000000, -0.000000000000000000 ) ) ;
#162 = FACE_OUTER_BOUND ( 'NONE', #95, .T. ) ;
#163 = AXIS2_PLACEMENT_3D ( 'NONE', #263, #213, #282 ) ;
#164 = CARTESIAN_POINT ( 'NONE',  ( 5.000000000000000000, 63.00000000000000000, 6.123233995736762338E-16 ) ) ;
#165 = DIRECTION ( 'NONE',  ( 0.000000000000000000, 0.000000000000000000, -1.000000000000000000 ) ) ;
#166 = DIRECTION ( 'NONE',  ( -1.000000000000000000, 0.000000000000000000, 0.000000000000000000 ) ) ;
#167 = AXIS2_PLACEMENT_3D ( 'NONE', #48, #161, #281 ) ;
#168 = CIRCLE ( 'NONE', #157, 4.000000000000000000 ) ;
#169 = DIRECTION ( 'NONE',  ( -0.000000000000000000, -1.000000000000000000, -0.000000000000000000 ) ) ;
#170 =( NAMED_UNIT ( * ) PLANE_ANGLE_UNIT ( ) SI_UNIT ( $, .RADIAN. ) );
#171 =( NAMED_UNIT ( * ) SI_UNIT ( $, .STERADIAN. ) SOLID_ANGLE_UNIT ( ) );
#172 =( NAMED_UNIT ( * ) SI_UNIT ( $, .STERADIAN. ) SOLID_ANGLE_UNIT ( ) );
#173 = APPLICATION_PROTOCOL_DEFINITION ( 'draft international standard', 'automotive_design', 1998, #83 ) ;
#174 = STYLED_ITEM ( 'NONE', ( #304 ), #293 ) ;
#175 = EDGE_CURVE ( 'NONE', #90, #299, #317, .T. ) ;
#176 = SURFACE_STYLE_FILL_AREA ( #147 ) ;
#177 = ORIENTED_EDGE ( 'NONE', *, *, #204, .T. ) ;
#178 = SURFACE_SIDE_STYLE ('',( #206 ) ) ;
#179 = MECHANICAL_DESIGN_GEOMETRIC_PRESENTATION_REPRESENTATION (  '', ( #62 ), #219 ) ;
#180 = COLOUR_RGB ( '',1.000000000000000000, 0.000000000000000000, 0.000000000000000000 ) ;
#181 = ORIENTED_EDGE ( 'NONE', *, *, #259, .F. ) ;
#182 = EDGE_CURVE ( 'NONE', #211, #155, #360, .T. ) ;
#183 = ORIENTED_EDGE ( 'NONE', *, *, #46, .T. ) ;
#184 = CARTESIAN_POINT ( 'NONE',  ( 5.204170427930421283E-15, 20.00000000000000355, 0.000000000000000000 ) ) ;
#185 = ORIENTED_EDGE ( 'NONE', *, *, #255, .F. ) ;
#186 = PRODUCT_DEFINITION_CONTEXT ( 'detailed design', #16, 'design' ) ;
#187 = CIRCLE ( 'NONE', #308, 1.000000000000000000 ) ;
#188 = AXIS2_PLACEMENT_3D ( 'NONE', #246, #31, #286 ) ;
#189 = FILL_AREA_STYLE ('',( #278 ) ) ;
#190 = EDGE_LOOP ( 'NONE', ( #306, #233 ) ) ;
#191 = SURFACE_STYLE_FILL_AREA ( #252 ) ;
#192 = AXIS2_PLACEMENT_3D ( 'NONE', #368, #336, #28 ) ;
#193 = CARTESIAN_POINT ( 'NONE',  ( 4.898587196589412829E-16, 1.000000000000000000, 4.000000000000000000 ) ) ;
#194 = PRESENTATION_STYLE_ASSIGNMENT (( #1 ) ) ;
#195 = DIRECTION ( 'NONE',  ( -1.224646799147353454E-16, 0.000000000000000000, -1.000000000000000000 ) ) ;
#196 = DIRECTION ( 'NONE',  ( -1.000000000000000000, 0.000000000000000000, 0.000000000000000000 ) ) ;
#197 = DIRECTION ( 'NONE',  ( 0.000000000000000000, 0.000000000000000000, -1.000000000000000000 ) ) ;
#198 = UNCERTAINTY_MEASURE_WITH_UNIT (LENGTH_MEASURE( 1.000000000000000082E-05 ), #73, 'distance_accuracy_value', 'NONE');
#199 = ADVANCED_FACE ( 'NONE', ( #253 ), #102, .F. ) ;
#200 = LINE ( 'NONE', #139, #314 ) ;
#201 = DIRECTION ( 'NONE',  ( -0.000000000000000000, -1.000000000000000000, -0.000000000000000000 ) ) ;
#202 = CIRCLE ( 'NONE', #167, 4.000000000000000000 ) ;
#203 = AXIS2_PLACEMENT_3D ( 'NONE', #307, #25, #127 ) ;
#204 = EDGE_CURVE ( 'NONE', #160, #347, #318, .T. ) ;
#205 = PRODUCT_CONTEXT ( 'NONE', #83, 'mechanical' ) ;
#206 = SURFACE_STYLE_FILL_AREA ( #41 ) ;
#207 = EDGE_CURVE ( 'NONE', #347, #357, #79, .T. ) ;
#208 =( GEOMETRIC_REPRESENTATION_CONTEXT ( 3 ) GLOBAL_UNCERTAINTY_ASSIGNED_CONTEXT ( ( #198 ) ) GLOBAL_UNIT_ASSIGNED_CONTEXT ( ( #73, #136, #362 ) ) REPRESENTATION_CONTEXT ( 'NONE', 'WORKASPACE' ) );
#209 = DIRECTION ( 'NONE',  ( -0.000000000000000000, -1.000000000000000000, -0.000000000000000000 ) ) ;
#210 = PRODUCT_DEFINITION_SHAPE ( 'NONE', 'NONE',  #272 ) ;
#211 = VERTEX_POINT ( 'NONE', #71 ) ;
#212 = SURFACE_STYLE_FILL_AREA ( #122 ) ;
#213 = DIRECTION ( 'NONE',  ( -1.000000000000000000, 0.000000000000000000, 0.000000000000000000 ) ) ;
#214 = ORIENTED_EDGE ( 'NONE', *, *, #182, .F. ) ;
#215 = CARTESIAN_POINT ( 'NONE',  ( 5.204170427930421283E-15, 20.00000000000000000, 0.000000000000000000 ) ) ;
#216 = CIRCLE ( 'NONE', #267, 4.999999999999996447 ) ;
#217 = DIRECTION ( 'NONE',  ( 0.000000000000000000, 0.000000000000000000, -1.000000000000000000 ) ) ;
#218 = VECTOR ( 'NONE', #321, 1000.000000000000000 ) ;
#219 =( GEOMETRIC_REPRESENTATION_CONTEXT ( 3 ) GLOBAL_UNCERTAINTY_ASSIGNED_CONTEXT ( ( #7 ) ) GLOBAL_UNIT_ASSIGNED_CONTEXT ( ( #152, #14, #271 ) ) REPRESENTATION_CONTEXT ( 'NONE', 'WORKASPACE' ) );
#220 = ORIENTED_EDGE ( 'NONE', *, *, #301, .F. ) ;
#221 = DIRECTION ( 'NONE',  ( -1.000000000000000000, 0.000000000000000000, 0.000000000000000000 ) ) ;
#222 = DIRECTION ( 'NONE',  ( -0.000000000000000000, -1.000000000000000000, -0.000000000000000000 ) ) ;
#223 = EDGE_CURVE ( 'NONE', #211, #247, #129, .T. ) ;
#224 = CLOSED_SHELL ( 'NONE', ( #358, #199, #322, #104 ) ) ;
#225 = AXIS2_PLACEMENT_3D ( 'NONE', #140, #260, #35 ) ;
#226 = DIRECTION ( 'NONE',  ( 1.000000000000000000, 4.697880814296055710E-17, 0.000000000000000000 ) ) ;
#227 = CARTESIAN_POINT ( 'NONE',  ( 0.000000000000000000, 20.00000000000000000, 0.000000000000000000 ) ) ;
#228 = ORIENTED_EDGE ( 'NONE', *, *, #207, .F. ) ;
#229 = SURFACE_STYLE_FILL_AREA ( #285 ) ;
#230 = VECTOR ( 'NONE', #78, 1000.000000000000000 ) ;
#231 = CYLINDRICAL_SURFACE ( 'NONE', #13, 4.999999999999995559 ) ;
#232 = FACE_OUTER_BOUND ( 'NONE', #97, .T. ) ;
#233 = ORIENTED_EDGE ( 'NONE', *, *, #18, .T. ) ;
#234 = CARTESIAN_POINT ( 'NONE',  ( 0.000000000000000000, 1.000000000000000000, 0.000000000000000000 ) ) ;
#235 = PRESENTATION_STYLE_ASSIGNMENT (( #116 ) ) ;
#236 = AXIS2_PLACEMENT_3D ( 'NONE', #133, #222, #165 ) ;
#237 = APPLICATION_PROTOCOL_DEFINITION ( 'draft international standard', 'automotive_design', 1998, #16 ) ;
#238 =( GEOMETRIC_REPRESENTATION_CONTEXT ( 3 ) GLOBAL_UNCERTAINTY_ASSIGNED_CONTEXT ( ( #23 ) ) GLOBAL_UNIT_ASSIGNED_CONTEXT ( ( #332, #297, #349 ) ) REPRESENTATION_CONTEXT ( 'NONE', 'WORKASPACE' ) );
#239 = CARTESIAN_POINT ( 'NONE',  ( 0.000000000000000000, 20.00000000000000000, 0.000000000000000000 ) ) ;
#240 = ADVANCED_FACE ( 'NONE', ( #162 ), #125, .T. ) ;
#241 = DIRECTION ( 'NONE',  ( -0.000000000000000000, -1.000000000000000000, -0.000000000000000000 ) ) ;
#242 = ORIENTED_EDGE ( 'NONE', *, *, #259, .T. ) ;
#243 = SURFACE_STYLE_USAGE ( .BOTH. , #273 ) ;
#244 = ORIENTED_EDGE ( 'NONE', *, *, #44, .F. ) ;
#245 = AXIS2_PLACEMENT_3D ( 'NONE', #184, #105, #20 ) ;
#246 = CARTESIAN_POINT ( 'NONE',  ( 0.000000000000000000, 0.000000000000000000, 0.000000000000000000 ) ) ;
#247 = VERTEX_POINT ( 'NONE', #275 ) ;
#248 = CARTESIAN_POINT ( 'NONE',  ( 5.510910596163088569E-16, 0.000000000000000000, 4.000000000000000000 ) ) ;
#249 = ORIENTED_EDGE ( 'NONE', *, *, #66, .F. ) ;
#250 = CARTESIAN_POINT ( 'NONE',  ( 6.123233995736766282E-16, 0.000000000000000000, 5.000000000000000000 ) ) ;
#251 = DIRECTION ( 'NONE',  ( 0.000000000000000000, -1.000000000000000000, -0.000000000000000000 ) ) ;
#252 = FILL_AREA_STYLE ('',( #326 ) ) ;
#253 = FACE_OUTER_BOUND ( 'NONE', #15, .T. ) ;
#254 = SURFACE_STYLE_USAGE ( .BOTH. , #369 ) ;
#255 = EDGE_CURVE ( 'NONE', #155, #211, #94, .T. ) ;
#256 = FACE_OUTER_BOUND ( 'NONE', #363, .T. ) ;
#257 = FACE_OUTER_BOUND ( 'NONE', #70, .T. ) ;
#258 = SURFACE_STYLE_USAGE ( .BOTH. , #59 ) ;
#259 = EDGE_CURVE ( 'NONE', #347, #160, #112, .T. ) ;
#260 = DIRECTION ( 'NONE',  ( -4.697880814296055710E-17, 1.000000000000000000, -0.000000000000000000 ) ) ;
#261 = DIRECTION ( 'NONE',  ( 0.000000000000000000, 0.000000000000000000, -1.000000000000000000 ) ) ;
#262 = DIRECTION ( 'NONE',  ( 0.000000000000000000, 0.000000000000000000, -1.000000000000000000 ) ) ;
#263 = CARTESIAN_POINT ( 'NONE',  ( 0.000000000000000000, 1.000000000000000000, -4.000000000000000000 ) ) ;
#264 = DIRECTION ( 'NONE',  ( 0.000000000000000000, 0.000000000000000000, -1.000000000000000000 ) ) ;
#265 = FILL_AREA_STYLE_COLOUR ( '', #277 ) ;
#266 = FILL_AREA_STYLE_COLOUR ( '', #131 ) ;
#267 = AXIS2_PLACEMENT_3D ( 'NONE', #27, #366, #221 ) ;
#268 =( GEOMETRIC_REPRESENTATION_CONTEXT ( 3 ) GLOBAL_UNCERTAINTY_ASSIGNED_CONTEXT ( ( #103 ) ) GLOBAL_UNIT_ASSIGNED_CONTEXT ( ( #88, #352, #113 ) ) REPRESENTATION_CONTEXT ( 'NONE', 'WORKASPACE' ) );
#269 = PRESENTATION_LAYER_ASSIGNMENT (  '', '', ( #174 ) ) ;
#270 = MECHANICAL_DESIGN_GEOMETRIC_PRESENTATION_REPRESENTATION (  '', ( #174 ), #238 ) ;
#271 =( NAMED_UNIT ( * ) SI_UNIT ( $, .STERADIAN. ) SOLID_ANGLE_UNIT ( ) );
#272 = PRODUCT_DEFINITION ( 'UNKNOWN', '', #327, #186 ) ;
#273 = SURFACE_SIDE_STYLE ('',( #212 ) ) ;
#274 = ORIENTED_EDGE ( 'NONE', *, *, #223, .F. ) ;
#275 = CARTESIAN_POINT ( 'NONE',  ( -4.999999999999992895, 63.00000000000000000, 0.000000000000000000 ) ) ;
#276 = VERTEX_POINT ( 'NONE', #248 ) ;
#277 = COLOUR_RGB ( '',0.7921568627450980005, 0.8196078431372548767, 0.9333333333333333481 ) ;
#278 = FILL_AREA_STYLE_COLOUR ( '', #91 ) ;
#279 = CARTESIAN_POINT ( 'NONE',  ( 0.000000000000000000, 0.000000000000000000, 0.000000000000000000 ) ) ;
#280 = UNCERTAINTY_MEASURE_WITH_UNIT (LENGTH_MEASURE( 1.000000000000000082E-05 ), #87, 'distance_accuracy_value', 'NONE');
#281 = DIRECTION ( 'NONE',  ( 0.000000000000000000, 0.000000000000000000, -1.000000000000000000 ) ) ;
#282 = DIRECTION ( 'NONE',  ( 0.000000000000000000, 0.000000000000000000, 1.000000000000000000 ) ) ;
#283 = MECHANICAL_DESIGN_GEOMETRIC_PRESENTATION_REPRESENTATION (  '', ( #61 ), #208 ) ;
#284 = STYLED_ITEM ( 'NONE', ( #235 ), #153 ) ;
#285 = FILL_AREA_STYLE ('',( #51 ) ) ;
#286 = DIRECTION ( 'NONE',  ( 0.000000000000000000, 0.000000000000000000, -1.000000000000000000 ) ) ;
#287 = FILL_AREA_STYLE_COLOUR ( '', #98 ) ;
#288 = DIRECTION ( 'NONE',  ( 1.000000000000000000, 0.000000000000000000, 0.000000000000000000 ) ) ;
#289 = CLOSED_SHELL ( 'NONE', ( #240, #293, #3, #148, #34, #143 ) ) ;
#290 =( GEOMETRIC_REPRESENTATION_CONTEXT ( 3 ) GLOBAL_UNCERTAINTY_ASSIGNED_CONTEXT ( ( #145 ) ) GLOBAL_UNIT_ASSIGNED_CONTEXT ( ( #65, #92, #172 ) ) REPRESENTATION_CONTEXT ( 'NONE', 'WORKASPACE' ) );
#291 = DIRECTION ( 'NONE',  ( -0.000000000000000000, -1.000000000000000000, -0.000000000000000000 ) ) ;
#292 = TOROIDAL_SURFACE ( 'NONE', #118, 4.000000000000000000, 1.000000000000000000 ) ;
#293 = ADVANCED_FACE ( 'NONE', ( #43 ), #292, .T. ) ;
#294 = CARTESIAN_POINT ( 'NONE',  ( 3.184081677783117402E-15, 63.00000000000000000, 0.000000000000000000 ) ) ;
#295 =( NAMED_UNIT ( * ) PLANE_ANGLE_UNIT ( ) SI_UNIT ( $, .RADIAN. ) );
#296 = FILL_AREA_STYLE ('',( #266 ) ) ;
#297 =( NAMED_UNIT ( * ) PLANE_ANGLE_UNIT ( ) SI_UNIT ( $, .RADIAN. ) );
#298 = PRESENTATION_STYLE_ASSIGNMENT (( #146 ) ) ;
#299 = VERTEX_POINT ( 'NONE', #69 ) ;
#300 = PRESENTATION_LAYER_ASSIGNMENT (  '', '', ( #61 ) ) ;
#301 = EDGE_CURVE ( 'NONE', #160, #90, #200, .T. ) ;
#302 = CIRCLE ( 'NONE', #236, 5.000000000000000000 ) ;
#303 = DIRECTION ( 'NONE',  ( 0.000000000000000000, 0.000000000000000000, -1.000000000000000000 ) ) ;
#304 = PRESENTATION_STYLE_ASSIGNMENT (( #243 ) ) ;
#305 = ORIENTED_EDGE ( 'NONE', *, *, #204, .F. ) ;
#306 = ORIENTED_EDGE ( 'NONE', *, *, #341, .T. ) ;
#307 = CARTESIAN_POINT ( 'NONE',  ( 0.000000000000000000, 20.00000000000000000, 0.000000000000000000 ) ) ;
#308 = AXIS2_PLACEMENT_3D ( 'NONE', #193, #134, #195 ) ;
#309 = VECTOR ( 'NONE', #74, 1000.000000000000000 ) ;
#310 = SURFACE_STYLE_FILL_AREA ( #189 ) ;
#311 = UNCERTAINTY_MEASURE_WITH_UNIT (LENGTH_MEASURE( 1.000000000000000082E-05 ), #135, 'distance_accuracy_value', 'NONE');
#312 = ORIENTED_EDGE ( 'NONE', *, *, #175, .T. ) ;
#313 = SURFACE_SIDE_STYLE ('',( #191 ) ) ;
#314 = VECTOR ( 'NONE', #9, 1000.000000000000000 ) ;
#315 = SURFACE_STYLE_FILL_AREA ( #348 ) ;
#316 = STYLED_ITEM ( 'NONE', ( #32 ), #34 ) ;
#317 = CIRCLE ( 'NONE', #163, 1.000000000000000000 ) ;
#318 = CIRCLE ( 'NONE', #203, 5.000000000000000000 ) ;
#319 = LINE ( 'NONE', #86, #218 ) ;
#320 = CARTESIAN_POINT ( 'NONE',  ( 3.184081677783117402E-15, 63.00000000000000000, 0.000000000000000000 ) ) ;
#321 = DIRECTION ( 'NONE',  ( -4.697880814296055710E-17, 1.000000000000000000, -0.000000000000000000 ) ) ;
#322 = ADVANCED_FACE ( 'NONE', ( #323 ), #39, .T. ) ;
#323 = FACE_OUTER_BOUND ( 'NONE', #121, .T. ) ;
#324 = SURFACE_STYLE_USAGE ( .BOTH. , #36 ) ;
#325 =( GEOMETRIC_REPRESENTATION_CONTEXT ( 3 ) GLOBAL_UNCERTAINTY_ASSIGNED_CONTEXT ( ( #351 ) ) GLOBAL_UNIT_ASSIGNED_CONTEXT ( ( #370, #295, #2 ) ) REPRESENTATION_CONTEXT ( 'NONE', 'WORKASPACE' ) );
#326 = FILL_AREA_STYLE_COLOUR ( '', #180 ) ;
#327 = PRODUCT_DEFINITION_FORMATION_WITH_SPECIFIED_SOURCE ( 'ANY', '', #364, .NOT_KNOWN. ) ;
#328 = FACE_OUTER_BOUND ( 'NONE', #123, .T. ) ;
#329 = COLOUR_RGB ( '',1.000000000000000000, 0.000000000000000000, 0.000000000000000000 ) ;
#330 = ORIENTED_EDGE ( 'NONE', *, *, #130, .F. ) ;
#331 = EDGE_CURVE ( 'NONE', #357, #90, #76, .T. ) ;
#332 =( LENGTH_UNIT ( ) NAMED_UNIT ( * ) SI_UNIT ( .MILLI., .METRE. ) );
#333 = ORIENTED_EDGE ( 'NONE', *, *, #130, .T. ) ;
#334 = DIRECTION ( 'NONE',  ( -4.697880814296055710E-17, 1.000000000000000000, 0.000000000000000000 ) ) ;
#335 = PRESENTATION_STYLE_ASSIGNMENT (( #254 ) ) ;
#336 = DIRECTION ( 'NONE',  ( -4.697880814296055710E-17, 1.000000000000000000, -0.000000000000000000 ) ) ;
#337 = PRESENTATION_LAYER_ASSIGNMENT (  '', '', ( #62 ) ) ;
#338 = AXIS2_PLACEMENT_3D ( 'NONE', #111, #115, #6 ) ;
#339 = CARTESIAN_POINT ( 'NONE',  ( -4.999999999999992006, 63.00000000000000000, 0.000000000000000000 ) ) ;
#340 = FACE_OUTER_BOUND ( 'NONE', #64, .T. ) ;
#341 = EDGE_CURVE ( 'NONE', #299, #276, #168, .T. ) ;
#342 = CARTESIAN_POINT ( 'NONE',  ( 5.000000000000000000, 63.00000000000000000, 0.000000000000000000 ) ) ;
#343 =( NAMED_UNIT ( * ) SI_UNIT ( $, .STERADIAN. ) SOLID_ANGLE_UNIT ( ) );
#344 = MECHANICAL_DESIGN_GEOMETRIC_PRESENTATION_REPRESENTATION (  '', ( #99 ), #325 ) ;
#345 = PLANE ( 'NONE',  #42 ) ;
#346 = SURFACE_SIDE_STYLE ('',( #229 ) ) ;
#347 = VERTEX_POINT ( 'NONE', #107 ) ;
#348 = FILL_AREA_STYLE ('',( #287 ) ) ;
#349 =( NAMED_UNIT ( * ) SI_UNIT ( $, .STERADIAN. ) SOLID_ANGLE_UNIT ( ) );
#350 = PRESENTATION_LAYER_ASSIGNMENT (  '', '', ( #316 ) ) ;
#351 = UNCERTAINTY_MEASURE_WITH_UNIT (LENGTH_MEASURE( 1.000000000000000082E-05 ), #370, 'distance_accuracy_value', 'NONE');
#352 =( NAMED_UNIT ( * ) PLANE_ANGLE_UNIT ( ) SI_UNIT ( $, .RADIAN. ) );
#353 = SURFACE_STYLE_FILL_AREA ( #296 ) ;
#354 = CARTESIAN_POINT ( 'NONE',  ( 0.000000000000000000, 0.000000000000000000, 0.000000000000000000 ) ) ;
#355 = PRESENTATION_LAYER_ASSIGNMENT (  '', '', ( #82 ) ) ;
#356 = DIRECTION ( 'NONE',  ( 0.000000000000000000, -0.000000000000000000, 1.000000000000000000 ) ) ;
#357 = VERTEX_POINT ( 'NONE', #141 ) ;
#358 = ADVANCED_FACE ( 'NONE', ( #232 ), #231, .T. ) ;
#359 = ORIENTED_EDGE ( 'NONE', *, *, #29, .T. ) ;
#360 = CIRCLE ( 'NONE', #192, 4.999999999999994671 ) ;
#361 = ORIENTED_EDGE ( 'NONE', *, *, #207, .T. ) ;
#362 =( NAMED_UNIT ( * ) SI_UNIT ( $, .STERADIAN. ) SOLID_ANGLE_UNIT ( ) );
#363 = EDGE_LOOP ( 'NONE', ( #128, #359 ) ) ;
#364 = PRODUCT ( '59658', '59658', '', ( #205 ) ) ;
#365 = PRESENTATION_LAYER_ASSIGNMENT (  '', '', ( #137 ) ) ;
#366 = DIRECTION ( 'NONE',  ( -4.697880814296055710E-17, 1.000000000000000000, -0.000000000000000000 ) ) ;
#367 = PRODUCT_RELATED_PRODUCT_CATEGORY ( 'part', '', ( #364 ) ) ;
#368 = CARTESIAN_POINT ( 'NONE',  ( 5.204170427930421283E-15, 20.00000000000000355, 0.000000000000000000 ) ) ;
#369 = SURFACE_SIDE_STYLE ('',( #310 ) ) ;
#370 =( LENGTH_UNIT ( ) NAMED_UNIT ( * ) SI_UNIT ( .MILLI., .METRE. ) );
ENDSEC;
END-ISO-10303-21;
